  0
SECTION
  2
HEADER
  9
$ACADVER
  1
AC1009
  9
$INSBASE
 10
0.0
 20
0.0
 30
0.0
  9
$EXTMIN
 10
0.0
 20
0.0
 30
0.0
  9
$EXTMAX
 10
0.0
 20
0.0
 30
0.0
  0
ENDSEC
  0
SECTION
  2
TABLES
  0
TABLE
  2
VPORT
 70
0
  0
ENDTAB
  0
TABLE
  2
LTYPE
 70
1
  0
LTYPE
  2
CONTINUOUS
 70
0
  3
Solid line
 72
65
 73
0
 40
0.0
  0
ENDTAB
  0
TABLE
  2
LAYER
 70
1
  0
LAYER
  2
0
 70
64
 62
7
  6
continuous
  0
ENDTAB
  0
TABLE
  2
STYLE
 70
1
  0
STYLE
  2
STANDARD
 70
0
 40
0
 41
1.0
 50
0.0
 71
0
 42
1
 3
ARIAL.TTF
 4

  0
ENDTAB
  0
TABLE
  2
VIEW
 70
0
  0
ENDTAB
  0
ENDSEC
  0
SECTION
  2
BLOCKS
  0
BLOCK
  8
0
  2
CUT
 70
0
 10
0.0
 20
0.0
 30
0.0
  3
CUT
  0
LINE
  8
0
 62
0
 10
-79.9945197333
 20
100.006539586
 30
0.0
 11
-89.9999967321
 21
100.006539586
 31
0.0
  0
LINE
  8
0
 62
0
 10
-79.9945197333
 20
100.006539586
 30
0.0
 11
-30.0
 21
65.0
 31
0.0
  0
ARC
  8
0
 62
0
 10
-90.0
 20
90.0065374473
 30
0.0
 40
10.0000021392
 50
89.999981276
 51
-179.962523344
  0
ARC
  8
0
 62
0
 10
-1.71004819656
 20
101.139373384
 30
0.0
 40
45.8952686191
 50
-128.053888942
 51
-100.486770534
  0
LINE
  8
0
 62
0
 10
-100.0
 20
89.9999965359
 30
0.0
 11
-100.0
 21
80.0
 31
0.0
  0
ARC
  8
0
 62
0
 10
-0.0538414306017
 20
54.9999721363
 30
0.0
 40
10.060435265
 50
0.00850653867419
 51
174.234043278
  0
LINE
  8
0
 62
0
 10
-100.0
 20
80.0
 30
0.0
 11
-50.060232121
 21
45.0317980747
 31
0.0
  0
ARC
  8
0
 62
0
 10
2.31974525195e-09
 20
100.000000001
 30
0.0
 40
46.0977222854
 50
-77.4627967673
 51
-49.3987053576
  0
ARC
  8
0
 62
0
 10
-85.0
 20
0.0
 30
0.0
 40
56.9969316479
 50
30.6297060044
 51
52.192434497
  0
LINE
  8
0
 62
0
 10
30.0
 20
65.0
 30
0.0
 11
79.9951244469
 21
100.006963011
 31
0.0
  0
LINE
  8
0
 62
0
 10
-35.9553948277
 20
29.0392307193
 30
0.0
 11
-38.9980785277
 21
25.9965470192
 31
0.0
  0
LINE
  8
0
 62
0
 10
79.9951244469
 20
100.006963011
 30
0.0
 11
90.0000032679
 21
100.006963011
 31
0.0
  0
ARC
  8
0
 62
0
 10
-39.0033478717
 20
24.0039393841
 30
0.0
 40
1.99261460238
 50
89.8484847393
 51
0.296052154058
  0
ARC
  8
0
 62
0
 10
90.0
 20
90.0069605889
 30
0.0
 40
10.0000024225
 50
-0.0398812305332
 51
89.999981276
  0
LINE
  8
0
 62
0
 10
-34.5306940988
 20
26.4943011176
 30
0.0
 11
-37.0107598694
 21
24.014235347
 31
0.0
  0
LINE
  8
0
 62
0
 10
100.0
 20
90.0
 30
0.0
 11
100.0
 21
80.0
 31
0.0
  0
ARC
  8
0
 62
0
 10
-85.0
 20
0.0
 30
0.0
 40
57.000866922
 50
-52.1128995971
 51
27.6976176646
  0
LINE
  8
0
 62
0
 10
100.0
 20
80.0
 30
0.0
 11
51.4690970435
 21
46.0182959137
 31
0.0
  0
LINE
  8
0
 62
0
 10
-100.0
 20
-80.0
 30
0.0
 11
-49.9953384185
 21
-44.986359015
 31
0.0
  0
ARC
  8
0
 62
0
 10
85.0
 20
3.54045168232e-31
 30
0.0
 40
56.9386073933
 50
126.078685189
 51
149.381360783
  0
LINE
  8
0
 62
0
 10
-100.0
 20
-90.0
 30
0.0
 11
-100.0
 21
-80.0
 31
0.0
  0
LINE
  8
0
 62
0
 10
35.9999792369
 20
29.0000513293
 30
0.0
 11
39.0000259824
 21
26.0000045838
 31
0.0
  0
ARC
  8
0
 62
0
 10
-90.0000926775
 20
-90.0000926651
 30
0.0
 40
9.99990732291
 50
179.999469063
 51
-89.9994689914
  0
ARC
  8
0
 62
0
 10
39.0
 20
24.0
 30
0.0
 40
2.00000458396
 50
180.0
 51
89.9992556611
  0
LINE
  8
0
 62
0
 10
-80.0000162444
 20
-99.9999999876
 30
0.0
 11
-89.9999999999
 21
-99.9999999876
 31
0.0
  0
LINE
  8
0
 62
0
 10
34.5258770809
 20
26.4741183351
 30
0.0
 11
36.999995416
 21
24.0
 31
0.0
  0
LINE
  8
0
 62
0
 10
-80.0000162444
 20
-99.9999999876
 30
0.0
 11
-34.7998836378
 21
-68.3505264083
 31
0.0
  0
ARC
  8
0
 62
0
 10
85.0
 20
3.54045168232e-31
 30
0.0
 40
56.9957544566
 50
152.322597262
 51
-127.783330162
  0
ARC
  8
0
 62
0
 10
-29.2418890976
 20
-76.2879331451
 30
0.0
 40
9.68987765733
 50
-64.0386352121
 51
125.000787131
  0
LINE
  8
0
 62
0
 10
50.0800043267
 20
-45.0456427222
 30
0.0
 11
100.0
 21
-80.0
 31
0.0
  0
LINE
  8
0
 62
0
 10
-25.0
 20
-84.9999998286
 30
0.0
 11
-25.0
 21
-94.9977395092
 31
0.0
  0
LINE
  8
0
 62
0
 10
100.0
 20
-80.0
 30
0.0
 11
100.0
 21
-89.999509534
 31
0.0
  0
ARC
  8
0
 62
0
 10
-20.0008549349
 20
-94.9977395092
 30
0.0
 40
4.99914506508
 50
180.0
 51
-90.0
  0
ARC
  8
0
 62
0
 10
90.0
 20
-90.0
 30
0.0
 40
10.000000012
 50
-90.0033302039
 51
0.00281016350088
  0
LINE
  8
0
 62
0
 10
-20.0008549349
 20
-99.9968845743
 30
0.0
 11
-16.070711
 21
-99.9968845743
 31
0.0
  0
LINE
  8
0
 62
0
 10
89.9994187698
 20
-99.9999999951
 30
0.0
 11
80.0392973522
 21
-99.9999999951
 31
0.0
  0
LINE
  8
0
 62
0
 10
-16.070711
 20
-99.9968845743
 30
0.0
 11
-16.070711
 21
-94.9968845743
 31
0.0
  0
LINE
  8
0
 62
0
 10
80.0392973522
 20
-99.9999999951
 30
0.0
 11
34.7738882203
 21
-68.3048193009
 31
0.0
  0
LINE
  8
0
 62
0
 10
-16.070711
 20
-94.9968845743
 30
0.0
 11
-13.870711
 21
-94.9968845743
 31
0.0
  0
ARC
  8
0
 62
0
 10
29.2293881297
 20
-76.267455527
 30
0.0
 40
9.70283757075
 50
55.1499408692
 51
-115.842059303
  0
LINE
  8
0
 62
0
 10
-13.870711
 20
-94.9968845743
 30
0.0
 11
-13.870711
 21
-100.0
 31
0.0
  0
LINE
  8
0
 62
0
 10
25.0
 20
-95.000854935
 30
0.0
 11
25.0
 21
-85.0
 31
0.0
  0
LINE
  8
0
 62
0
 10
-13.870711
 20
-100.0
 30
0.0
 11
13.929289
 21
-100.0
 31
0.0
  0
ARC
  8
0
 62
0
 10
20.000854935
 20
-95.000854935
 30
0.0
 40
4.99914506501
 50
-90.0
 51
-0.0
  0
LINE
  8
0
 62
0
 10
13.929289
 20
-100.0
 30
0.0
 11
13.929289
 21
-94.998329
 31
0.0
  0
LINE
  8
0
 62
0
 10
16.129289
 20
-100.0
 30
0.0
 11
20.000854935
 21
-100.0
 31
0.0
  0
LINE
  8
0
 62
0
 10
13.929289
 20
-94.998329
 30
0.0
 11
16.129289
 21
-94.998329
 31
0.0
  0
LINE
  8
0
 62
0
 10
16.129289
 20
-94.998329
 30
0.0
 11
16.129289
 21
-100.0
 31
0.0
  0
CIRCLE
  8
0
 62
0
 10
-20.0
 20
-25.0
 30
0.0
 40
1.5
  0
ARC
  8
0
 62
0
 10
0.0
 20
-27.0
 30
0.0
 40
5.0
 50
110.0
 51
70.0
  0
LINE
  8
0
 62
0
 10
-3.76222157658
 20
-16.6633811714
 30
0.0
 11
-1.71010071663
 21
-22.3015368961
 31
0.0
  0
LINE
  8
0
 62
0
 10
-5.57163917062
 20
-17.5154421847
 30
0.0
 11
-3.76222157658
 21
-16.6633811714
 31
0.0
  0
LINE
  8
0
 62
0
 10
-9.49004271936
 20
-15.3836714413
 30
0.0
 11
-5.57163917062
 21
-17.5154421847
 31
0.0
  0
LINE
  8
0
 62
0
 10
-11.6118620612
 20
-17.5044926691
 30
0.0
 11
-9.49004271936
 21
-15.3836714413
 31
0.0
  0
LINE
  8
0
 62
0
 10
-9.49371864701
 20
-21.4439846786
 30
0.0
 11
-11.6118620612
 21
-17.5044926691
 31
0.0
  0
LINE
  8
0
 62
0
 10
-10.6417689441
 20
-24.2156232761
 30
0.0
 11
-9.49371864701
 21
-21.4439846786
 31
0.0
  0
LINE
  8
0
 62
0
 10
-15.0
 20
-25.5
 30
0.0
 11
-10.6417689441
 21
-24.2156232761
 31
0.0
  0
LINE
  8
0
 62
0
 10
-15.0
 20
-28.5
 30
0.0
 11
-15.0
 21
-25.5
 31
0.0
  0
LINE
  8
0
 62
0
 10
-10.6417689441
 20
-29.7843767239
 30
0.0
 11
-15.0
 21
-28.5
 31
0.0
  0
LINE
  8
0
 62
0
 10
-9.49371864701
 20
-32.5560153214
 30
0.0
 11
-10.6417689441
 21
-29.7843767239
 31
0.0
  0
LINE
  8
0
 62
0
 10
-11.6139119491
 20
-36.4930000126
 30
0.0
 11
-9.49371864701
 21
-32.5560153214
 31
0.0
  0
LINE
  8
0
 62
0
 10
-9.49255055953
 20
-38.6142793093
 30
0.0
 11
-11.6139119491
 21
-36.4930000126
 31
0.0
  0
LINE
  8
0
 62
0
 10
-5.55601532139
 20
-36.493718647
 30
0.0
 11
-9.49255055953
 21
-38.6142793093
 31
0.0
  0
LINE
  8
0
 62
0
 10
-2.78437672385
 20
-37.6417689441
 30
0.0
 11
-5.55601532139
 21
-36.493718647
 31
0.0
  0
LINE
  8
0
 62
0
 10
-1.5
 20
-41.9248115566
 30
0.0
 11
-2.78437672385
 21
-37.6417689441
 31
0.0
  0
LINE
  8
0
 62
0
 10
1.5
 20
-41.9248115566
 30
0.0
 11
-1.5
 21
-41.9248115566
 31
0.0
  0
LINE
  8
0
 62
0
 10
2.78437672385
 20
-37.6417689441
 30
0.0
 11
1.5
 21
-41.9248115566
 31
0.0
  0
LINE
  8
0
 62
0
 10
5.55601532139
 20
-36.493718647
 30
0.0
 11
2.78437672385
 21
-37.6417689441
 31
0.0
  0
LINE
  8
0
 62
0
 10
9.49004271936
 20
-38.6163285587
 30
0.0
 11
5.55601532139
 21
-36.493718647
 31
0.0
  0
LINE
  8
0
 62
0
 10
11.6118620612
 20
-36.4955073309
 30
0.0
 11
9.49004271936
 21
-38.6163285587
 31
0.0
  0
LINE
  8
0
 62
0
 10
9.49371864701
 20
-32.5560153214
 30
0.0
 11
11.6118620612
 21
-36.4955073309
 31
0.0
  0
LINE
  8
0
 62
0
 10
10.6417689441
 20
-29.7843767239
 30
0.0
 11
9.49371864701
 21
-32.5560153214
 31
0.0
  0
LINE
  8
0
 62
0
 10
14.9248115566
 20
-28.5
 30
0.0
 11
10.6417689441
 21
-29.7843767239
 31
0.0
  0
LINE
  8
0
 62
0
 10
14.9248115566
 20
-25.5
 30
0.0
 11
14.9248115566
 21
-28.5
 31
0.0
  0
LINE
  8
0
 62
0
 10
10.6417689441
 20
-24.2156232761
 30
0.0
 11
14.9248115566
 21
-25.5
 31
0.0
  0
LINE
  8
0
 62
0
 10
9.49371864701
 20
-21.4439846786
 30
0.0
 11
10.6417689441
 21
-24.2156232761
 31
0.0
  0
LINE
  8
0
 62
0
 10
11.6139119491
 20
-17.5069999874
 30
0.0
 11
9.49371864701
 21
-21.4439846786
 31
0.0
  0
LINE
  8
0
 62
0
 10
9.49255055953
 20
-15.3857206907
 30
0.0
 11
11.6139119491
 21
-17.5069999874
 31
0.0
  0
LINE
  8
0
 62
0
 10
5.57163917062
 20
-17.5154421847
 30
0.0
 11
9.49255055953
 21
-15.3857206907
 31
0.0
  0
LINE
  8
0
 62
0
 10
3.76222157658
 20
-16.6633811714
 30
0.0
 11
5.57163917062
 21
-17.5154421847
 31
0.0
  0
LINE
  8
0
 62
0
 10
1.71010071663
 20
-22.3015368961
 30
0.0
 11
3.76222157658
 21
-16.6633811714
 31
0.0
  0
CIRCLE
  8
0
 62
0
 10
-15.25
 20
-34.75
 30
0.0
 40
1.5
  0
CIRCLE
  8
0
 62
0
 10
15.25
 20
-34.75
 30
0.0
 40
1.5
  0
CIRCLE
  8
0
 62
0
 10
8.0
 20
-42.0
 30
0.0
 40
1.5
  0
CIRCLE
  8
0
 62
0
 10
-8.0
 20
-42.0
 30
0.0
 40
1.5
  0
CIRCLE
  8
0
 62
0
 10
30.0
 20
-45.0
 30
0.0
 40
1.5
  0
CIRCLE
  8
0
 62
0
 10
20.0
 20
-25.0
 30
0.0
 40
1.5
  0
ARC
  8
0
 62
0
 10
20.0
 20
12.5
 30
0.0
 40
1.5
 50
-0.0
 51
-180.0
  0
LINE
  8
0
 62
0
 10
21.5
 20
12.5
 30
0.0
 11
21.5
 21
-12.5
 31
0.0
  0
LINE
  8
0
 62
0
 10
18.5
 20
12.5
 30
0.0
 11
18.5
 21
-12.5
 31
0.0
  0
ARC
  8
0
 62
0
 10
20.0
 20
-12.5
 30
0.0
 40
1.5
 50
-180.0
 51
0.0
  0
CIRCLE
  8
0
 62
0
 10
15.25
 20
-15.25
 30
0.0
 40
1.5
  0
CIRCLE
  8
0
 62
0
 10
15.25
 20
15.25
 30
0.0
 40
1.5
  0
CIRCLE
  8
0
 62
0
 10
-15.25
 20
15.25
 30
0.0
 40
1.5
  0
CIRCLE
  8
0
 62
0
 10
10.0
 20
10.0000000779
 30
0.0
 40
1.5
  0
CIRCLE
  8
0
 62
0
 10
0.0
 20
0.0
 30
0.0
 40
10.0
  0
CIRCLE
  8
0
 62
0
 10
10.0
 20
-9.99999992206
 30
0.0
 40
1.5
  0
CIRCLE
  8
0
 62
0
 10
-10.0
 20
10.0000000779
 30
0.0
 40
1.5
  0
CIRCLE
  8
0
 62
0
 10
-10.0
 20
-9.99999992206
 30
0.0
 40
1.5
  0
CIRCLE
  8
0
 62
0
 10
-15.25
 20
-15.25
 30
0.0
 40
1.5
  0
ARC
  8
0
 62
0
 10
-20.0
 20
12.5
 30
0.0
 40
1.5
 50
-0.0
 51
-180.0
  0
LINE
  8
0
 62
0
 10
-18.5
 20
12.5
 30
0.0
 11
-18.5
 21
-12.5
 31
0.0
  0
LINE
  8
0
 62
0
 10
-21.5
 20
12.5
 30
0.0
 11
-21.5
 21
-12.5
 31
0.0
  0
ARC
  8
0
 62
0
 10
-20.0
 20
-12.5
 30
0.0
 40
1.5
 50
-180.0
 51
0.0
  0
CIRCLE
  8
0
 62
0
 10
19.0
 20
49.0
 30
0.0
 40
1.5
  0
LINE
  8
0
 62
0
 10
20.15
 20
44.15
 30
0.0
 11
15.85
 21
44.15
 31
0.0
  0
LINE
  8
0
 62
0
 10
20.15
 20
41.85
 30
0.0
 11
20.15
 21
44.15
 31
0.0
  0
LINE
  8
0
 62
0
 10
15.85
 20
44.15
 30
0.0
 11
15.85
 21
41.85
 31
0.0
  0
LINE
  8
0
 62
0
 10
15.85
 20
41.85
 30
0.0
 11
20.15
 21
41.85
 31
0.0
  0
LINE
  8
0
 62
0
 10
-15.85
 20
44.15
 30
0.0
 11
-20.15
 21
44.15
 31
0.0
  0
LINE
  8
0
 62
0
 10
-15.85
 20
41.85
 30
0.0
 11
-15.85
 21
44.15
 31
0.0
  0
LINE
  8
0
 62
0
 10
-20.15
 20
44.15
 30
0.0
 11
-20.15
 21
41.85
 31
0.0
  0
LINE
  8
0
 62
0
 10
-20.15
 20
41.85
 30
0.0
 11
-15.85
 21
41.85
 31
0.0
  0
LINE
  8
0
 62
0
 10
22.15
 20
35.15
 30
0.0
 11
17.85
 21
35.15
 31
0.0
  0
LINE
  8
0
 62
0
 10
22.15
 20
32.85
 30
0.0
 11
22.15
 21
35.15
 31
0.0
  0
LINE
  8
0
 62
0
 10
17.85
 20
35.15
 30
0.0
 11
17.85
 21
32.85
 31
0.0
  0
LINE
  8
0
 62
0
 10
17.85
 20
32.85
 30
0.0
 11
22.15
 21
32.85
 31
0.0
  0
CIRCLE
  8
0
 62
0
 10
0.0
 20
25.0
 30
0.0
 40
8.0
  0
LINE
  8
0
 62
0
 10
-17.85
 20
35.15
 30
0.0
 11
-22.15
 21
35.15
 31
0.0
  0
LINE
  8
0
 62
0
 10
-17.85
 20
32.85
 30
0.0
 11
-17.85
 21
35.15
 31
0.0
  0
LINE
  8
0
 62
0
 10
-22.15
 20
35.15
 30
0.0
 11
-22.15
 21
32.85
 31
0.0
  0
LINE
  8
0
 62
0
 10
-22.15
 20
32.85
 30
0.0
 11
-17.85
 21
32.85
 31
0.0
  0
CIRCLE
  8
0
 62
0
 10
-15.0
 20
25.0
 30
0.0
 40
5.0
  0
CIRCLE
  8
0
 62
0
 10
15.0
 20
25.0
 30
0.0
 40
5.0
  0
CIRCLE
  8
0
 62
0
 10
30.0
 20
45.0
 30
0.0
 40
1.5
  0
CIRCLE
  8
0
 62
0
 10
-30.0
 20
-45.0
 30
0.0
 40
1.5
  0
ARC
  8
0
 62
0
 10
-85.0
 20
77.0
 30
0.0
 40
1.5
 50
-0.0
 51
-180.0
  0
LINE
  8
0
 62
0
 10
-83.5
 20
77.0
 30
0.0
 11
-83.5
 21
75.5
 31
0.0
  0
LINE
  8
0
 62
0
 10
-86.5
 20
77.0
 30
0.0
 11
-86.5
 21
75.5
 31
0.0
  0
ARC
  8
0
 62
0
 10
-85.0
 20
75.5
 30
0.0
 40
1.5
 50
-180.0
 51
-0.0
  0
POLYLINE
  8
0
 62
0
 70
0
 66
1
 10
0.0
 20
0.0
 30
0.0
  0
VERTEX
  8
0
 10
-54.0013181783
 20
64.2549864233
 30
0.0
  0
VERTEX
  8
0
 10
-54.9960503389
 20
66.9132523304
 30
0.0
  0
VERTEX
  8
0
 10
-59.3582397203
 20
71.0115139678
 30
0.0
  0
VERTEX
  8
0
 10
-65.0467694304
 20
74.6321491683
 30
0.0
  0
VERTEX
  8
0
 10
-69.3999131969
 20
76.0810224827
 30
0.0
  0
VERTEX
  8
0
 10
-70.3807866718
 20
74.6801899848
 30
0.0
  0
VERTEX
  8
0
 10
-67.5304282548
 20
71.0851167688
 30
0.0
  0
VERTEX
  8
0
 10
-62.1825523276
 20
66.9779775473
 30
0.0
  0
VERTEX
  8
0
 10
-56.8394894714
 20
64.2805484078
 30
0.0
  0
VERTEX
  8
0
 10
-54.0013181783
 20
64.2549864233
 30
0.0
  0
SEQEND
  8
0
  0
CIRCLE
  8
0
 62
0
 10
-30.0
 20
45.0
 30
0.0
 40
1.5
  0
CIRCLE
  8
0
 62
0
 10
-35.0
 20
60.0
 30
0.0
 40
1.0
  0
CIRCLE
  8
0
 62
0
 10
-45.0
 20
50.0
 30
0.0
 40
1.0
  0
ARC
  8
0
 62
0
 10
0.007181363478
 20
55.0
 30
0.0
 40
7.00717671845
 50
0.0182632637245
 51
-179.999976079
  0
ARC
  8
0
 62
0
 10
0.0
 20
100.0
 30
0.0
 40
45.5411923246
 50
-98.8418082198
 51
-81.1399045885
  0
CIRCLE
  8
0
 62
0
 10
-19.0
 20
49.0
 30
0.0
 40
1.5
  0
CIRCLE
  8
0
 62
0
 10
-35.0
 20
-60.0
 30
0.0
 40
1.0
  0
CIRCLE
  8
0
 62
0
 10
-8.0
 20
-58.0
 30
0.0
 40
1.5
  0
LINE
  8
0
 62
0
 10
-15.85
 20
-51.85
 30
0.0
 11
-20.15
 21
-51.85
 31
0.0
  0
LINE
  8
0
 62
0
 10
-15.85
 20
-54.15
 30
0.0
 11
-15.85
 21
-51.85
 31
0.0
  0
LINE
  8
0
 62
0
 10
-20.15
 20
-51.85
 30
0.0
 11
-20.15
 21
-54.15
 31
0.0
  0
LINE
  8
0
 62
0
 10
-20.15
 20
-54.15
 30
0.0
 11
-15.85
 21
-54.15
 31
0.0
  0
LINE
  8
0
 62
0
 10
20.15
 20
-51.85
 30
0.0
 11
15.85
 21
-51.85
 31
0.0
  0
LINE
  8
0
 62
0
 10
20.15
 20
-54.15
 30
0.0
 11
20.15
 21
-51.85
 31
0.0
  0
LINE
  8
0
 62
0
 10
15.85
 20
-51.85
 30
0.0
 11
15.85
 21
-54.15
 31
0.0
  0
LINE
  8
0
 62
0
 10
15.85
 20
-54.15
 30
0.0
 11
20.15
 21
-54.15
 31
0.0
  0
CIRCLE
  8
0
 62
0
 10
8.0
 20
-58.0
 30
0.0
 40
1.5
  0
CIRCLE
  8
0
 62
0
 10
-45.0
 20
-50.0
 30
0.0
 40
1.0
  0
CIRCLE
  8
0
 62
0
 10
-20.0
 20
-95.0
 30
0.0
 40
1.5
  0
LINE
  8
0
 62
0
 10
-16.1
 20
-79.9
 30
0.0
 11
-13.9
 21
-79.9
 31
0.0
  0
LINE
  8
0
 62
0
 10
-16.1
 20
-85.1
 30
0.0
 11
-16.1
 21
-79.9
 31
0.0
  0
LINE
  8
0
 62
0
 10
-13.9
 20
-79.9
 30
0.0
 11
-13.9
 21
-85.1
 31
0.0
  0
LINE
  8
0
 62
0
 10
-13.9
 20
-85.1
 30
0.0
 11
-16.1
 21
-85.1
 31
0.0
  0
CIRCLE
  8
0
 62
0
 10
-15.25
 20
-65.25
 30
0.0
 40
1.5
  0
CIRCLE
  8
0
 62
0
 10
15.25
 20
-65.25
 30
0.0
 40
1.5
  0
LINE
  8
0
 62
0
 10
13.9
 20
-79.9
 30
0.0
 11
16.1
 21
-79.9
 31
0.0
  0
LINE
  8
0
 62
0
 10
13.9
 20
-85.1
 30
0.0
 11
13.9
 21
-79.9
 31
0.0
  0
LINE
  8
0
 62
0
 10
16.1
 20
-79.9
 30
0.0
 11
16.1
 21
-85.1
 31
0.0
  0
LINE
  8
0
 62
0
 10
16.1
 20
-85.1
 30
0.0
 11
13.9
 21
-85.1
 31
0.0
  0
ARC
  8
0
 62
0
 10
0.0
 20
-70.0
 30
0.0
 40
5.0
 50
-0.0
 51
-180.0
  0
LINE
  8
0
 62
0
 10
5.0
 20
-70.0
 30
0.0
 11
5.0
 21
-85.0
 31
0.0
  0
LINE
  8
0
 62
0
 10
-5.0
 20
-70.0
 30
0.0
 11
-5.0
 21
-85.0
 31
0.0
  0
ARC
  8
0
 62
0
 10
0.0
 20
-85.0
 30
0.0
 40
5.0
 50
-180.0
 51
0.0
  0
ARC
  8
0
 62
0
 10
-85.0
 20
-77.0
 30
0.0
 40
1.5
 50
-180.0
 51
-0.0
  0
LINE
  8
0
 62
0
 10
-86.5
 20
-75.5
 30
0.0
 11
-86.5
 21
-77.0
 31
0.0
  0
LINE
  8
0
 62
0
 10
-83.5
 20
-75.5
 30
0.0
 11
-83.5
 21
-77.0
 31
0.0
  0
ARC
  8
0
 62
0
 10
-85.0
 20
-75.5
 30
0.0
 40
1.5
 50
-0.0
 51
-180.0
  0
CIRCLE
  8
0
 62
0
 10
-85.0
 20
-85.0
 30
0.0
 40
5.0
  0
ARC
  8
0
 62
0
 10
-77.0
 20
-85.0
 30
0.0
 40
1.5
 50
90.0
 51
-90.0
  0
LINE
  8
0
 62
0
 10
-77.0
 20
-83.5
 30
0.0
 11
-75.5
 21
-83.5
 31
0.0
  0
LINE
  8
0
 62
0
 10
-77.0
 20
-86.5
 30
0.0
 11
-75.5
 21
-86.5
 31
0.0
  0
ARC
  8
0
 62
0
 10
-75.5
 20
-85.0
 30
0.0
 40
1.5
 50
-90.0
 51
90.0
  0
POLYLINE
  8
0
 62
0
 70
0
 66
1
 10
0.0
 20
0.0
 30
0.0
  0
VERTEX
  8
0
 10
-52.8577609143
 20
-64.2548131247
 30
0.0
  0
VERTEX
  8
0
 10
-55.6959322074
 20
-64.2803751092
 30
0.0
  0
VERTEX
  8
0
 10
-61.0389950636
 20
-66.9778042487
 30
0.0
  0
VERTEX
  8
0
 10
-66.3868709908
 20
-71.0849434702
 30
0.0
  0
VERTEX
  8
0
 10
-69.2372294078
 20
-74.6800166862
 30
0.0
  0
VERTEX
  8
0
 10
-68.2563559329
 20
-76.0808491842
 30
0.0
  0
VERTEX
  8
0
 10
-63.9032121664
 20
-74.6319758698
 30
0.0
  0
VERTEX
  8
0
 10
-58.2146824563
 20
-71.0113406693
 30
0.0
  0
VERTEX
  8
0
 10
-53.852493075
 20
-66.9130790318
 30
0.0
  0
VERTEX
  8
0
 10
-52.8577609143
 20
-64.2548131247
 30
0.0
  0
SEQEND
  8
0
  0
ARC
  8
0
 62
0
 10
-85.0
 20
-93.0
 30
0.0
 40
1.5
 50
-0.0
 51
-180.0
  0
LINE
  8
0
 62
0
 10
-83.5
 20
-93.0
 30
0.0
 11
-83.5
 21
-94.5
 31
0.0
  0
LINE
  8
0
 62
0
 10
-86.5
 20
-93.0
 30
0.0
 11
-86.5
 21
-94.5
 31
0.0
  0
ARC
  8
0
 62
0
 10
-85.0
 20
-94.5
 30
0.0
 40
1.5
 50
-180.0
 51
-0.0
  0
CIRCLE
  8
0
 62
0
 10
20.0
 20
-95.0
 30
0.0
 40
1.5
  0
POLYLINE
  8
0
 62
0
 70
0
 66
1
 10
0.0
 20
0.0
 30
0.0
  0
VERTEX
  8
0
 10
53.5930345801
 20
-64.2549875117
 30
0.0
  0
VERTEX
  8
0
 10
54.5877667408
 20
-66.9132534188
 30
0.0
  0
VERTEX
  8
0
 10
58.9499561221
 20
-71.0115150562
 30
0.0
  0
VERTEX
  8
0
 10
64.6384858322
 20
-74.6321502567
 30
0.0
  0
VERTEX
  8
0
 10
68.9916295988
 20
-76.0810235711
 30
0.0
  0
VERTEX
  8
0
 10
69.9725030736
 20
-74.6801910732
 30
0.0
  0
VERTEX
  8
0
 10
67.1221446567
 20
-71.0851178572
 30
0.0
  0
VERTEX
  8
0
 10
61.7742687294
 20
-66.9779786357
 30
0.0
  0
VERTEX
  8
0
 10
56.4312058733
 20
-64.2805494962
 30
0.0
  0
VERTEX
  8
0
 10
53.5930345801
 20
-64.2549875117
 30
0.0
  0
SEQEND
  8
0
  0
CIRCLE
  8
0
 62
0
 10
45.0
 20
-50.0
 30
0.0
 40
1.0
  0
CIRCLE
  8
0
 62
0
 10
45.0
 20
50.0
 30
0.0
 40
1.0
  0
CIRCLE
  8
0
 62
0
 10
35.0
 20
60.0
 30
0.0
 40
1.0
  0
CIRCLE
  8
0
 62
0
 10
35.0
 20
-60.0
 30
0.0
 40
1.0
  0
POLYLINE
  8
0
 62
0
 70
0
 66
1
 10
0.0
 20
0.0
 30
0.0
  0
VERTEX
  8
0
 10
52.971928439
 20
64.2549864233
 30
0.0
  0
VERTEX
  8
0
 10
55.8100997322
 20
64.2805484078
 30
0.0
  0
VERTEX
  8
0
 10
61.1531625883
 20
66.9779775473
 30
0.0
  0
VERTEX
  8
0
 10
66.5010385156
 20
71.0851167688
 30
0.0
  0
VERTEX
  8
0
 10
69.3513969325
 20
74.6801899848
 30
0.0
  0
VERTEX
  8
0
 10
68.3705234577
 20
76.0810224827
 30
0.0
  0
VERTEX
  8
0
 10
64.0173796911
 20
74.6321491683
 30
0.0
  0
VERTEX
  8
0
 10
58.328849981
 20
71.0115139678
 30
0.0
  0
VERTEX
  8
0
 10
53.9666605997
 20
66.9132523304
 30
0.0
  0
VERTEX
  8
0
 10
52.971928439
 20
64.2549864233
 30
0.0
  0
SEQEND
  8
0
  0
ARC
  8
0
 62
0
 10
85.0
 20
-93.0
 30
0.0
 40
1.5
 50
-0.0
 51
-180.0
  0
LINE
  8
0
 62
0
 10
86.5
 20
-93.0
 30
0.0
 11
86.5
 21
-94.5
 31
0.0
  0
LINE
  8
0
 62
0
 10
83.5
 20
-93.0
 30
0.0
 11
83.5
 21
-94.5
 31
0.0
  0
ARC
  8
0
 62
0
 10
85.0
 20
-94.5
 30
0.0
 40
1.5
 50
-180.0
 51
-0.0
  0
CIRCLE
  8
0
 62
0
 10
85.0
 20
-85.0
 30
0.0
 40
5.0
  0
ARC
  8
0
 62
0
 10
75.5
 20
-85.0
 30
0.0
 40
1.5
 50
90.0
 51
-90.0
  0
LINE
  8
0
 62
0
 10
75.5
 20
-83.5
 30
0.0
 11
77.0
 21
-83.5
 31
0.0
  0
LINE
  8
0
 62
0
 10
75.5
 20
-86.5
 30
0.0
 11
77.0
 21
-86.5
 31
0.0
  0
ARC
  8
0
 62
0
 10
77.0
 20
-85.0
 30
0.0
 40
1.5
 50
-90.0
 51
90.0
  0
ARC
  8
0
 62
0
 10
85.0
 20
-75.5
 30
0.0
 40
1.5
 50
-0.0
 51
-180.0
  0
LINE
  8
0
 62
0
 10
86.5
 20
-75.5
 30
0.0
 11
86.5
 21
-77.0
 31
0.0
  0
LINE
  8
0
 62
0
 10
83.5
 20
-75.5
 30
0.0
 11
83.5
 21
-77.0
 31
0.0
  0
ARC
  8
0
 62
0
 10
85.0
 20
-77.0
 30
0.0
 40
1.5
 50
-180.0
 51
-0.0
  0
ARC
  8
0
 62
0
 10
85.0
 20
77.0
 30
0.0
 40
1.5
 50
-0.0
 51
-180.0
  0
LINE
  8
0
 62
0
 10
86.5
 20
77.0
 30
0.0
 11
86.5
 21
75.5
 31
0.0
  0
LINE
  8
0
 62
0
 10
83.5
 20
77.0
 30
0.0
 11
83.5
 21
75.5
 31
0.0
  0
ARC
  8
0
 62
0
 10
85.0
 20
75.5
 30
0.0
 40
1.5
 50
-180.0
 51
-0.0
  0
ARC
  8
0
 62
0
 10
85.0
 20
93.0
 30
0.0
 40
1.5
 50
-180.0
 51
-0.0
  0
LINE
  8
0
 62
0
 10
83.5
 20
94.5
 30
0.0
 11
83.5
 21
93.0
 31
0.0
  0
LINE
  8
0
 62
0
 10
86.5
 20
94.5
 30
0.0
 11
86.5
 21
93.0
 31
0.0
  0
ARC
  8
0
 62
0
 10
85.0
 20
94.5
 30
0.0
 40
1.5
 50
-0.0
 51
-180.0
  0
CIRCLE
  8
0
 62
0
 10
85.0
 20
85.0
 30
0.0
 40
5.0
  0
ARC
  8
0
 62
0
 10
77.0
 20
85.0
 30
0.0
 40
1.5
 50
-90.0
 51
90.0
  0
LINE
  8
0
 62
0
 10
75.5
 20
83.5
 30
0.0
 11
77.0
 21
83.5
 31
0.0
  0
LINE
  8
0
 62
0
 10
75.5
 20
86.5
 30
0.0
 11
77.0
 21
86.5
 31
0.0
  0
ARC
  8
0
 62
0
 10
75.5
 20
85.0
 30
0.0
 40
1.5
 50
90.0
 51
-90.0
  0
ARC
  8
0
 62
0
 10
-77.0
 20
85.0
 30
0.0
 40
1.5
 50
90.0
 51
-90.0
  0
LINE
  8
0
 62
0
 10
-77.0
 20
86.5
 30
0.0
 11
-75.5
 21
86.5
 31
0.0
  0
LINE
  8
0
 62
0
 10
-77.0
 20
83.5
 30
0.0
 11
-75.5
 21
83.5
 31
0.0
  0
ARC
  8
0
 62
0
 10
-75.5
 20
85.0
 30
0.0
 40
1.5
 50
-90.0
 51
90.0
  0
CIRCLE
  8
0
 62
0
 10
-85.0
 20
85.0
 30
0.0
 40
5.0
  0
ARC
  8
0
 62
0
 10
-85.0
 20
93.0
 30
0.0
 40
1.5
 50
-180.0
 51
-0.0
  0
LINE
  8
0
 62
0
 10
-86.5
 20
94.5
 30
0.0
 11
-86.5
 21
93.0
 31
0.0
  0
LINE
  8
0
 62
0
 10
-83.5
 20
94.5
 30
0.0
 11
-83.5
 21
93.0
 31
0.0
  0
ARC
  8
0
 62
0
 10
-85.0
 20
94.5
 30
0.0
 40
1.5
 50
-0.0
 51
-180.0
  0
ARC
  8
0
 62
0
 10
-93.0
 20
-85.0
 30
0.0
 40
1.5
 50
-90.0
 51
90.0
  0
LINE
  8
0
 62
0
 10
-94.5
 20
-86.5
 30
0.0
 11
-93.0
 21
-86.5
 31
0.0
  0
LINE
  8
0
 62
0
 10
-94.5
 20
-83.5
 30
0.0
 11
-93.0
 21
-83.5
 31
0.0
  0
ARC
  8
0
 62
0
 10
-94.5
 20
-85.0
 30
0.0
 40
1.5
 50
90.0
 51
-90.0
  0
ARC
  8
0
 62
0
 10
-93.0
 20
85.0
 30
0.0
 40
1.5
 50
-90.0
 51
90.0
  0
LINE
  8
0
 62
0
 10
-94.5
 20
83.5
 30
0.0
 11
-93.0
 21
83.5
 31
0.0
  0
LINE
  8
0
 62
0
 10
-94.5
 20
86.5
 30
0.0
 11
-93.0
 21
86.5
 31
0.0
  0
ARC
  8
0
 62
0
 10
-94.5
 20
85.0
 30
0.0
 40
1.5
 50
90.0
 51
-90.0
  0
ARC
  8
0
 62
0
 10
93.0
 20
85.0
 30
0.0
 40
1.5
 50
90.0
 51
-90.0
  0
LINE
  8
0
 62
0
 10
93.0
 20
86.5
 30
0.0
 11
94.5
 21
86.5
 31
0.0
  0
LINE
  8
0
 62
0
 10
93.0
 20
83.5
 30
0.0
 11
94.5
 21
83.5
 31
0.0
  0
ARC
  8
0
 62
0
 10
94.5
 20
85.0
 30
0.0
 40
1.5
 50
-90.0
 51
90.0
  0
ARC
  8
0
 62
0
 10
93.0
 20
-85.0
 30
0.0
 40
1.5
 50
90.0
 51
-90.0
  0
LINE
  8
0
 62
0
 10
93.0
 20
-83.5
 30
0.0
 11
94.5
 21
-83.5
 31
0.0
  0
LINE
  8
0
 62
0
 10
93.0
 20
-86.5
 30
0.0
 11
94.5
 21
-86.5
 31
0.0
  0
ARC
  8
0
 62
0
 10
94.5
 20
-85.0
 30
0.0
 40
1.5
 50
-90.0
 51
90.0
  0
ENDBLK
  0
ENDSEC
  0
SECTION
  2
ENTITIES
  0
INSERT
  2
CUT
  8
0
 62
0
 10
0.0
 20
0.0
 30
0.0
  0
ENDSEC
  0
EOF
