  0
SECTION
  2
HEADER
  9
$ACADVER
  1
AC1009
  9
$INSBASE
 10
0.0
 20
0.0
 30
0.0
  9
$EXTMIN
 10
-37.0764953456663093
 20
34.5104989495049495
 30
0.0
  9
$EXTMAX
 10
244.164896633771292
 20
210.5739980985458999
 30
0.0
  9
$LIMMIN
 10
0.0
 20
0.0
  9
$LIMMAX
 10
420.0
 20
297.0
  9
$ORTHOMODE
 70
     0
  9
$REGENMODE
 70
     1
  9
$FILLMODE
 70
     1
  9
$QTEXTMODE
 70
     0
  9
$MIRRTEXT
 70
     0
  9
$DRAGMODE
 70
     2
  9
$LTSCALE
 40
1.0
  9
$OSMODE
 70
    37
  9
$ATTMODE
 70
     1
  9
$TEXTSIZE
 40
2.5
  9
$TRACEWID
 40
1.0
  9
$TEXTSTYLE
  7
STANDARD
  9
$CLAYER
  8
0
  9
$CELTYPE
  6
BYLAYER
  9
$CECOLOR
 62
   256
  9
$DIMSCALE
 40
1.0
  9
$DIMASZ
 40
2.5
  9
$DIMEXO
 40
0.625
  9
$DIMDLI
 40
3.75
  9
$DIMRND
 40
0.0
  9
$DIMDLE
 40
0.0
  9
$DIMEXE
 40
1.25
  9
$DIMTP
 40
0.0
  9
$DIMTM
 40
0.0
  9
$DIMTXT
 40
2.5
  9
$DIMCEN
 40
2.5
  9
$DIMTSZ
 40
0.0
  9
$DIMTOL
 70
     0
  9
$DIMLIM
 70
     0
  9
$DIMTIH
 70
     0
  9
$DIMTOH
 70
     0
  9
$DIMSE1
 70
     0
  9
$DIMSE2
 70
     0
  9
$DIMTAD
 70
     1
  9
$DIMZIN
 70
     8
  9
$DIMBLK
  1

  9
$DIMASO
 70
     1
  9
$DIMSHO
 70
     1
  9
$DIMPOST
  1

  9
$DIMAPOST
  1

  9
$DIMALT
 70
     0
  9
$DIMALTD
 70
     3
  9
$DIMALTF
 40
0.03937007874016
  9
$DIMLFAC
 40
1.0
  9
$DIMTOFL
 70
     1
  9
$DIMTVP
 40
0.0
  9
$DIMTIX
 70
     0
  9
$DIMSOXD
 70
     0
  9
$DIMSAH
 70
     0
  9
$DIMBLK1
  1

  9
$DIMBLK2
  1

  9
$DIMSTYLE
  2
ISO-25
  9
$DIMCLRD
 70
     0
  9
$DIMCLRE
 70
     0
  9
$DIMCLRT
 70
     0
  9
$DIMTFAC
 40
1.0
  9
$DIMGAP
 40
0.625
  9
$LUNITS
 70
     2
  9
$LUPREC
 70
     4
  9
$SKETCHINC
 40
1.0
  9
$FILLETRAD
 40
0.0
  9
$AUNITS
 70
     0
  9
$AUPREC
 70
     0
  9
$MENU
  1
.
  9
$ELEVATION
 40
0.0
  9
$PELEVATION
 40
0.0
  9
$THICKNESS
 40
0.0
  9
$LIMCHECK
 70
     0
  9
$BLIPMODE
 70
     0
  9
$CHAMFERA
 40
0.0
  9
$CHAMFERB
 40
0.0
  9
$SKPOLY
 70
     0
  9
$TDCREATE
 40
2457329.7952777771279216
  9
$TDUPDATE
 40
2458267.742569443769753
  9
$TDINDWG
 40
0.4835536111
  9
$TDUSRTIMER
 40
0.4835535995
  9
$USRTIMER
 70
     1
  9
$ANGBASE
 50
0.0
  9
$ANGDIR
 70
     0
  9
$PDMODE
 70
     0
  9
$PDSIZE
 40
0.0
  9
$PLINEWID
 40
0.0
  9
$COORDS
 70
     1
  9
$SPLFRAME
 70
     0
  9
$SPLINETYPE
 70
     6
  9
$SPLINESEGS
 70
     8
  9
$ATTDIA
 70
     1
  9
$ATTREQ
 70
     1
  9
$HANDLING
 70
     1
  9
$HANDSEED
  5
D46
  9
$SURFTAB1
 70
     6
  9
$SURFTAB2
 70
     6
  9
$SURFTYPE
 70
     6
  9
$SURFU
 70
     6
  9
$SURFV
 70
     6
  9
$UCSNAME
  2

  9
$UCSORG
 10
0.0
 20
0.0
 30
0.0
  9
$UCSXDIR
 10
1.0
 20
0.0
 30
0.0
  9
$UCSYDIR
 10
0.0
 20
1.0
 30
0.0
  9
$PUCSNAME
  2

  9
$PUCSORG
 10
0.0
 20
0.0
 30
0.0
  9
$PUCSXDIR
 10
1.0
 20
0.0
 30
0.0
  9
$PUCSYDIR
 10
0.0
 20
1.0
 30
0.0
  9
$USERI1
 70
     0
  9
$USERI2
 70
     0
  9
$USERI3
 70
     0
  9
$USERI4
 70
     0
  9
$USERI5
 70
     0
  9
$USERR1
 40
0.0
  9
$USERR2
 40
0.0
  9
$USERR3
 40
0.0
  9
$USERR4
 40
0.0
  9
$USERR5
 40
0.0
  9
$WORLDVIEW
 70
     1
  9
$SHADEDGE
 70
     3
  9
$SHADEDIF
 70
    70
  9
$TILEMODE
 70
     1
  9
$MAXACTVP
 70
    64
  9
$PLIMCHECK
 70
     0
  9
$PEXTMIN
 10
0.0
 20
0.0
 30
0.0
  9
$PEXTMAX
 10
0.0
 20
0.0
 30
0.0
  9
$PLIMMIN
 10
0.0
 20
0.0
  9
$PLIMMAX
 10
12.0
 20
9.0
  9
$UNITMODE
 70
     0
  9
$VISRETAIN
 70
     1
  9
$PLINEGEN
 70
     0
  9
$PSLTSCALE
 70
     1
  0
ENDSEC
  0
SECTION
  2
TABLES
  0
TABLE
  2
VPORT
 70
     1
  0
VPORT
  2
*ACTIVE
 70
     0
 10
0.0
 20
0.0
 11
1.0
 21
1.0
 12
110.7870652966717984
 22
111.6558790175478038
 13
0.0
 23
0.0
 14
10.0
 24
10.0
 15
10.0
 25
10.0
 16
0.0
 26
0.0
 36
1.0
 17
0.0
 27
0.0
 37
0.0
 40
67.3702317635887766
 41
2.6486111111111108
 42
50.0
 43
0.0
 44
0.0
 50
0.0
 51
0.0
 71
     0
 72
  1000
 73
     1
 74
     3
 75
     0
 76
     1
 77
     0
 78
     0
  0
ENDTAB
  0
TABLE
  2
LTYPE
 70
     2
  0
LTYPE
  2
CONTINUOUS
 70
     0
  3
Solid line
 72
    65
 73
     0
 40
0.0
  0
ENDTAB
  0
TABLE
  2
LAYER
 70
     1
  0
LAYER
  2
0
 70
     0
 62
     7
  6
CONTINUOUS
  0
ENDTAB
  0
TABLE
  2
STYLE
 70
     2
  0
STYLE
  2
STANDARD
 70
     0
 40
0.0
 41
1.0
 50
0.0
 71
     0
 42
2.5
  3
txt
  4

  0
STYLE
  2
ANNOTATIVE
 70
     0
 40
0.0
 41
1.0
 50
0.0
 71
     0
 42
2.5
  3
txt
  4

  0
ENDTAB
  0
TABLE
  2
VIEW
 70
     5
  0
ENDTAB
  0
TABLE
  2
UCS
 70
     0
  0
ENDTAB
  0
TABLE
  2
APPID
 70
     9
  0
APPID
  2
ACAD
 70
     0
  0
APPID
  2
ACADANNOTATIVE
 70
     0
  0
APPID
  2
ACAD_PSEXT
 70
     0
  0
APPID
  2
ACADANNOPO
 70
     0
  0
APPID
  2
ACAD_DSTYLE_DIMJAG
 70
     0
  0
APPID
  2
ACAD_DSTYLE_DIMTALN
 70
     0
  0
APPID
  2
ACAD_MLEADERVER
 70
     0
  0
APPID
  2
ACAD_NAV_VCDISPLAY
 70
     0
  0
APPID
  2
ACAD_EXEMPT_FROM_CAD_STANDARDS
 70
     0
  0
ENDTAB
  0
TABLE
  2
DIMSTYLE
 70
     4
  0
DIMSTYLE
  2
STANDARD
 70
     0
  3

  4

  5

  6

  7

 40
1.0
 41
0.18
 42
0.0625
 43
0.38
 44
0.18
 45
0.0
 46
0.0
 47
0.0
 48
0.0
140
0.18
141
0.09
142
0.0
143
25.3999999999999986
144
1.0
145
0.0
146
1.0
147
0.09
 71
     0
 72
     0
 73
     1
 74
     1
 75
     0
 76
     0
 77
     0
 78
     0
170
     0
171
     2
172
     0
173
     0
174
     0
175
     0
176
     0
177
     0
178
     0
  0
DIMSTYLE
  2
ANNOTATIVE
 70
     0
  3

  4

  5

  6

  7

 40
0.0
 41
2.5
 42
0.625
 43
3.75
 44
1.25
 45
0.0
 46
0.0
 47
0.0
 48
0.0
140
2.5
141
2.5
142
0.0
143
0.03937007874016
144
1.0
145
0.0
146
1.0
147
0.625
 71
     0
 72
     0
 73
     0
 74
     0
 75
     0
 76
     0
 77
     1
 78
     8
170
     0
171
     3
172
     1
173
     0
174
     0
175
     0
176
     0
177
     0
178
     0
  0
DIMSTYLE
  2
ISO-25
 70
     0
  3

  4

  5

  6

  7

 40
1.0
 41
2.5
 42
0.625
 43
3.75
 44
1.25
 45
0.0
 46
0.0
 47
0.0
 48
0.0
140
2.5
141
2.5
142
0.0
143
0.03937007874016
144
1.0
145
0.0
146
1.0
147
0.625
 71
     0
 72
     0
 73
     0
 74
     0
 75
     0
 76
     0
 77
     1
 78
     8
170
     0
171
     3
172
     1
173
     0
174
     0
175
     0
176
     0
177
     0
178
     0
  0
ENDTAB
  0
ENDSEC
  0
SECTION
  2
BLOCKS
  0
BLOCK
  8
0
  2
$MODEL_SPACE
 70
     0
 10
0.0
 20
0.0
 30
0.0
  3
$MODEL_SPACE
  1

  0
ENDBLK
  5
B06
  8
0
  0
BLOCK
 67
     1
  8
0
  2
$PAPER_SPACE
 70
     0
 10
0.0
 20
0.0
 30
0.0
  3
$PAPER_SPACE
  1

  0
ENDBLK
  5
B02
 67
     1
  8
0
  0
ENDSEC
  0
SECTION
  2
ENTITIES
  0
CIRCLE
  5
938
  8
0
 10
138.7085258567921073
 20
112.5422485240253963
 30
0.0
 40
1.5
  0
CIRCLE
  5
944
  8
0
 10
146.1331470592508026
 20
112.5422485240253963
 30
0.0
 40
1.5
  0
POLYLINE
  5
A30
  8
0
 66
     1
 10
0.0
 20
0.0
 30
0.0
  0
VERTEX
  5
CEE
  8
0
 10
77.1240848374858956
 20
115.5422485240252968
 30
0.0
  0
VERTEX
  5
CEF
  8
0
 10
125.7085258567920931
 20
115.5422485240252968
 30
0.0
  0
SEQEND
  5
CF0
  8
0
  0
CIRCLE
  5
A33
  8
0
 10
60.5283258567922076
 20
112.5422485240253963
 30
0.0
 40
2.799999999999998
  0
ARC
  5
B47
  8
0
 10
77.4905721837790793
 20
129.6284660757378049
 30
0.0
 40
14.0909842768050204
 50
223.5096466035739127
 51
268.5096466035735148
  0
ARC
  5
B49
  8
0
 10
77.4905721837790509
 20
95.4560309723129166
 30
0.0
 40
14.0909842768050204
 50
91.4903533964265137
 51
136.4903533964260873
  0
ARC
  5
BAD
  8
0
 10
60.5283258567921081
 20
112.5422485240253963
 30
0.0
 40
10.0
 50
270.0
 51
312.3970269595213836
  0
ARC
  5
BAE
  8
0
 10
60.5283258567920868
 20
112.5422485240253963
 30
0.0
 40
10.0
 50
47.6029730404798315
 51
90.0
  0
POLYLINE
  5
BBB
  8
0
 66
     1
 10
0.0
 20
0.0
 30
0.0
  0
VERTEX
  5
D30
  8
0
 10
140.799434723216109
 20
117.5422485240253963
 30
0.0
  0
VERTEX
  5
D31
  8
0
 10
146.1331470592508026
 20
117.5422485240253963
 30
0.0
  0
SEQEND
  5
D32
  8
0
  0
POLYLINE
  5
BC0
  8
0
 66
     1
 10
0.0
 20
0.0
 30
0.0
  0
VERTEX
  5
D33
  8
0
 10
125.7085258567920931
 20
115.5422485240252968
 30
0.0
  0
VERTEX
  5
D34
  8
0
 10
127.2085258567907005
 20
115.5422485240252968
 30
0.0
 42
0.104329836799925
  0
VERTEX
  5
D35
  8
0
 10
132.8590733799098871
 20
116.6508517638125966
 30
0.0
 42
-0.1527651489310041
  0
VERTEX
  5
D36
  8
0
 10
135.7085258567921073
 20
117.5422485240253963
 30
0.0
  0
SEQEND
  5
D37
  8
0
  0
POLYLINE
  5
BC3
  8
0
 66
     1
 10
0.0
 20
0.0
 30
0.0
  0
VERTEX
  5
D38
  8
0
 10
125.7085258567920931
 20
109.5422485240253963
 30
0.0
  0
VERTEX
  5
D39
  8
0
 10
77.124084837485924
 20
109.5422485240253963
 30
0.0
  0
SEQEND
  5
D3A
  8
0
  0
POLYLINE
  5
BC6
  8
0
 66
     1
 10
0.0
 20
0.0
 30
0.0
  0
VERTEX
  5
D3B
  8
0
 10
125.7085258567920931
 20
109.5422485240254957
 30
0.0
  0
VERTEX
  5
D3C
  8
0
 10
127.2085258567907005
 20
109.5422485240254957
 30
0.0
 42
-0.104329836799925
  0
VERTEX
  5
D3D
  8
0
 10
132.8590733799098871
 20
108.4336452842381959
 30
0.0
 42
0.1527651489310041
  0
VERTEX
  5
D3E
  8
0
 10
135.7085258567921073
 20
107.5422485240253963
 30
0.0
  0
SEQEND
  5
D3F
  8
0
  0
LINE
  5
BC7
  8
0
 10
135.7085258567921073
 20
117.5422485240253963
 30
0.0
 11
140.799434723216109
 21
117.5422485240253963
 31
0.0
  0
LINE
  5
BC8
  8
0
 10
135.7085258567921073
 20
107.5422485240253963
 30
0.0
 11
138.7085258567921073
 21
107.5422485240253963
 31
0.0
  0
POLYLINE
  5
BCD
  8
0
 66
     1
 10
0.0
 20
0.0
 30
0.0
  0
VERTEX
  5
D40
  8
0
 10
146.1331470592508026
 20
107.5422485240253963
 30
0.0
  0
VERTEX
  5
D41
  8
0
 10
138.7085258567919936
 20
107.5422485240253963
 30
0.0
  0
SEQEND
  5
D42
  8
0
  0
LINE
  5
BCF
  8
0
 10
146.1331470592508026
 20
117.5422485240253963
 30
0.0
 11
150.1331470592508026
 21
117.5422485240253963
 31
0.0
  0
LINE
  5
BD3
  8
0
 10
146.1331470592508026
 20
107.5422485240253963
 30
0.0
 11
150.1331470592506889
 21
107.5422485240252968
 31
0.0
  0
CIRCLE
  5
C33
  8
0
 10
64.7709665439113564
 20
116.784889211144602
 30
0.0
 40
1.5
  0
CIRCLE
  5
C34
  8
0
 10
56.2856851696728597
 20
116.7848892111447014
 30
0.0
 40
1.5
  0
CIRCLE
  5
C35
  8
0
 10
56.2856851696728597
 20
108.2996078369061053
 30
0.0
 40
1.5
  0
CIRCLE
  5
C36
  8
0
 10
64.7709665439113564
 20
108.2996078369060058
 30
0.0
 40
1.5
  0
ARC
  5
C4F
  8
0
 10
49.9217241389940014
 20
123.1488502418235953
 30
0.0
 40
2.5
 50
45.0
 51
225.0
  0
ARC
  5
C53
  8
0
 10
49.9217241389940014
 20
101.9356468062271972
 30
0.0
 40
2.5
 50
135.0
 51
315.0
  0
ARC
  5
C5A
  8
0
 10
39.315122421195781
 20
112.5422485240253963
 30
0.0
 40
12.5
 50
315.0
 51
45.0
  0
ARC
  5
C5B
  8
0
 10
58.654833497524038
 20
133.2069040206187083
 30
0.0
 40
10.8279661285604796
 50
229.9636572163722974
 51
279.963657216371189
  0
ARC
  5
C5C
  8
0
 10
58.6548334975240806
 20
91.8775930274320558
 30
0.0
 40
10.8279661285605506
 50
80.0363427836287968
 51
130.0363427836277026
  0
ARC
  5
C6F
  8
0
 10
162.0018406078870896
 20
128.7796356212980982
 30
0.0
 40
16.3445634791936598
 50
223.4349488229217116
 51
263.4349488229216831
  0
ARC
  5
C70
  8
0
 10
162.0018406078870896
 20
96.3048614267528933
 30
0.0
 40
16.3445634791936598
 50
96.5650511770782316
 51
136.5650511770778053
  0
ENDSEC
  0
EOF
