0
SECTION
2
HEADER
9
$INSUNITS
70
4
9
$ACADVER
1
AC1014
9
$HANDSEED
5
FFFF
0
ENDSEC
0
SECTION
2
TABLES
0
TABLE
2
VPORT
5
8
100
AcDbSymbolTable
0
ENDTAB
0
TABLE
2
LTYPE
5
5
100
AcDbSymbolTable
0
LTYPE
5
14
100
AcDbSymbolTableRecord
100
AcDbLinetypeTableRecord
2
BYBLOCK
70
0
0
LTYPE
5
15
100
AcDbSymbolTableRecord
100
AcDbLinetypeTableRecord
2
BYLAYER
70
0
0
ENDTAB
0
TABLE
2
LAYER
5
2
100
AcDbSymbolTable
70
2
0
LAYER
5
50
100
AcDbSymbolTableRecord
100
AcDbLayerTableRecord
2
0
70
0
6
CONTINUOUS
0
ENDTAB
0
TABLE
2
STYLE
5
3
100
AcDbSymbolTable
70
1
0
STYLE
5
11
100
AcDbSymbolTableRecord
100
AcDbTextStyleTableRecord
2
STANDARD
70
0
0
ENDTAB
0
TABLE
2
VIEW
5
6
100
AcDbSymbolTable
70
0
0
ENDTAB
0
TABLE
2
UCS
5
7
100
AcDbSymbolTable
70
0
0
ENDTAB
0
TABLE
2
APPID
5
9
100
AcDbSymbolTable
70
2
0
APPID
5
12
100
AcDbSymbolTableRecord
100
AcDbRegAppTableRecord
2
ACAD
70
0
0
ENDTAB
0
TABLE
2
DIMSTYLE
5
A
100
AcDbSymbolTable
70
1
0
ENDTAB
0
TABLE
2
BLOCK_RECORD
5
1
100
AcDbSymbolTable
70
1
0
BLOCK_RECORD
5
1F
100
AcDbSymbolTableRecord
100
AcDbBlockTableRecord
2
*MODEL_SPACE
0
BLOCK_RECORD
5
1B
100
AcDbSymbolTableRecord
100
AcDbBlockTableRecord
2
*PAPER_SPACE
0
ENDTAB
0
ENDSEC
0
SECTION
2
BLOCKS
0
BLOCK
5
20
100
AcDbEntity
100
AcDbBlockBegin
2
*MODEL_SPACE
0
ENDBLK
5
21
100
AcDbEntity
100
AcDbBlockEnd
0
BLOCK
5
1C
100
AcDbEntity
100
AcDbBlockBegin
2
*PAPER_SPACE
0
ENDBLK
5
1D
100
AcDbEntity
100
AcDbBlockEnd
0
ENDSEC
0
SECTION
2
ENTITIES
0
LINE
5
100
100
AcDbEntity
8
0
100
AcDbLine
10
-12.500000014901163
20
35.000000000000007
30
0
11
-12.500000014901161
21
24.769584688785365
31
0
0
LINE
5
101
100
AcDbEntity
8
0
100
AcDbLine
10
12.500000014901158
20
35.000000000000007
30
0
11
12.500000014901168
21
24.769584688785365
31
0
0
LINE
5
102
100
AcDbEntity
8
0
100
AcDbLine
10
-4.2227326441434245
20
23.840829000369066
30
0
11
-3.7227326343797684
21
23.445252325659055
31
0
0
LINE
5
103
100
AcDbEntity
8
0
100
AcDbLine
10
3.7227326156339426
20
23.445252318957323
30
0
11
4.222732635672612
21
23.840829000332931
31
0
0
ARC
5
104
100
AcDbEntity
8
0
100
AcDbCircle
10
-9.5000000149011612
20
35.000000000000007
30
0
40
2.9999999999999991
100
AcDbArc
50
0
51
180
0
ARC
5
105
100
AcDbEntity
8
0
100
AcDbCircle
10
9.5000000149011594
20
35.000000000000007
30
0
40
2.9999999999999991
100
AcDbArc
50
0
51
180
0
ARC
5
106
100
AcDbEntity
8
0
100
AcDbCircle
10
-5.1374959841865575e-09
20
28.150702545475955
30
0
40
5.9999999999999973
100
AcDbArc
50
231.65059938329179
51
308.3494005135633
0
ARC
5
107
100
AcDbEntity
8
0
100
AcDbCircle
10
0.50000001490117352
20
28.546279226851571
30
0
40
6.0000000000000089
100
AcDbArc
50
-51.650599486436725
51
0
0
ARC
5
108
100
AcDbEntity
8
0
100
AcDbCircle
10
-0.50000001490118018
20
28.546279220185966
30
0
40
5.9999999999999805
100
AcDbArc
50
180
51
231.65059938329199
0
LINE
5
109
100
AcDbEntity
8
0
100
AcDbLine
10
-6.5000000149011612
20
35.000000000000007
30
0
11
-6.5000000149011612
21
28.546279220185969
31
0
0
LINE
5
110
100
AcDbEntity
8
0
100
AcDbLine
10
6.5000000149011594
20
35.000000000000014
30
0
11
6.5000000149011736
21
28.546279226851578
31
0
0
LWPOLYLINE
5
111
100
AcDbEntity
8
0
100
AcDbPolyline
90
4
70
1
43
0.0
10
-11.000000000000004
20
-7.7499999999999982
10
-11
20
6.5000000000000044
42
-0.99999999999999989
10
-9.0000000000000018
20
6.5000000000000036
10
-9.0000000000000053
20
-7.7499999999999991
42
-0.99999999999999989
0
LINE
5
112
100
AcDbEntity
8
0
100
AcDbLine
10
-10.000000000000002
20
6.5000000000000044
30
0
11
-10.000000000000004
21
-7.7499999999999991
31
0
0
LWPOLYLINE
5
113
100
AcDbEntity
8
0
100
AcDbPolyline
90
8
70
1
43
0.0
10
-4.5000000087932026
20
-15.086339692480987
42
-0.41421356237309509
10
-6.5000000087932026
20
-13.086339692480989
10
-6.5000000087932008
20
-8.0003396924809831
42
-0.41421356237309509
10
-4.5000000087932026
20
-6.0003396924809849
10
4.4999999912067983
20
-6.000339692480984
42
-0.41421356237309492
10
6.4999999912067983
20
-8.0003396924809849
10
6.4999999912067974
20
-13.086339692480987
42
-0.4142135623730952
10
4.4999999912067992
20
-15.086339692480985
0
CIRCLE
5
114
100
AcDbEntity
8
0
100
AcDbCircle
10
-1.1102230246251565e-15
20
-32.983194999784359
30
0
40
3.125
0
LWPOLYLINE
5
115
100
AcDbEntity
8
0
100
AcDbPolyline
90
4
70
1
43
0.0
10
-5.0000000087932008
20
-21.08633969248099
10
4.9999999912067983
20
-21.08633969248098
42
-0.99999999999999989
10
4.9999999912067983
20
-23.08633969248099
10
-5.0000000087932008
20
-23.086339692480983
42
-0.99999999999999989
0
LINE
5
116
100
AcDbEntity
8
0
100
AcDbLine
10
-5.0000000087932008
20
-22.086339692480983
30
0
11
4.9999999912067983
21
-22.086339692480983
31
0
0
LWPOLYLINE
5
117
100
AcDbEntity
8
0
100
AcDbPolyline
90
4
70
1
43
0.0
10
-8.75
20
-23.976935812309186
10
-8.75
20
-25.97693581230919
42
-0.99999999999999989
10
-10.250000000000002
20
-25.97693581230919
10
-10.250000000000002
20
-23.976935812309186
42
-0.99999999999999989
0
LINE
5
118
100
AcDbEntity
8
0
100
AcDbLine
10
-9.5
20
-25.97693581230919
30
0
11
-9.5
21
-23.976935812309186
31
0
0
LWPOLYLINE
5
119
100
AcDbEntity
8
0
100
AcDbPolyline
90
4
70
1
43
0.0
10
8.7499999824135966
20
-23.976935812309186
10
8.7499999824135966
20
-25.97693581230919
42
0.99999999999999989
10
10.249999982413598
20
-25.97693581230919
10
10.249999982413598
20
-23.976935812309186
42
0.99999999999999989
0
LINE
5
120
100
AcDbEntity
8
0
100
AcDbLine
10
9.4999999824135966
20
-25.97693581230919
30
0
11
9.4999999824135966
21
-23.976935812309186
31
0
0
CIRCLE
5
121
100
AcDbEntity
8
0
100
AcDbCircle
10
-9.501024120764022
20
-30.813804369927254
30
0
40
1.0000000000000018
0
CIRCLE
5
122
100
AcDbEntity
8
0
100
AcDbCircle
10
9.4989759090382861
20
-30.813804369927247
30
0
40
1.0000000000000011
0
CIRCLE
5
123
100
AcDbEntity
8
0
100
AcDbCircle
10
-9.500000014901163
20
35.000000000000007
30
0
40
0.99999999999999889
0
CIRCLE
5
124
100
AcDbEntity
8
0
100
AcDbCircle
10
9.5000000149011594
20
35.000000000000007
30
0
40
0.99999999999999933
0
LINE
5
125
100
AcDbEntity
8
0
100
AcDbLine
10
9.4999999824135966
20
-19.97693581230919
30
0
11
9.4999999824135966
21
-17.976935812309186
31
0
0
LWPOLYLINE
5
126
100
AcDbEntity
8
0
100
AcDbPolyline
90
4
70
1
43
0.0
10
8.7499999824135966
20
-17.976935812309186
42
-0.99999999999999989
10
10.249999982413598
20
-17.976935812309186
10
10.249999982413598
20
-19.97693581230919
42
-0.99999999999999989
10
8.7499999824135966
20
-19.97693581230919
0
LWPOLYLINE
5
127
100
AcDbEntity
8
0
100
AcDbPolyline
90
4
70
1
43
0.0
10
-10.250000000000002
20
-19.97693581230919
10
-10.250000000000002
20
-17.976935812309186
42
-0.99999999999999989
10
-8.75
20
-17.976935812309186
10
-8.75
20
-19.97693581230919
42
-0.99999999999999989
0
LINE
5
128
100
AcDbEntity
8
0
100
AcDbLine
10
-9.5
20
-19.97693581230919
30
0
11
-9.5
21
-17.976935812309186
31
0
0
LWPOLYLINE
5
129
100
AcDbEntity
8
0
100
AcDbPolyline
90
4
70
1
43
0.0
10
4.9999999912067983
20
-27.086339692480983
10
-5.0000000087932008
20
-27.086339692480994
42
-0.99999999999999989
10
-5.0000000087932008
20
-25.086339692480983
10
4.9999999912067983
20
-25.08633969248099
42
-0.99999999999999989
0
LINE
5
130
100
AcDbEntity
8
0
100
AcDbLine
10
-5.0000000087932008
20
-26.08633969248099
30
0
11
4.9999999912067983
21
-26.08633969248099
31
0
0
LWPOLYLINE
5
131
100
AcDbEntity
8
0
100
AcDbPolyline
90
4
70
1
43
0.0
10
-10.250000000000002
20
-25.97693581230919
10
-10.250000000000002
20
-23.976935812309186
42
-0.99999999999999989
10
-8.75
20
-23.976935812309186
10
-8.75
20
-25.97693581230919
42
-0.99999999999999989
0
LINE
5
132
100
AcDbEntity
8
0
100
AcDbLine
10
-9.5
20
-25.97693581230919
30
0
11
-9.5
21
-23.976935812309186
31
0
0
LWPOLYLINE
5
133
100
AcDbEntity
8
0
100
AcDbPolyline
90
4
70
1
43
0.0
10
-8.75
20
-17.976935812309186
10
-8.75
20
-19.97693581230919
42
-0.99999999999999989
10
-10.250000000000002
20
-19.97693581230919
10
-10.250000000000002
20
-17.976935812309186
42
-0.99999999999999989
0
LINE
5
134
100
AcDbEntity
8
0
100
AcDbLine
10
-9.5
20
-19.97693581230919
30
0
11
-9.5
21
-17.976935812309186
31
0
0
LWPOLYLINE
5
135
100
AcDbEntity
8
0
100
AcDbPolyline
90
4
70
1
43
0.0
10
4.9999999999999991
20
-1.1102230246251565e-15
10
-4.9999999999999991
20
-1.1102230246251565e-15
42
-0.99999999999999989
10
-4.9999999999999991
20
2.0000000000000009
10
4.9999999999999991
20
2.0000000000000009
42
-0.99999999999999989
0
LWPOLYLINE
5
136
100
AcDbEntity
8
0
100
AcDbPolyline
90
4
70
1
43
0.0
10
4.9999999999999991
20
5.9999999999999982
42
-0.99999999999999989
10
4.9999999999999991
20
3.9999999999999969
10
-4.9999999999999991
20
3.9999999999999969
42
-0.99999999999999989
10
-4.9999999999999991
20
5.9999999999999982
0
LWPOLYLINE
5
137
100
AcDbEntity
8
0
100
AcDbPolyline
90
8
70
1
43
0.0
10
-5
20
8
42
-0.41421356237309509
10
-6.0000000000000009
20
9.0000000000000018
10
-6.0000000000000009
20
14.000000000000002
42
-0.41421356237309509
10
-5
20
15.000000000000002
10
5
20
15.000000000000002
42
-0.41421356237309509
10
6.0000000000000009
20
14.000000000000002
10
6.0000000000000009
20
9.0000000000000018
42
-0.41421356237309509
10
5
20
8
0
LINE
5
138
100
AcDbEntity
8
0
100
AcDbLine
10
-4.9999999999999991
20
0.99999999999999978
30
0
11
4.9999999999999991
21
0.99999999999999978
31
0
0
LINE
5
139
100
AcDbEntity
8
0
100
AcDbLine
10
-4.9999999999999991
20
4.9999999999999982
30
0
11
4.9999999999999991
21
4.9999999999999982
31
0
0
LWPOLYLINE
5
140
100
AcDbEntity
8
0
100
AcDbPolyline
90
4
70
1
43
0.0
10
-5.0000000087932008
20
-19.08633969248099
42
-0.99999999999999989
10
-5.0000000087932008
20
-17.086339692480987
10
4.9999999912067983
20
-17.086339692480987
42
-0.99999999999999989
10
4.9999999912067983
20
-19.08633969248099
0
LINE
5
141
100
AcDbEntity
8
0
100
AcDbLine
10
-5.0000000087932008
20
-18.086339692480987
30
0
11
4.9999999912067983
21
-18.086339692480987
31
0
0
LWPOLYLINE
5
142
100
AcDbEntity
8
0
100
AcDbPolyline
90
4
70
1
43
0.0
10
4.9999999999999991
20
-1.9999999999999996
42
-0.99999999999999989
10
4.9999999999999991
20
-4.0000000000000018
10
-4.9999999999999991
20
-4.0000000000000018
42
-0.99999999999999989
10
-4.9999999999999991
20
-1.9999999999999996
0
LINE
5
143
100
AcDbEntity
8
0
100
AcDbLine
10
-4.9999999999999991
20
-3.0000000000000004
30
0
11
4.9999999999999991
21
-3.0000000000000004
31
0
0
ARC
5
144
100
AcDbEntity
8
0
100
AcDbCircle
10
9.4989759090382861
20
-30.813804369927247
30
0
40
3.0000000000000142
100
AcDbArc
50
274.15020243382844
51
359.99888411653791
0
ARC
5
145
100
AcDbEntity
8
0
100
AcDbCircle
10
-9.501024120764022
20
-30.813804369927254
30
0
40
2.9999999994310422
100
AcDbArc
50
179.99888411653788
51
264.90474009891301
0
LINE
5
146
100
AcDbEntity
8
0
100
AcDbLine
10
6.1205317374745114
20
-34.008762878398983
30
0
11
9.7160900255132283
21
-33.805937632405275
31
0
0
LINE
5
147
100
AcDbEntity
8
0
100
AcDbLine
10
-9.7674598020242218
20
-33.801949618698039
30
0
11
-6.1211305771636919
21
-34.007251444745656
31
0
0
LINE
5
148
100
AcDbEntity
8
0
100
AcDbLine
10
-5.0000000087932008
20
-26.08633969248099
30
0
11
4.9999999912067983
21
-26.08633969248099
31
0
0
LWPOLYLINE
5
149
100
AcDbEntity
8
0
100
AcDbPolyline
90
4
70
1
43
0.0
10
-5.0000000087932008
20
-27.086339692480994
42
-0.99999999999999989
10
-5.0000000087932008
20
-25.086339692480983
10
4.9999999912067983
20
-25.08633969248099
42
-0.99999999999999989
10
4.9999999912067983
20
-27.086339692480983
0
ARC
5
150
100
AcDbEntity
8
0
100
AcDbCircle
10
-1.1102230246251565e-15
20
-32.983194999784359
30
0
40
5.5000000000000053
100
AcDbArc
50
198.12854988987405
51
341.85748605776405
0
ARC
5
151
100
AcDbEntity
8
0
100
AcDbCircle
10
-6.1773452442245809
20
-35.005670150102894
30
0
40
0.99999999999999845
100
AcDbArc
50
18.128549889873863
51
86.777438044892151
0
ARC
5
152
100
AcDbEntity
8
0
100
AcDbCircle
10
6.1768521457705265
20
-35.007175624516208
30
0
40
0.99999999999998668
100
AcDbArc
50
93.228630095193608
51
161.8574860577647
0
LWPOLYLINE
5
153
100
AcDbEntity
8
0
100
AcDbPolyline
90
4
70
1
43
0.0
10
4.9999999999999991
20
19
42
-0.99999999999999989
10
4.9999999999999991
20
17
10
-4.9999999999999991
20
17
42
-0.99999999999999989
10
-4.9999999999999991
20
19
0
LINE
5
154
100
AcDbEntity
8
0
100
AcDbLine
10
-4.9999999999999991
20
18
30
0
11
4.9999999999999991
21
18
31
0
0
LINE
5
155
100
AcDbEntity
8
0
100
AcDbLine
10
-12.500000014901161
20
24.769584688785365
30
0
11
-12.5010241196261
21
-30.81374594239638
31
0
0
LINE
5
156
100
AcDbEntity
8
0
100
AcDbLine
10
12.500000014901168
20
24.769584688785365
30
0
11
12.498975907900371
21
-30.813862797458121
31
0
0
ARC
5
157
100
AcDbEntity
8
0
100
AcDbCircle
10
-10.075000014901141
20
27.502653104355026
30
0
40
1.6039553378749891
100
AcDbArc
50
68.992583901953566
51
111.00741609804649
0
LINE
5
158
100
AcDbEntity
8
0
100
AcDbLine
10
-9.5000000149011417
20
29.000000000000014
30
0
11
-9.5000000149011417
21
20.500000000000011
31
0
0
LINE
5
159
100
AcDbEntity
8
0
100
AcDbLine
10
-10.650000014901142
20
29.000000000000014
30
0
11
-10.650000014901142
21
20.499593395430015
31
0
0
ARC
5
160
100
AcDbEntity
8
0
100
AcDbCircle
10
-10.075529430594161
20
21.997143485965776
30
0
40
1.6039553378749891
100
AcDbArc
50
248.97232450510367
51
291.0276754948963
0
ARC
5
161
100
AcDbEntity
8
0
100
AcDbCircle
10
10.075000014901159
20
27.502653104355026
30
0
40
1.6039553378749898
100
AcDbArc
50
68.992583901953495
51
111.00741609804645
0
LINE
5
162
100
AcDbEntity
8
0
100
AcDbLine
10
10.65000001490116
20
29.000000000000014
30
0
11
10.65000001490116
21
20.499593395430015
31
0
0
LINE
5
163
100
AcDbEntity
8
0
100
AcDbLine
10
9.5000000149011594
20
29.000000000000014
30
0
11
9.5000000149011594
21
20.500000000000011
31
0
0
ARC
5
164
100
AcDbEntity
8
0
100
AcDbCircle
10
10.075529430594178
20
21.997143485965776
30
0
40
1.6039553378749885
100
AcDbArc
50
248.9723245051037
51
291.02767549489636
0
LWPOLYLINE
5
165
100
AcDbEntity
8
0
100
AcDbPolyline
90
4
70
1
43
0.0
10
11.000000000000005
20
-7.7499999999999991
42
-0.99999999999999989
10
9.0000000000000053
20
-7.7499999999999991
10
9.0000000000000018
20
6.5000000000000044
42
-0.99999999999999989
10
11.000000000000004
20
6.5000000000000044
0
LINE
5
166
100
AcDbEntity
8
0
100
AcDbLine
10
10.000000000000002
20
6.5000000000000044
30
0
11
10.000000000000004
21
-7.7499999999999991
31
0
0
ENDSEC
0
SECTION
2
OBJECTS
0
DICTIONARY
5
C
100
AcDbDictionary
3
ACAD_GROUP
350
D
3
ACAD_MLINESTYLE
350
17
0
DICTIONARY
5
D
100
AcDbDictionary
0
DICTIONARY
5
1A
330
C
100
AcDbDictionary
0
DICTIONARY
5
17
100
AcDbDictionary
0
ENDSEC
0
EOF
