0
SECTION
2
HEADER
9
$INSUNITS
70
4
9
$ACADVER
1
AC1014
9
$HANDSEED
5
FFFF
0
ENDSEC
0
SECTION
2
TABLES
0
TABLE
2
VPORT
5
8
100
AcDbSymbolTable
0
ENDTAB
0
TABLE
2
LTYPE
5
5
100
AcDbSymbolTable
0
LTYPE
5
14
100
AcDbSymbolTableRecord
100
AcDbLinetypeTableRecord
2
BYBLOCK
70
0
0
LTYPE
5
15
100
AcDbSymbolTableRecord
100
AcDbLinetypeTableRecord
2
BYLAYER
70
0
0
ENDTAB
0
TABLE
2
LAYER
5
2
100
AcDbSymbolTable
70
2
0
LAYER
5
50
100
AcDbSymbolTableRecord
100
AcDbLayerTableRecord
2
0
70
0
6
CONTINUOUS
0
ENDTAB
0
TABLE
2
STYLE
5
3
100
AcDbSymbolTable
70
1
0
STYLE
5
11
100
AcDbSymbolTableRecord
100
AcDbTextStyleTableRecord
2
STANDARD
70
0
0
ENDTAB
0
TABLE
2
VIEW
5
6
100
AcDbSymbolTable
70
0
0
ENDTAB
0
TABLE
2
UCS
5
7
100
AcDbSymbolTable
70
0
0
ENDTAB
0
TABLE
2
APPID
5
9
100
AcDbSymbolTable
70
2
0
APPID
5
12
100
AcDbSymbolTableRecord
100
AcDbRegAppTableRecord
2
ACAD
70
0
0
ENDTAB
0
TABLE
2
DIMSTYLE
5
A
100
AcDbSymbolTable
70
1
0
ENDTAB
0
TABLE
2
BLOCK_RECORD
5
1
100
AcDbSymbolTable
70
1
0
BLOCK_RECORD
5
1F
100
AcDbSymbolTableRecord
100
AcDbBlockTableRecord
2
*MODEL_SPACE
0
BLOCK_RECORD
5
1B
100
AcDbSymbolTableRecord
100
AcDbBlockTableRecord
2
*PAPER_SPACE
0
ENDTAB
0
ENDSEC
0
SECTION
2
BLOCKS
0
BLOCK
5
20
100
AcDbEntity
100
AcDbBlockBegin
2
*MODEL_SPACE
0
ENDBLK
5
21
100
AcDbEntity
100
AcDbBlockEnd
0
BLOCK
5
1C
100
AcDbEntity
100
AcDbBlockBegin
2
*PAPER_SPACE
0
ENDBLK
5
1D
100
AcDbEntity
100
AcDbBlockEnd
0
ENDSEC
0
SECTION
2
ENTITIES
0
LWPOLYLINE
5
100
100
AcDbEntity
8
0
100
AcDbPolyline
90
34
70
1
43
0.0
10
-3.4615384615383906
20
-20.654864509933976
42
-0.11696311977547408
10
3.4615384615383555
20
-20.654864509933969
42
-0.34754048559237083
10
4.9999999999999769
20
-22.600881531576071
10
4.9999999999999334
20
-58.723681029062817
42
0.28206929482235199
10
11.730711043874745
20
-69.705370650529431
42
0.41421356237299167
10
18.455370650529858
20
-67.51928895612744
42
0.13179496081709294
10
24.915413110731819
20
-37.062937153875353
42
-0.071011353205137073
10
25.040613083128704
20
-35.655393062402332
10
28.273743311067342
20
-21.878122762284637
42
0.30011009514058634
10
25.363209277713075
20
-11.280574861841771
42
-0.45327559458041794
10
25.363209277713068
20
11.28057486184176
42
0.3001100951405864
10
28.27374331106736
20
21.878122762284605
10
25.04061308312922
20
35.65539306240013
42
-0.071011353205146122
10
24.915413110732345
20
37.062937153873335
42
0.13179496081709352
10
18.455370650529872
20
67.519288956125337
42
0.99999999999999989
10
9.5446293494693641
20
62.980711043874145
42
-0.11832004406083202
10
15.000000000000018
20
40.249999999999972
10
14.999999999997936
20
35.249984253928353
42
-0.99999973605592174
10
-14.999999999999986
20
35.249992172251751
10
-14.999999999999986
20
40.249999999999979
42
-0.1183200440608229
10
-9.5446293494701209
20
62.980711043872553
42
0.99999999999999989
10
-18.455370650529829
20
67.51928895612744
42
0.13179496081709272
10
-24.915413110731812
20
37.062937153875396
42
-0.071011353205137073
10
-25.04061308312869
20
35.655393062402375
10
-28.27374331106736
20
21.878122762284601
42
0.30011009514058606
10
-25.363209277713068
20
11.280574861841764
42
-0.45327559458041838
10
-25.363209277713086
20
-11.280574861841771
42
0.30011009514058606
10
-28.273743311062951
20
-21.878122762283208
10
-25.040613083129198
20
-35.655393062400179
42
-0.0710113532051459
10
-24.915413110732324
20
-37.062937153873378
42
0.13179496081709335
10
-18.455370650529819
20
-67.519288956125365
42
0.41421356237309515
10
-11.730711043874905
20
-69.705370650529261
42
0.28206929482235227
10
-4.999999999999555
20
-58.723681029062803
10
-5.0000000000000044
20
-22.600881531576075
42
-0.34754048559236889
0
LWPOLYLINE
5
101
100
AcDbEntity
8
0
100
AcDbPolyline
90
6
70
1
43
0.0
10
-7.7499999999999956
20
-57.627547774833978
10
-7.7499999999999956
20
-26.651300411288656
42
0.691080494640403
10
-11.249999999999755
20
-25.328424755756089
42
0.18267581374635072
10
-15.000000000002093
20
-35.249992176008625
10
-14.999999999999996
20
-40.249999999999986
42
0.092707762107620412
10
-11.614818024263418
20
-58.350357387652103
42
0.83031554213762337
0
LWPOLYLINE
5
102
100
AcDbEntity
8
0
100
AcDbPolyline
90
4
70
1
43
0.0
10
11.221698113207538
20
10.326470425853863
42
-0.39009474880274708
10
11.221698113207557
20
-10.326470425853842
42
-0.68329889429538548
10
7.7500000000000027
20
-8.9721792224631791
10
7.7499999999999991
20
8.9721792224631862
42
-0.68329889429538271
0
LWPOLYLINE
5
103
100
AcDbEntity
8
0
100
AcDbPolyline
90
8
70
1
43
0.0
10
3.4528301886792674
20
-14.8539713103313
42
-0.11469683361989781
10
-3.4528301886792292
20
-14.853971310331302
42
-0.34879416826431453
10
-5
20
-12.905909499140311
10
-4.999999999999992
20
12.905909499140311
42
-0.34879416826431275
10
-3.4528301886792367
20
14.8539713103313
42
-0.11469683361989781
10
3.4528301886792572
20
14.853971310331296
42
-0.34879416826431187
10
5.0000000000000098
20
12.905909499140309
10
5.0000000000000071
20
-12.905909499140307
42
-0.34879416826431103
0
LWPOLYLINE
5
104
100
AcDbEntity
8
0
100
AcDbPolyline
90
4
70
1
43
0.0
10
-11.221698113207539
20
-10.326470425853859
42
-0.39009474880274703
10
-11.221698113207555
20
10.326470425853845
42
-0.68329889429538471
10
-7.7500000000000053
20
8.9721792224631791
10
-7.7499999999999964
20
-8.9721792224631862
42
-0.68329889429538393
0
CIRCLE
5
105
100
AcDbEntity
8
0
100
AcDbCircle
10
-20
20
-35.25
30
0
40
1.6000000000000014
0
CIRCLE
5
106
100
AcDbEntity
8
0
100
AcDbCircle
10
-20
20
35.25
30
0
40
1.6000000000000014
0
CIRCLE
5
107
100
AcDbEntity
8
0
100
AcDbCircle
10
20
20
-35.25
30
0
40
1.6000000000000014
0
CIRCLE
5
108
100
AcDbEntity
8
0
100
AcDbCircle
10
20
20
35.25
30
0
40
1.6000000000000014
0
CIRCLE
5
109
100
AcDbEntity
8
0
100
AcDbCircle
10
14.000000000000036
20
65.249999999999972
30
0
40
1.6000000000000036
0
CIRCLE
5
110
100
AcDbEntity
8
0
100
AcDbCircle
10
14.000000000000002
20
-65.25
30
0
40
1.6000000000000036
0
CIRCLE
5
111
100
AcDbEntity
8
0
100
AcDbCircle
10
-13.999999999999972
20
65.25
30
0
40
1.6000000000000036
0
CIRCLE
5
112
100
AcDbEntity
8
0
100
AcDbCircle
10
-14.000000000000002
20
-65.25
30
0
40
1.6000000000000036
0
LWPOLYLINE
5
113
100
AcDbEntity
8
0
100
AcDbPolyline
90
4
70
1
43
0.0
10
15.957106781188406
20
21.61396103067873
10
14.318912319028955
20
19.975766568520235
42
0.99999999999999989
10
19.975766568519681
20
14.3189123190262
10
21.613961030679135
20
15.957106781184693
42
0.99999999999999989
0
LWPOLYLINE
5
114
100
AcDbEntity
8
0
100
AcDbPolyline
90
4
70
1
43
0.0
10
-15.957106781188411
20
-21.61396103067873
10
-14.318912319028968
20
-19.97576656852025
42
0.99999999999999989
10
-19.975766568519688
20
-14.318912319026207
10
-21.613961030679135
20
-15.957106781184693
42
0.99999999999999989
0
LWPOLYLINE
5
115
100
AcDbEntity
8
0
100
AcDbPolyline
90
4
70
1
43
0.0
10
-21.613961030678741
20
15.957106781188408
10
-19.975766568520243
20
14.318912319028952
42
0.99999999999999989
10
-14.318912319026204
20
19.975766568519678
10
-15.957106781184702
20
21.613961030679135
42
0.99999999999999989
0
LWPOLYLINE
5
116
100
AcDbEntity
8
0
100
AcDbPolyline
90
4
70
1
43
0.0
10
21.613961030678727
20
-15.957106781188413
10
19.975766568520246
20
-14.318912319028973
42
0.99999999999999989
10
14.318912319026204
20
-19.975766568519692
10
15.957106781184688
20
-21.613961030679143
42
0.99999999999999989
0
LWPOLYLINE
5
117
100
AcDbEntity
8
0
100
AcDbPolyline
90
6
70
1
43
0.0
10
11.614818024263361
20
-58.350357387652274
42
-0.83031554213762571
10
7.7499999999999281
20
-57.627547774834156
10
7.7499999999999662
20
-26.651300411288616
42
-0.69108049464039978
10
11.249999999999698
20
-25.328424755756053
42
-0.18267567724092276
10
15.000000000000004
20
-35.249984250171458
10
15.000000000000002
20
-40.25
42
-0.092707762107621217
0
LWPOLYLINE
5
118
100
AcDbEntity
8
0
100
AcDbPolyline
90
6
70
1
43
0.0
10
-15.000000000002093
20
-35.249992176008632
42
-0.18267581374635095
10
-11.249999999999758
20
-25.328424755756089
42
-0.69108049464040289
10
-7.7499999999999956
20
-26.651300411288656
10
-7.7499999999999929
20
-57.627547774833978
42
-0.8303155421376277
10
-11.614818024263421
20
-58.350357387652103
42
-0.092707762107620328
10
-14.999999999999996
20
-40.249999999999993
0
LWPOLYLINE
5
119
100
AcDbEntity
8
0
100
AcDbPolyline
90
6
70
1
43
0.0
10
15.000000000000014
20
-40.249999999999957
42
-0.092707762107621439
10
11.614818024263357
20
-58.350357387652281
42
-0.83031554213762393
10
7.7499999999999281
20
-57.627547774834156
10
7.7499999999999609
20
-26.651300411288616
42
-0.69108049464040122
10
11.249999999999718
20
-25.328424755756043
42
-0.18267567724092287
10
15
20
-35.249984250171465
0
LWPOLYLINE
5
120
100
AcDbEntity
8
0
100
AcDbPolyline
90
8
70
1
43
0.0
10
-3.4528301886792452
20
14.8539713103313
42
-0.11469683361989803
10
3.4528301886792621
20
14.853971310331296
42
-0.34879416826431142
10
5.0000000000000107
20
12.905909499140311
10
5.0000000000000089
20
-12.905909499140304
42
-0.34879416826431209
10
3.4528301886792567
20
-14.853971310331298
42
-0.11469683361989792
10
-3.4528301886792439
20
-14.8539713103313
42
-0.34879416826431275
10
-4.9999999999999991
20
-12.905909499140311
10
-4.9999999999999911
20
12.905909499140311
42
-0.34879416826431264
0
LWPOLYLINE
5
121
100
AcDbEntity
8
0
100
AcDbPolyline
90
4
70
1
43
0.0
10
-11.221698113207541
20
-10.326470425853859
42
-0.39009474880274675
10
-11.221698113207562
20
10.326470425853833
42
-0.68329889429538759
10
-7.7500000000000044
20
8.9721792224631791
10
-7.7499999999999956
20
-8.9721792224631844
42
-0.68329889429538349
0
LWPOLYLINE
5
122
100
AcDbEntity
8
0
100
AcDbPolyline
90
4
70
1
43
0.0
10
7.7500000000000027
20
-8.9721792224631791
10
7.7499999999999956
20
8.9721792224631862
42
-0.68329889429538304
10
11.221698113207541
20
10.326470425853859
42
-0.39009474880274714
10
11.22169811320755
20
-10.326470425853849
42
-0.68329889429538437
0
LWPOLYLINE
5
123
100
AcDbEntity
8
0
100
AcDbPolyline
90
4
70
1
43
0.0
10
15.957106781184688
20
-21.613961030679143
10
14.318912319026202
20
-19.975766568519695
42
-0.99999999999999989
10
19.975766568520246
20
-14.318912319028973
10
21.613961030678727
20
-15.957106781188411
42
-0.99999999999999989
0
LWPOLYLINE
5
124
100
AcDbEntity
8
0
100
AcDbPolyline
90
4
70
1
43
0.0
10
-14.318912319026216
20
19.975766568519688
42
-0.99999999999999989
10
-19.975766568520243
20
14.318912319028954
10
-21.613961030678741
20
15.957106781188406
42
-0.99999999999999989
10
-15.957106781184702
20
21.613961030679135
0
LWPOLYLINE
5
125
100
AcDbEntity
8
0
100
AcDbPolyline
90
4
70
1
43
0.0
10
-21.613961030679135
20
-15.957106781184692
10
-19.975766568519695
20
-14.318912319026218
42
-0.99999999999999989
10
-14.318912319028968
20
-19.97576656852025
10
-15.957106781188411
20
-21.61396103067873
42
-0.99999999999999989
0
LWPOLYLINE
5
126
100
AcDbEntity
8
0
100
AcDbPolyline
90
4
70
1
43
0.0
10
21.613961030679135
20
15.957106781184693
10
19.975766568519695
20
14.318912319026198
42
-0.99999999999999989
10
14.318912319028955
20
19.975766568520235
10
15.957106781188406
20
21.61396103067873
42
-0.99999999999999989
0
CIRCLE
5
127
100
AcDbEntity
8
0
100
AcDbCircle
10
-14.000000000000002
20
-65.25
30
0
40
1.6000000000000036
0
CIRCLE
5
128
100
AcDbEntity
8
0
100
AcDbCircle
10
-13.999999999999972
20
65.25
30
0
40
1.6000000000000036
0
CIRCLE
5
129
100
AcDbEntity
8
0
100
AcDbCircle
10
14.000000000000002
20
-65.25
30
0
40
1.6000000000000036
0
CIRCLE
5
130
100
AcDbEntity
8
0
100
AcDbCircle
10
14.000000000000036
20
65.249999999999972
30
0
40
1.6000000000000036
0
CIRCLE
5
131
100
AcDbEntity
8
0
100
AcDbCircle
10
20
20
35.25
30
0
40
1.6000000000000014
0
CIRCLE
5
132
100
AcDbEntity
8
0
100
AcDbCircle
10
20
20
-35.25
30
0
40
1.6000000000000014
0
CIRCLE
5
133
100
AcDbEntity
8
0
100
AcDbCircle
10
-20
20
35.25
30
0
40
1.6000000000000014
0
CIRCLE
5
134
100
AcDbEntity
8
0
100
AcDbCircle
10
-20
20
-35.25
30
0
40
1.6000000000000014
0
LINE
5
135
100
AcDbEntity
8
0
100
AcDbLine
10
-5.0000000000000018
20
-22.600881531576075
30
0
11
-4.9999999999995577
21
-58.723681029062803
31
0
0
ARC
5
136
100
AcDbEntity
8
0
100
AcDbCircle
10
-17.324104913799605
20
-58.723681029062796
30
0
40
12.324104913800046
100
AcDbArc
50
296.99148135246594
51
360
0
ARC
5
137
100
AcDbEntity
8
0
100
AcDbCircle
10
-14.000000000000002
20
-65.25
30
0
40
4.9999999999989022
100
AcDbArc
50
206.99146656157268
51
296.99146656157262
0
ARC
5
138
100
AcDbEntity
8
0
100
AcDbCircle
10
35.083333333328966
20
-40.249999999999993
30
0
40
60.083333333328959
100
AcDbArc
50
176.95937325002163
51
206.99146656159195
0
ARC
5
139
100
AcDbEntity
8
0
100
AcDbCircle
10
-29.908373979864194
20
-36.797716944764353
30
0
40
5.0000000000001794
100
AcDbArc
50
-3.0406267499786575
51
13.20670355875289
0
LINE
5
140
100
AcDbEntity
8
0
100
AcDbLine
10
-25.040613083129202
20
-35.655393062400179
30
0
11
-28.273743311067342
21
-21.878122762284637
31
0
0
ARC
5
141
100
AcDbEntity
8
0
100
AcDbCircle
10
-18.785533905933775
20
-18.785533905931711
30
0
40
9.9794901447909119
100
AcDbArc
50
131.23274635416166
51
198.05287116444177
0
ARC
5
142
100
AcDbEntity
8
0
100
AcDbCircle
10
-35.25
20
-4.3050412779979756e-16
30
0
40
14.9999999999972
100
AcDbArc
50
-48.7672536458374
51
48.767253645837386
0
ARC
5
143
100
AcDbEntity
8
0
100
AcDbCircle
10
-18.785533905931722
20
18.785533905933772
30
0
40
9.9794901447984667
100
AcDbArc
50
161.94712883557335
51
228.76725364583734
0
LINE
5
144
100
AcDbEntity
8
0
100
AcDbLine
10
-28.27374331106736
20
21.878122762284601
30
0
11
-25.040613083128697
21
35.655393062402375
31
0
0
ARC
5
145
100
AcDbEntity
8
0
100
AcDbCircle
10
-29.908373979863367
20
36.797716944766542
30
0
40
4.9999999999998677
100
AcDbArc
50
-13.206703558753647
51
3.0406267499767154
0
ARC
5
146
100
AcDbEntity
8
0
100
AcDbCircle
10
35.083333333328966
20
40.249999999999972
30
0
40
60.083333333328341
100
AcDbArc
50
153.00853343840802
51
183.04062674997647
0
ARC
5
147
100
AcDbEntity
8
0
100
AcDbCircle
10
-13.999999999999972
20
65.25
30
0
40
5.0000000000004787
100
AcDbArc
50
-26.99146656159364
51
153.00853343842732
0
ARC
5
148
100
AcDbEntity
8
0
100
AcDbCircle
10
35.083333333328966
20
40.249999999999972
30
0
40
50.083333333328952
100
AcDbArc
50
153.00853343840626
51
180
0
LINE
5
149
100
AcDbEntity
8
0
100
AcDbLine
10
-14.999999999999982
20
40.250000000000014
30
0
11
-14.999999999999982
21
35.249992172251751
31
0
0
ARC
5
150
100
AcDbEntity
8
0
100
AcDbCircle
10
1.7763568394002505e-14
20
35.249992172251737
30
0
40
15
100
AcDbArc
50
180
51
359.99996975423261
0
LINE
5
151
100
AcDbEntity
8
0
100
AcDbLine
10
14.999999999997929
20
35.249984253928339
30
0
11
15.000000000000018
21
40.249999999999979
31
0
0
ARC
5
152
100
AcDbEntity
8
0
100
AcDbCircle
10
-35.083333333328937
20
40.250000000000014
30
0
40
50.083333333328959
100
AcDbArc
50
0
51
26.991466561593636
0
ARC
5
153
100
AcDbEntity
8
0
100
AcDbCircle
10
14.000000000000036
20
65.249999999999972
30
0
40
4.9999999999989022
100
AcDbArc
50
26.991466561572871
51
206.99146656159374
0
ARC
5
154
100
AcDbEntity
8
0
100
AcDbCircle
10
-35.083333333328937
20
40.250000000000014
30
0
40
60.083333333328937
100
AcDbArc
50
-3.040626749978403
51
26.991466561591913
0
ARC
5
155
100
AcDbEntity
8
0
100
AcDbCircle
10
29.908373979863711
20
36.797716944764261
30
0
40
4.9999999999996909
100
AcDbArc
50
176.95937325002029
51
193.20670355875373
0
LINE
5
156
100
AcDbEntity
8
0
100
AcDbLine
10
25.040613083129223
20
35.65539306240013
30
0
11
28.27374331106736
21
21.878122762284601
31
0
0
ARC
5
157
100
AcDbEntity
8
0
100
AcDbCircle
10
18.785533905933772
20
18.785533905931715
30
0
40
9.9794901447955713
100
AcDbArc
50
-48.767253645838416
51
18.052871164441505
0
ARC
5
158
100
AcDbEntity
8
0
100
AcDbCircle
10
35.25
20
-4.3050412779979756e-16
30
0
40
14.999999999992543
100
AcDbArc
50
131.23274635416266
51
228.76725364583737
0
ARC
5
159
100
AcDbEntity
8
0
100
AcDbCircle
10
18.785533905931707
20
-18.785533905933775
30
0
40
9.9794901447938535
100
AcDbArc
50
-18.052871164426865
51
48.767253645837286
0
LINE
5
160
100
AcDbEntity
8
0
100
AcDbLine
10
28.273743311062951
20
-21.878122762283208
30
0
11
25.040613083128687
21
-35.655393062402325
31
0
0
ARC
5
161
100
AcDbEntity
8
0
100
AcDbCircle
10
29.908373979863455
20
-36.797716944766506
30
0
40
4.9999999999999671
100
AcDbArc
50
166.79329644124647
51
183.04062674997661
0
ARC
5
162
100
AcDbEntity
8
0
100
AcDbCircle
10
-35.083333333328966
20
-40.249999999999993
30
0
40
60.083333333328362
100
AcDbArc
50
-26.991466561591963
51
3.0406267499764756
0
ARC
5
163
100
AcDbEntity
8
0
100
AcDbCircle
10
14.000000000000002
20
-65.25
30
0
40
5.0000000000004752
100
AcDbArc
50
243.00853343842661
51
333.00853343842704
0
ARC
5
164
100
AcDbEntity
8
0
100
AcDbCircle
10
17.324104913799534
20
-58.723681029062824
30
0
40
12.324104913799601
100
AcDbArc
50
180
51
243.00851864753398
0
LINE
5
165
100
AcDbEntity
8
0
100
AcDbLine
10
4.9999999999999334
20
-58.723681029062824
30
0
11
4.999999999999976
21
-22.600881531576071
31
0
0
ARC
5
166
100
AcDbEntity
8
0
100
AcDbCircle
10
2.999999999999968
20
-22.600881531576071
30
0
40
2.000000000000008
100
AcDbArc
50
0
51
76.657636202913821
0
ARC
5
167
100
AcDbEntity
8
0
100
AcDbCircle
10
0
20
-35.249992172251737
30
0
40
15.000000000002094
100
AcDbArc
50
76.657636202914048
51
103.34236379708604
0
ARC
5
168
100
AcDbEntity
8
0
100
AcDbCircle
10
-3.0000000000000044
20
-22.600881531576075
30
0
40
2
100
AcDbArc
50
103.34236379708584
51
180
0
ENDSEC
0
SECTION
2
OBJECTS
0
DICTIONARY
5
C
100
AcDbDictionary
3
ACAD_GROUP
350
D
3
ACAD_MLINESTYLE
350
17
0
DICTIONARY
5
D
100
AcDbDictionary
0
DICTIONARY
5
1A
330
C
100
AcDbDictionary
0
DICTIONARY
5
17
100
AcDbDictionary
0
ENDSEC
0
EOF
