0
SECTION
2
HEADER
9
$INSUNITS
70
4
9
$ACADVER
1
AC1014
9
$HANDSEED
5
FFFF
0
ENDSEC
0
SECTION
2
TABLES
0
TABLE
2
VPORT
5
8
100
AcDbSymbolTable
0
ENDTAB
0
TABLE
2
LTYPE
5
5
100
AcDbSymbolTable
0
LTYPE
5
14
100
AcDbSymbolTableRecord
100
AcDbLinetypeTableRecord
2
BYBLOCK
70
0
0
LTYPE
5
15
100
AcDbSymbolTableRecord
100
AcDbLinetypeTableRecord
2
BYLAYER
70
0
0
ENDTAB
0
TABLE
2
LAYER
5
2
100
AcDbSymbolTable
70
2
0
LAYER
5
50
100
AcDbSymbolTableRecord
100
AcDbLayerTableRecord
2
0
70
0
6
CONTINUOUS
0
ENDTAB
0
TABLE
2
STYLE
5
3
100
AcDbSymbolTable
70
1
0
STYLE
5
11
100
AcDbSymbolTableRecord
100
AcDbTextStyleTableRecord
2
STANDARD
70
0
0
ENDTAB
0
TABLE
2
VIEW
5
6
100
AcDbSymbolTable
70
0
0
ENDTAB
0
TABLE
2
UCS
5
7
100
AcDbSymbolTable
70
0
0
ENDTAB
0
TABLE
2
APPID
5
9
100
AcDbSymbolTable
70
2
0
APPID
5
12
100
AcDbSymbolTableRecord
100
AcDbRegAppTableRecord
2
ACAD
70
0
0
ENDTAB
0
TABLE
2
DIMSTYLE
5
A
100
AcDbSymbolTable
70
1
0
ENDTAB
0
TABLE
2
BLOCK_RECORD
5
1
100
AcDbSymbolTable
70
1
0
BLOCK_RECORD
5
1F
100
AcDbSymbolTableRecord
100
AcDbBlockTableRecord
2
*MODEL_SPACE
0
BLOCK_RECORD
5
1B
100
AcDbSymbolTableRecord
100
AcDbBlockTableRecord
2
*PAPER_SPACE
0
ENDTAB
0
ENDSEC
0
SECTION
2
BLOCKS
0
BLOCK
5
20
100
AcDbEntity
100
AcDbBlockBegin
2
*MODEL_SPACE
0
ENDBLK
5
21
100
AcDbEntity
100
AcDbBlockEnd
0
BLOCK
5
1C
100
AcDbEntity
100
AcDbBlockBegin
2
*PAPER_SPACE
0
ENDBLK
5
1D
100
AcDbEntity
100
AcDbBlockEnd
0
ENDSEC
0
SECTION
2
ENTITIES
0
LWPOLYLINE
5
100
100
AcDbEntity
8
0
100
AcDbPolyline
90
6
70
1
43
0.0
10
-12.350749865840243
20
-8.9454724722312591
42
-0.3241025158994868
10
-12.350749865840253
20
8.9454724722312413
42
-0.46145461592310072
10
-10.83375784754943
20
9.0659908945829635
10
-2.474873734152915
20
0.70710678118655046
42
-0.41421356237309798
10
-2.474873734152915
20
-0.70710678118655168
10
-10.833757847549421
20
-9.0659908945829741
42
-0.46145461592310044
0
LWPOLYLINE
5
101
100
AcDbEntity
8
0
100
AcDbPolyline
90
6
70
1
43
0.0
10
-0.70710678118656056
20
-2.4748737341529212
10
-9.065990894582896
20
-10.833757847549485
42
0.46145461592310261
10
-8.9454724722311596
20
-12.350749865840315
42
0.32410251589948252
10
8.9454724722311436
20
-12.350749865840328
42
0.46145461592309955
10
9.0659908945828711
20
-10.833757847549508
10
0.70710678118655734
20
-2.474873734152923
42
0.41421356237310414
0
LWPOLYLINE
5
102
100
AcDbEntity
8
0
100
AcDbPolyline
90
6
70
1
43
0.0
10
2.4748737341529017
20
-0.70710678118653836
10
10.833757847549244
20
-9.0659908945831784
42
0.46145461592310105
10
12.350749865840074
20
-8.9454724722314989
42
0.32410251589949657
10
12.350749865840118
20
8.9454724722314296
42
0.46145461592310189
10
10.833757847549288
20
9.0659908945831216
10
2.4748737341529048
20
0.70710678118653603
42
0.41421356237308649
0
LWPOLYLINE
5
103
100
AcDbEntity
8
0
100
AcDbPolyline
90
6
70
1
43
0.0
10
0.70710678118655501
20
2.4748737341529181
10
9.0659908945829244
20
10.83375784754946
42
0.4614546159230985
10
8.9454724722312076
20
12.350749865840282
42
0.32410251589948486
10
-8.9454724722312058
20
12.350749865840282
42
0.46145461592309928
10
-9.065990894582928
20
10.833757847549464
10
-0.70710678118655768
20
2.4748737341529181
42
0.41421356237310153
0
ARC
5
104
100
AcDbEntity
8
0
100
AcDbCircle
10
-19.999999999999982
20
35.25
30
0
40
5
100
AcDbArc
50
0
51
141.37937020844305
0
ARC
5
105
100
AcDbEntity
8
0
100
AcDbCircle
10
-27.031662101523292
20
40.867448539150217
30
0
40
3.9999999999999987
100
AcDbArc
50
225.00000000000003
51
321.37937020844254
0
LINE
5
106
100
AcDbEntity
8
0
100
AcDbLine
10
-29.86008922626948
20
38.039021414404026
30
0
11
-30.377155492843158
21
38.556087680977704
31
0
0
ARC
5
107
100
AcDbEntity
8
0
100
AcDbCircle
10
-34.466621586909419
20
34.466621586911444
30
0
40
5.7833784130934296
100
AcDbArc
50
45
51
225.00000000000003
0
LINE
5
108
100
AcDbEntity
8
0
100
AcDbLine
10
-38.556087680975672
20
30.377155492845187
30
0
11
-38.039021414403813
21
29.860089226273292
31
0
0
ARC
5
109
100
AcDbEntity
8
0
100
AcDbCircle
10
-40.867448539150004
20
27.031662101527104
30
0
40
4.0000000000000027
100
AcDbArc
50
-51.379370208458958
51
44.999999999999964
0
ARC
5
110
100
AcDbEntity
8
0
100
AcDbCircle
10
-35.25
20
19.999999999999996
30
0
40
5.0000000000028342
100
AcDbArc
50
128.62062979154109
51
209.99999999999758
0
ARC
5
111
100
AcDbEntity
8
0
100
AcDbCircle
10
-69.891016151380811
20
1.5954295339676356e-14
30
0
40
35.000000000000014
100
AcDbArc
50
-29.999999999997677
51
29.999999999997637
0
ARC
5
112
100
AcDbEntity
8
0
100
AcDbCircle
10
-35.25
20
-19.999999999999996
30
0
40
5.0000000000028244
100
AcDbArc
50
150.00000000000227
51
231.37937020844069
0
ARC
5
113
100
AcDbEntity
8
0
100
AcDbCircle
10
-40.867448539152235
20
-27.031662101525306
30
0
40
4.0000000000000018
100
AcDbArc
50
-44.999999999999901
51
51.37937020844074
0
LINE
5
114
100
AcDbEntity
8
0
100
AcDbLine
10
-38.039021414406037
20
-29.860089226271494
30
0
11
-38.556087680977711
21
-30.377155492843151
31
0
0
ARC
5
115
100
AcDbEntity
8
0
100
AcDbCircle
10
-34.466621586911451
20
-34.466621586909412
30
0
40
5.7833784130934296
100
AcDbArc
50
135
51
315
0
LINE
5
116
100
AcDbEntity
8
0
100
AcDbLine
10
-30.377155492845191
20
-38.556087680975672
30
0
11
-29.860089226271278
21
-38.039021414401788
31
0
0
ARC
5
117
100
AcDbEntity
8
0
100
AcDbCircle
10
-27.031662101525082
20
-40.867448539147979
30
0
40
4.0000000000000027
100
AcDbArc
50
38.620629791538974
51
135.00000000000006
0
ARC
5
118
100
AcDbEntity
8
0
100
AcDbCircle
10
-20
20
-35.25
30
0
40
4.9999999999999902
100
AcDbArc
50
218.62062979153907
51
360
0
LINE
5
119
100
AcDbEntity
8
0
100
AcDbLine
10
-15.000000000000009
20
-35.250000000000007
30
0
11
-15.000000000004395
21
-35.249988526622893
31
0
0
ARC
5
120
100
AcDbEntity
8
0
100
AcDbCircle
10
1.1102230246251565e-15
20
-35.249988525260349
30
0
40
15.000000000004395
100
AcDbArc
50
4.3851064527227898e-05
51
180
0
LINE
5
121
100
AcDbEntity
8
0
100
AcDbLine
10
15
20
-35.249977043715944
30
0
11
15
21
-35.249999999999993
31
0
0
ARC
5
122
100
AcDbEntity
8
0
100
AcDbCircle
10
20
20
-35.25
30
0
40
5
100
AcDbArc
50
180
51
321.37937020844271
0
ARC
5
123
100
AcDbEntity
8
0
100
AcDbCircle
10
27.031662101523295
20
-40.867448539150217
30
0
40
4.0000000000000018
100
AcDbArc
50
45
51
141.37937020844274
0
LINE
5
124
100
AcDbEntity
8
0
100
AcDbLine
10
29.860089226269487
20
-38.039021414404026
30
0
11
30.377155492843162
21
-38.556087680977697
31
0
0
ARC
5
125
100
AcDbEntity
8
0
100
AcDbCircle
10
34.466621586909419
20
-34.466621586911444
30
0
40
5.7833784130934296
100
AcDbArc
50
-135.00000000000006
51
45
0
LINE
5
126
100
AcDbEntity
8
0
100
AcDbLine
10
38.556087680975679
20
-30.377155492845183
30
0
11
38.039021414403813
21
-29.860089226273288
31
0
0
ARC
5
127
100
AcDbEntity
8
0
100
AcDbCircle
10
40.867448539150004
20
-27.031662101527097
30
0
40
3.9999999999999991
100
AcDbArc
50
128.62062979154112
51
225
0
ARC
5
128
100
AcDbEntity
8
0
100
AcDbCircle
10
35.25
20
-19.999999999999996
30
0
40
5.0000000000028342
100
AcDbArc
50
-51.379370208458916
51
29.99999999999784
0
ARC
5
129
100
AcDbEntity
8
0
100
AcDbCircle
10
69.891016151380811
20
1.5954295339676356e-14
30
0
40
35.000000000000007
100
AcDbArc
50
150.00000000000236
51
209.99999999999767
0
ARC
5
130
100
AcDbEntity
8
0
100
AcDbCircle
10
35.25
20
19.999999999999996
30
0
40
5.0000000000028102
100
AcDbArc
50
-29.999999999997573
51
51.379370208440797
0
ARC
5
131
100
AcDbEntity
8
0
100
AcDbCircle
10
40.867448539152214
20
27.031662101525317
30
0
40
3.9999999999999987
100
AcDbArc
50
135.00000000000009
51
231.37937020844092
0
LINE
5
132
100
AcDbEntity
8
0
100
AcDbLine
10
38.039021414406022
20
29.860089226271501
30
0
11
38.556087680977697
21
30.37715549284318
31
0
0
ARC
5
133
100
AcDbEntity
8
0
100
AcDbCircle
10
34.466621586911444
20
34.46662158690944
30
0
40
5.7833784130934296
100
AcDbArc
50
-45.00000000000005
51
135.00000000000006
0
LINE
5
134
100
AcDbEntity
8
0
100
AcDbLine
10
30.377155492845183
20
38.556087680975693
30
0
11
29.860089226271256
21
38.039021414401802
31
0
0
ARC
5
135
100
AcDbEntity
8
0
100
AcDbCircle
10
27.031662101525065
20
40.867448539148
30
0
40
4.0000000000000018
100
AcDbArc
50
218.62062979153922
51
314.99999999999994
0
ARC
5
136
100
AcDbEntity
8
0
100
AcDbCircle
10
20
20
35.25
30
0
40
4.9999999999999893
100
AcDbArc
50
38.620629791539187
51
180
0
LINE
5
137
100
AcDbEntity
8
0
100
AcDbLine
10
15.000000000000009
20
35.250000000000021
30
0
11
14.999999999995627
21
35.249977045078488
31
0
0
ARC
5
138
100
AcDbEntity
8
0
100
AcDbCircle
10
1.6653345369377348e-14
20
35.249988525260335
30
0
40
15.000000000000004
100
AcDbArc
50
180
51
359.99995614062482
0
LINE
5
139
100
AcDbEntity
8
0
100
AcDbLine
10
-14.999999999999986
20
35.249988525260349
30
0
11
-14.999999999999982
21
35.249999999999993
31
0
0
CIRCLE
5
140
100
AcDbEntity
8
0
100
AcDbCircle
10
20
20
-35.25
30
0
40
1.6000000000000014
0
CIRCLE
5
141
100
AcDbEntity
8
0
100
AcDbCircle
10
20
20
35.25
30
0
40
1.6000000000000014
0
CIRCLE
5
142
100
AcDbEntity
8
0
100
AcDbCircle
10
-15.250000000000002
20
-15.250000000000002
30
0
40
1.5999999999999992
0
CIRCLE
5
143
100
AcDbEntity
8
0
100
AcDbCircle
10
15.250000000000002
20
15.250000000000002
30
0
40
1.5999999999999992
0
CIRCLE
5
144
100
AcDbEntity
8
0
100
AcDbCircle
10
-35.25
20
-19.999999999999996
30
0
40
1.6000000000000014
0
CIRCLE
5
145
100
AcDbEntity
8
0
100
AcDbCircle
10
35.25
20
-19.999999999999996
30
0
40
1.6000000000000014
0
CIRCLE
5
146
100
AcDbEntity
8
0
100
AcDbCircle
10
-15.250000000000002
20
15.250000000000002
30
0
40
1.5999999999999992
0
CIRCLE
5
147
100
AcDbEntity
8
0
100
AcDbCircle
10
-35.25
20
19.999999999999996
30
0
40
1.6000000000000014
0
CIRCLE
5
148
100
AcDbEntity
8
0
100
AcDbCircle
10
15.250000000000002
20
-15.250000000000002
30
0
40
1.5999999999999992
0
CIRCLE
5
149
100
AcDbEntity
8
0
100
AcDbCircle
10
35.25
20
19.999999999999996
30
0
40
1.6000000000000014
0
CIRCLE
5
150
100
AcDbEntity
8
0
100
AcDbCircle
10
-19.999999999999982
20
35.25
30
0
40
1.6000000000000014
0
CIRCLE
5
151
100
AcDbEntity
8
0
100
AcDbCircle
10
-20
20
-35.25
30
0
40
1.6000000000000014
0
LWPOLYLINE
5
152
100
AcDbEntity
8
0
100
AcDbPolyline
90
4
70
1
43
0.0
10
31.028126156553597
20
-14.393602094331309
42
-0.74881368026670425
10
31.028126156553579
20
14.393602094331294
42
-0.59965485754888614
10
34.116724569268897
20
11.245001636195902
42
0.15346448793154974
10
34.116724569268904
20
-11.245001636195882
42
-0.59965485754888792
0
LWPOLYLINE
5
153
100
AcDbEntity
8
0
100
AcDbPolyline
90
4
70
1
43
0.0
10
-31.028126156553796
20
14.393602094331357
42
-0.74881368026671591
10
-31.02812615655381
20
-14.393602094331364
42
-0.59965485754888237
10
-34.116724569269095
20
-11.245001636195955
42
0.15346448793155132
10
-34.116724569269088
20
11.245001636195964
42
-0.59965485754888148
0
ARC
5
154
100
AcDbEntity
8
0
100
AcDbCircle
10
27.625
20
-27.625
30
0
40
3.2833784130920218
100
AcDbArc
50
45.000000000000092
51
225.00000000000014
0
LINE
5
155
100
AcDbEntity
8
0
100
AcDbLine
10
29.94669914109889
20
-25.303300858901103
30
0
11
36.788320693413297
21
-32.144922411215539
31
0
0
ARC
5
156
100
AcDbEntity
8
0
100
AcDbCircle
10
34.466621586909419
20
-34.466621586911444
30
0
40
3.2833784130934287
100
AcDbArc
50
-134.99999999999991
51
45.000000000000263
0
LINE
5
157
100
AcDbEntity
8
0
100
AcDbLine
10
32.144922445809534
20
-36.788320728011335
30
0
11
25.30330085890111
21
-29.9466991410989
31
0
0
LWPOLYLINE
5
158
100
AcDbEntity
8
0
100
AcDbPolyline
90
4
70
1
43
0.0
10
32.144922445811559
20
36.788320728009332
42
-0.99999999999999989
10
36.788320728011328
20
32.144922445809542
10
29.946699141098897
20
25.303300858901117
42
-0.99999999999999989
10
25.303300858901107
20
29.946699141098904
0
LWPOLYLINE
5
159
100
AcDbEntity
8
0
100
AcDbPolyline
90
4
70
1
43
0.0
10
-36.78832072800931
20
32.144922445811559
42
-0.99999999999999989
10
-32.14492244580952
20
36.788320728011328
10
-25.303300858901103
20
29.9466991410989
42
-0.99999999999999989
10
-29.94669914109889
20
25.30330085890111
0
LWPOLYLINE
5
160
100
AcDbEntity
8
0
100
AcDbPolyline
90
4
70
1
43
0.0
10
-32.144922445811567
20
-36.788320728009303
42
-0.99999999999999989
10
-36.788320728011335
20
-32.14492244580952
10
-29.9466991410989
20
-25.303300858901103
42
-0.99999999999999989
10
-25.30330085890111
20
-29.94669914109889
0
LWPOLYLINE
5
161
100
AcDbEntity
8
0
100
AcDbPolyline
90
4
70
1
43
0.0
10
-31.028126156553814
20
-14.393602094331362
42
-0.59965485754888082
10
-34.116724569269095
20
-11.245001636195955
42
0.15346448793155112
10
-34.116724569269088
20
11.245001636195953
42
-0.59965485754888104
10
-31.028126156553807
20
14.39360209433136
42
-0.74881368026671624
0
LWPOLYLINE
5
162
100
AcDbEntity
8
0
100
AcDbPolyline
90
4
70
1
43
0.0
10
34.116724569268904
20
-11.2450016361959
42
-0.5996548575488867
10
31.028126156553594
20
-14.393602094331293
42
-0.74881368026670392
10
31.028126156553576
20
14.393602094331289
42
-0.59965485754888626
10
34.116724569268897
20
11.245001636195905
42
0.15346448793154946
0
LWPOLYLINE
5
163
100
AcDbEntity
8
0
100
AcDbPolyline
90
6
70
1
43
0.0
10
-12.350749865840251
20
8.9454724722312466
42
-0.46145461592310028
10
-10.833757847549428
20
9.0659908945829635
10
-2.474873734152915
20
0.70710678118655057
42
-0.41421356237309792
10
-2.474873734152915
20
-0.70710678118655168
10
-10.833757847549421
20
-9.0659908945829706
42
-0.4614546159231
10
-12.350749865840243
20
-8.9454724722312591
42
-0.32410251589948696
0
LWPOLYLINE
5
164
100
AcDbEntity
8
0
100
AcDbPolyline
90
6
70
1
43
0.0
10
-9.0659908945829297
20
10.83375784754946
42
-0.46145461592309722
10
-8.9454724722312058
20
12.35074986584028
42
-0.3241025158994848
10
8.9454724722312022
20
12.350749865840285
42
-0.46145461592309978
10
9.0659908945829244
20
10.833757847549464
10
0.70710678118655168
20
2.4748737341529168
42
-0.41421356237310064
10
-0.70710678118655723
20
2.4748737341529181
0
LWPOLYLINE
5
165
100
AcDbEntity
8
0
100
AcDbPolyline
90
6
70
1
43
0.0
10
10.833757847549288
20
9.0659908945831198
42
-0.46145461592310205
10
12.350749865840118
20
8.9454724722314332
42
-0.32410251589949646
10
12.350749865840069
20
-8.9454724722314953
42
-0.46145461592310261
10
10.833757847549244
20
-9.0659908945831784
10
2.4748737341529012
20
-0.70710678118653858
42
-0.41421356237308604
10
2.4748737341529048
20
0.70710678118653503
0
LWPOLYLINE
5
166
100
AcDbEntity
8
0
100
AcDbPolyline
90
6
70
1
43
0.0
10
9.0659908945828711
20
-10.833757847549506
42
-0.461454615923099
10
8.9454724722311436
20
-12.350749865840328
42
-0.3241025158994828
10
-8.9454724722311738
20
-12.350749865840305
42
-0.46145461592309528
10
-9.0659908945828942
20
-10.833757847549489
10
-0.70710678118655879
20
-2.4748737341529208
42
-0.41421356237310358
10
0.70710678118655723
20
-2.4748737341529226
0
LINE
5
167
100
AcDbEntity
8
0
100
AcDbLine
10
-14.999999999999982
20
35.249999999999993
30
0
11
-14.999999999999982
21
35.249988525260349
31
0
0
LINE
5
168
100
AcDbEntity
8
0
100
AcDbLine
10
15
20
-35.249999999999993
30
0
11
15
21
-35.249977043715944
31
0
0
LINE
5
169
100
AcDbEntity
8
0
100
AcDbLine
10
-15
20
-35.249988526622893
30
0
11
-15
21
-35.249999999999993
31
0
0
ARC
5
170
100
AcDbEntity
8
0
100
AcDbCircle
10
1.7763568394002505e-14
20
35.249988525260342
30
0
40
15
100
AcDbArc
50
180
51
359.99995614893544
0
LINE
5
171
100
AcDbEntity
8
0
100
AcDbLine
10
14.999999999995627
20
35.249977045078488
30
0
11
15.000000000000018
21
35.249999999999993
31
0
0
ARC
5
172
100
AcDbEntity
8
0
100
AcDbCircle
10
0
20
-35.249988525260342
30
0
40
15.000000000004395
100
AcDbArc
50
4.3851064527227898e-05
51
180
0
ARC
5
173
100
AcDbEntity
8
0
100
AcDbCircle
10
40.867448539152214
20
27.031662101525317
30
0
40
3.9999999999999987
100
AcDbArc
50
135.00000000000009
51
231.37937020844092
0
LINE
5
174
100
AcDbEntity
8
0
100
AcDbLine
10
38.556087680977697
20
30.37715549284318
30
0
11
38.039021414406022
21
29.860089226271501
31
0
0
ARC
5
175
100
AcDbEntity
8
0
100
AcDbCircle
10
27.031662101525065
20
40.867448539148
30
0
40
4.0000000000000018
100
AcDbArc
50
218.62062979153922
51
315
0
ARC
5
176
100
AcDbEntity
8
0
100
AcDbCircle
10
20
20
35.25
30
0
40
4.9999999999999893
100
AcDbArc
50
38.620629791539187
51
180
0
ARC
5
177
100
AcDbEntity
8
0
100
AcDbCircle
10
40.867448539150011
20
-27.031662101527097
30
0
40
4.000000000000008
100
AcDbArc
50
128.62062979154118
51
224.99999999999997
0
ARC
5
178
100
AcDbEntity
8
0
100
AcDbCircle
10
35.25
20
-19.999999999999996
30
0
40
5.0000000000028315
100
AcDbArc
50
-51.379370208458916
51
29.99999999999784
0
ARC
5
179
100
AcDbEntity
8
0
100
AcDbCircle
10
27.031662101523295
20
-40.867448539150217
30
0
40
4.0000000000000018
100
AcDbArc
50
45
51
141.37937020844279
0
LINE
5
180
100
AcDbEntity
8
0
100
AcDbLine
10
30.377155492843162
20
-38.556087680977697
30
0
11
29.860089226269487
21
-38.039021414404026
31
0
0
ARC
5
181
100
AcDbEntity
8
0
100
AcDbCircle
10
-27.031662101525082
20
-40.867448539147979
30
0
40
3.9999999999999996
100
AcDbArc
50
38.620629791538896
51
135.00000000000006
0
ARC
5
182
100
AcDbEntity
8
0
100
AcDbCircle
10
-20
20
-35.25
30
0
40
4.9999999999999929
100
AcDbArc
50
-141.37937020846087
51
0
0
ARC
5
183
100
AcDbEntity
8
0
100
AcDbCircle
10
-40.867448539152235
20
-27.031662101525306
30
0
40
4.0000000000000018
100
AcDbArc
50
-44.999999999999901
51
51.379370208440818
0
LINE
5
184
100
AcDbEntity
8
0
100
AcDbLine
10
-38.556087680977711
20
-30.377155492843151
30
0
11
-38.039021414406037
21
-29.860089226271494
31
0
0
ARC
5
185
100
AcDbEntity
8
0
100
AcDbCircle
10
-40.867448539150004
20
27.031662101527097
30
0
40
3.9999999999999991
100
AcDbArc
50
-51.379370208458916
51
45.000000000000028
0
ARC
5
186
100
AcDbEntity
8
0
100
AcDbCircle
10
-35.25
20
19.999999999999996
30
0
40
5.0000000000028342
100
AcDbArc
50
128.62062979154109
51
209.99999999999767
0
ARC
5
187
100
AcDbEntity
8
0
100
AcDbCircle
10
-27.031662101523288
20
40.867448539150217
30
0
40
4.0000000000000018
100
AcDbArc
50
225
51
321.37937020844277
0
LINE
5
188
100
AcDbEntity
8
0
100
AcDbLine
10
-30.377155492843158
20
38.556087680977704
30
0
11
-29.86008922626948
21
38.039021414404026
31
0
0
LINE
5
189
100
AcDbEntity
8
0
100
AcDbLine
10
-29.94669914109728
20
-25.30330085890272
30
0
11
-36.788320728011342
21
-32.14492244580952
31
0
0
ARC
5
190
100
AcDbEntity
8
0
100
AcDbCircle
10
-27.625000000000007
20
-27.624999999999996
30
0
40
3.2833784130920218
100
AcDbArc
50
-44.99999999999995
51
134.99999999999994
0
LINE
5
191
100
AcDbEntity
8
0
100
AcDbLine
10
-32.144922445811545
20
-36.78832072800931
30
0
11
-25.30330085890111
21
-29.94669914109889
31
0
0
ARC
5
192
100
AcDbEntity
8
0
100
AcDbCircle
10
-34.466621586911451
20
-34.466621586909412
30
0
40
3.2833784130934291
100
AcDbArc
50
135
51
315.00000000000011
0
ARC
5
193
100
AcDbEntity
8
0
100
AcDbCircle
10
-34.466621586911451
20
-34.466621586909412
30
0
40
5.7833784130934296
100
AcDbArc
50
135
51
315
0
LINE
5
194
100
AcDbEntity
8
0
100
AcDbLine
10
-29.860089226271278
20
-38.039021414401788
30
0
11
-30.377155492845191
21
-38.556087680975672
31
0
0
LINE
5
195
100
AcDbEntity
8
0
100
AcDbLine
10
-25.303300858906638
20
29.946699141093369
30
0
11
-32.144922445809527
21
36.788320728011335
31
0
0
ARC
5
196
100
AcDbEntity
8
0
100
AcDbCircle
10
-27.624999999999996
20
27.625000000000007
30
0
40
3.2833784130920218
100
AcDbArc
50
-134.99999999999994
51
45.00000000000005
0
LINE
5
197
100
AcDbEntity
8
0
100
AcDbLine
10
-36.788320728009317
20
32.144922445811538
30
0
11
-29.94669914109889
21
25.30330085890111
31
0
0
ARC
5
198
100
AcDbEntity
8
0
100
AcDbCircle
10
-34.466621586909419
20
34.466621586911444
30
0
40
3.2833784130934291
100
AcDbArc
50
45
51
225.00000000000006
0
ARC
5
199
100
AcDbEntity
8
0
100
AcDbCircle
10
-34.466621586909419
20
34.466621586911444
30
0
40
5.7833784130934296
100
AcDbArc
50
45
51
225.00000000000003
0
LINE
5
200
100
AcDbEntity
8
0
100
AcDbLine
10
-38.039021414403813
20
29.860089226273292
30
0
11
-38.556087680975672
21
30.377155492845187
31
0
0
LINE
5
201
100
AcDbEntity
8
0
100
AcDbLine
10
29.946699141091486
20
25.303300858908528
30
0
11
36.788320728011328
21
32.144922445809549
31
0
0
ARC
5
202
100
AcDbEntity
8
0
100
AcDbCircle
10
27.625
20
27.625000000000011
30
0
40
3.2833784130920218
100
AcDbArc
50
135
51
315.00000000000006
0
LINE
5
203
100
AcDbEntity
8
0
100
AcDbLine
10
32.144922445811531
20
36.788320728009339
30
0
11
25.303300858901107
21
29.946699141098904
31
0
0
ARC
5
204
100
AcDbEntity
8
0
100
AcDbCircle
10
34.466621586911444
20
34.46662158690944
30
0
40
3.2833784130934291
100
AcDbArc
50
-45.000000000000099
51
135.00000000000017
0
ARC
5
205
100
AcDbEntity
8
0
100
AcDbCircle
10
34.466621586911444
20
34.46662158690944
30
0
40
5.7833784130934296
100
AcDbArc
50
-45.00000000000005
51
135.00000000000006
0
LINE
5
206
100
AcDbEntity
8
0
100
AcDbLine
10
29.860089226271256
20
38.039021414401809
30
0
11
30.377155492845183
21
38.556087680975693
31
0
0
LINE
5
207
100
AcDbEntity
8
0
100
AcDbLine
10
36.788320693413311
20
-32.144922411215525
30
0
11
29.946699141098897
21
-25.303300858901107
31
0
0
ARC
5
208
100
AcDbEntity
8
0
100
AcDbCircle
10
34.466621586909419
20
-34.466621586911444
30
0
40
3.2833784130934291
100
AcDbArc
50
-135
51
45.000000853773635
0
LINE
5
209
100
AcDbEntity
8
0
100
AcDbLine
10
25.303300858899227
20
-29.94669914108394
30
0
11
32.144922445809534
21
-36.788320728011328
31
0
0
ARC
5
210
100
AcDbEntity
8
0
100
AcDbCircle
10
27.625
20
-27.625
30
0
40
3.2833784130920218
100
AcDbArc
50
44.999999999999957
51
224.99999999979227
0
ARC
5
211
100
AcDbEntity
8
0
100
AcDbCircle
10
34.466621586909419
20
-34.466621586911444
30
0
40
5.7833784130934296
100
AcDbArc
50
-135.00000000000006
51
45
0
LINE
5
212
100
AcDbEntity
8
0
100
AcDbLine
10
38.039021414403813
20
-29.860089226273292
30
0
11
38.556087680975679
21
-30.377155492845183
31
0
0
ARC
5
213
100
AcDbEntity
8
0
100
AcDbCircle
10
-69.891016151380853
20
2.1094237467877974e-14
30
0
40
35.000000000000043
100
AcDbArc
50
-29.999999999997627
51
29.999999999997573
0
ARC
5
214
100
AcDbEntity
8
0
100
AcDbCircle
10
-35.25
20
-19.999999999999996
30
0
40
5.0000000000028262
100
AcDbArc
50
150.00000000000225
51
231.37937020844058
0
ARC
5
215
100
AcDbEntity
8
0
100
AcDbCircle
10
69.89101615138091
20
2.2204460492503131e-15
30
0
40
35.000000000000099
100
AcDbArc
50
150.00000000000247
51
209.99999999999756
0
ARC
5
216
100
AcDbEntity
8
0
100
AcDbCircle
10
35.25
20
19.999999999999996
30
0
40
5.0000000000028137
100
AcDbArc
50
-29.999999999997627
51
51.379370208440825
0
CIRCLE
5
217
100
AcDbEntity
8
0
100
AcDbCircle
10
20
20
-35.25
30
0
40
1.6000000000000014
0
CIRCLE
5
218
100
AcDbEntity
8
0
100
AcDbCircle
10
20
20
35.25
30
0
40
1.6000000000000014
0
CIRCLE
5
219
100
AcDbEntity
8
0
100
AcDbCircle
10
-15.250000000000002
20
-15.250000000000002
30
0
40
1.5999999999999992
0
CIRCLE
5
220
100
AcDbEntity
8
0
100
AcDbCircle
10
15.250000000000002
20
15.250000000000002
30
0
40
1.5999999999999992
0
CIRCLE
5
221
100
AcDbEntity
8
0
100
AcDbCircle
10
-35.25
20
-19.999999999999996
30
0
40
1.6000000000000014
0
CIRCLE
5
222
100
AcDbEntity
8
0
100
AcDbCircle
10
35.25
20
-19.999999999999996
30
0
40
1.6000000000000014
0
CIRCLE
5
223
100
AcDbEntity
8
0
100
AcDbCircle
10
-15.250000000000002
20
15.250000000000002
30
0
40
1.5999999999999992
0
CIRCLE
5
224
100
AcDbEntity
8
0
100
AcDbCircle
10
-35.25
20
19.999999999999996
30
0
40
1.6000000000000014
0
CIRCLE
5
225
100
AcDbEntity
8
0
100
AcDbCircle
10
15.250000000000002
20
-15.250000000000002
30
0
40
1.5999999999999992
0
CIRCLE
5
226
100
AcDbEntity
8
0
100
AcDbCircle
10
35.25
20
19.999999999999996
30
0
40
1.6000000000000014
0
CIRCLE
5
227
100
AcDbEntity
8
0
100
AcDbCircle
10
-20
20
35.25
30
0
40
1.6000000000000014
0
CIRCLE
5
228
100
AcDbEntity
8
0
100
AcDbCircle
10
-20
20
-35.25
30
0
40
1.6000000000000014
0
ARC
5
229
100
AcDbEntity
8
0
100
AcDbCircle
10
-20
20
35.25
30
0
40
5.0000000000000178
100
AcDbArc
50
0
51
141.37937020844265
0
ARC
5
230
100
AcDbEntity
8
0
100
AcDbCircle
10
20
20
-35.25
30
0
40
5
100
AcDbArc
50
180
51
321.37937020844271
0
ENDSEC
0
SECTION
2
OBJECTS
0
DICTIONARY
5
C
100
AcDbDictionary
3
ACAD_GROUP
350
D
3
ACAD_MLINESTYLE
350
17
0
DICTIONARY
5
D
100
AcDbDictionary
0
DICTIONARY
5
1A
330
C
100
AcDbDictionary
0
DICTIONARY
5
17
100
AcDbDictionary
0
ENDSEC
0
EOF
