0
SECTION
2
HEADER
9
$INSUNITS
70
4
9
$ACADVER
1
AC1014
9
$HANDSEED
5
FFFF
0
ENDSEC
0
SECTION
2
TABLES
0
TABLE
2
VPORT
5
8
100
AcDbSymbolTable
0
ENDTAB
0
TABLE
2
LTYPE
5
5
100
AcDbSymbolTable
0
LTYPE
5
14
100
AcDbSymbolTableRecord
100
AcDbLinetypeTableRecord
2
BYBLOCK
70
0
0
LTYPE
5
15
100
AcDbSymbolTableRecord
100
AcDbLinetypeTableRecord
2
BYLAYER
70
0
0
ENDTAB
0
TABLE
2
LAYER
5
2
100
AcDbSymbolTable
70
2
0
LAYER
5
50
100
AcDbSymbolTableRecord
100
AcDbLayerTableRecord
2
0
70
0
6
CONTINUOUS
0
ENDTAB
0
TABLE
2
STYLE
5
3
100
AcDbSymbolTable
70
1
0
STYLE
5
11
100
AcDbSymbolTableRecord
100
AcDbTextStyleTableRecord
2
STANDARD
70
0
0
ENDTAB
0
TABLE
2
VIEW
5
6
100
AcDbSymbolTable
70
0
0
ENDTAB
0
TABLE
2
UCS
5
7
100
AcDbSymbolTable
70
0
0
ENDTAB
0
TABLE
2
APPID
5
9
100
AcDbSymbolTable
70
2
0
APPID
5
12
100
AcDbSymbolTableRecord
100
AcDbRegAppTableRecord
2
ACAD
70
0
0
ENDTAB
0
TABLE
2
DIMSTYLE
5
A
100
AcDbSymbolTable
70
1
0
ENDTAB
0
TABLE
2
BLOCK_RECORD
5
1
100
AcDbSymbolTable
70
1
0
BLOCK_RECORD
5
1F
100
AcDbSymbolTableRecord
100
AcDbBlockTableRecord
2
*MODEL_SPACE
0
BLOCK_RECORD
5
1B
100
AcDbSymbolTableRecord
100
AcDbBlockTableRecord
2
*PAPER_SPACE
0
ENDTAB
0
ENDSEC
0
SECTION
2
BLOCKS
0
BLOCK
5
20
100
AcDbEntity
100
AcDbBlockBegin
2
*MODEL_SPACE
0
ENDBLK
5
21
100
AcDbEntity
100
AcDbBlockEnd
0
BLOCK
5
1C
100
AcDbEntity
100
AcDbBlockBegin
2
*PAPER_SPACE
0
ENDBLK
5
1D
100
AcDbEntity
100
AcDbBlockEnd
0
ENDSEC
0
SECTION
2
ENTITIES
0
LWPOLYLINE
5
100
100
AcDbEntity
8
0
100
AcDbPolyline
90
6
70
1
43
0.0
10
-13.214329574350455
20
-53.504283663537116
42
-0.067059090137243565
10
-14.999999999999996
20
-40.249999999999986
10
-15.000000000002094
20
-35.249992176008632
42
-0.12701727005336297
10
-13.124982385237129
20
-27.988116561414152
42
-0.77459569898002778
10
-11.249983559554773
20
-28.472241602136585
10
-11.249983559554785
20
-53.239639064597917
42
-0.87431044680268477
0
LWPOLYLINE
5
101
100
AcDbEntity
8
0
100
AcDbPolyline
90
8
70
1
43
0.0
10
-8.7499835595547673
20
-23.590757427780325
10
-8.7499835595547744
20
-63.971497160929218
42
0.16311773777728042
10
-8.5480150834321371
20
-64.574112865087329
42
0.10360489006253798
10
-5.2390989995160115
20
-67.461935554256044
42
0.57318330103540349
10
-3.7499835595547664
20
-66.589716495537701
10
-3.7499835595547673
20
-22.080419051454776
42
0.51964287209942239
10
-5.0892680995229203
20
-21.139735257112271
42
0.060194790219321746
10
-8.3035538138085982
20
-22.757954946032495
42
0.25112561298523117
0
LWPOLYLINE
5
102
100
AcDbEntity
8
0
100
AcDbPolyline
90
8
70
1
43
0.0
10
5.089284563453508
20
-21.139741195311025
42
-0.060194802361878338
10
8.3035689941384323
20
-22.757965036528507
42
-0.25112550083607649
10
8.7499977278623025
20
-23.590767638793029
10
8.7499656971853899
20
-63.971521608838259
42
-0.16311831755693568
10
8.547995381738593
20
-64.574138955551618
42
-0.10360471362386282
10
5.2390770071594286
20
-67.461947886905662
42
-0.57318278265541223
10
3.7499636203762874
20
-66.589726883610751
10
3.7499989258903099
20
-22.080423800557103
42
-0.51964299071681264
0
LWPOLYLINE
5
103
100
AcDbEntity
8
0
100
AcDbPolyline
90
36
70
1
43
0.0
10
24.961549306744381
20
-38.100811040493156
42
-0.12739955591309712
10
18.455370650530686
20
-67.519288956125848
42
-0.61290322580666934
10
-18.455370650529829
20
-67.519288956125422
42
-0.12739955591310434
10
-24.961549306744921
20
-38.100811040491436
42
0.32077082270319807
10
-25.603991767071896
20
-37.130905027274693
42
0.29579120306898787
10
-29.860089226271278
20
-38.039021414401788
10
-30.377155492845191
20
-38.556087680975672
42
-0.99999999999999989
10
-38.556087680977711
20
-30.377155492843151
10
-38.039021414406037
20
-29.860089226271494
42
0.44721359549994677
10
-38.370804743974254
20
-23.906478945292818
42
-0.3708012337423624
10
-39.580127018924735
20
-17.499999999998757
42
0.26794919243110071
10
-39.580127018924756
20
17.499999999998757
42
-0.37080123374245244
10
-38.370804743973011
20
23.906478945293816
42
0.4472135955000423
10
-38.039021414403813
20
29.860089226273292
10
-38.556087680975672
20
30.377155492845187
42
-0.99999999999999989
10
-30.377155492843158
20
38.556087680977704
10
-29.86008922626948
20
38.039021414404026
42
0.29579120306887058
10
-25.603991767071719
20
37.13090502727632
42
0.32077082270330359
10
-24.961549306758055
20
38.100811040492658
42
-0.12739955591304669
10
-18.455370650557668
20
67.519288956126232
42
-0.6129032258068674
10
18.45537065052984
20
67.519288956125408
42
-0.12739955591310434
10
24.961549306744935
20
38.100811040491429
42
0.32077082270320151
10
25.603991767071932
20
37.130905027274693
42
0.29579120306898388
10
29.860089226271256
20
38.039021414401802
10
30.377155492845183
20
38.556087680975693
42
-0.99999999999999989
10
38.556087680977697
20
30.37715549284318
10
38.039021414406022
20
29.860089226271501
42
0.44721359549994733
10
38.370804743974233
20
23.906478945292811
42
-0.37080123374236229
10
39.580127018924735
20
17.499999999998774
42
0.26794919243110077
10
39.580127018924749
20
-17.499999999998749
42
-0.370801233742453
10
38.370804743973011
20
-23.906478945293816
42
0.44721359550004236
10
38.039021414403813
20
-29.860089226273288
10
38.556087680975679
20
-30.377155492845183
42
-0.99999999999999989
10
30.377155492843162
20
-38.556087680977697
10
29.860089226269487
20
-38.039021414404026
42
0.29579120306886814
10
25.603991767071754
20
-37.130905027276306
42
0.32077082270330853
0
LWPOLYLINE
5
104
100
AcDbEntity
8
0
100
AcDbPolyline
90
6
70
1
43
0.0
10
13.124993416911712
20
-27.988136499898651
42
-0.12701674991677336
10
15
20
-35.249984250171458
10
14.999999999999998
20
-40.249999999999986
42
-0.067059270891199188
10
13.214320034182599
20
-53.504318427178362
42
-0.87431047919613003
10
11.249974209873116
20
-53.239672340907049
10
11.249993855784705
20
-28.472259418172655
42
-0.77459598934294838
0
LWPOLYLINE
5
105
100
AcDbEntity
8
0
100
AcDbPolyline
90
24
70
1
43
0.0
10
-13.501114227815311
20
7.8442599783202436
42
-0.33167926656815822
10
-13.414836900363971
20
7.2529063785928818
42
0.25302451236004464
10
-13.414836900362136
20
-7.252906378596272
42
-0.33167926656839514
10
-13.501114227813627
20
-7.8442599783239508
10
-21.613961030679135
20
-15.957106781184693
42
0.99999999999999989
10
-15.957106781188411
20
-21.61396103067873
10
-7.8442599783202454
20
-13.501114227815314
42
-0.33167926656816027
10
-7.2529063785928898
20
-13.414836900363971
42
0.25302451236004486
10
7.2529063785962675
20
-13.41483690036214
42
-0.33167926656839325
10
7.8442599783239491
20
-13.501114227813629
10
15.957106781184688
20
-21.613961030679143
42
0.99999999999999989
10
21.613961030678727
20
-15.957106781188413
10
13.501114227815307
20
-7.8442599783202471
42
-0.3316792665681641
10
13.414836900363969
20
-7.2529063785928809
42
0.25302451236004464
10
13.414836900362136
20
7.2529063785962711
42
-0.33167926656839714
10
13.501114227813627
20
7.8442599783239517
10
21.613961030679135
20
15.957106781184693
42
0.99999999999999989
10
15.957106781188406
20
21.61396103067873
10
7.8442599783202454
20
13.501114227815309
42
-0.33167926656816293
10
7.2529063785928756
20
13.414836900363969
42
0.25302451236004453
10
-7.2529063785962746
20
13.414836900362133
42
-0.33167926656839553
10
-7.8442599783239553
20
13.501114227813623
10
-15.957106781184702
20
21.613961030679135
42
0.99999999999999989
10
-21.613961030678741
20
15.957106781188408
0
CIRCLE
5
106
100
AcDbEntity
8
0
100
AcDbCircle
10
14.000000000000002
20
-65.25
30
0
40
1.6000000000000036
0
CIRCLE
5
107
100
AcDbEntity
8
0
100
AcDbCircle
10
-13.999999999999972
20
65.25
30
0
40
1.6000000000000036
0
CIRCLE
5
108
100
AcDbEntity
8
0
100
AcDbCircle
10
-14.000000000000002
20
-65.25
30
0
40
1.6000000000000036
0
CIRCLE
5
109
100
AcDbEntity
8
0
100
AcDbCircle
10
14.000000000000036
20
65.249999999999972
30
0
40
1.6000000000000036
0
LWPOLYLINE
5
110
100
AcDbEntity
8
0
100
AcDbPolyline
90
4
70
1
43
0.0
10
-32.144922445811567
20
-36.788320728009303
42
-0.99999999999999989
10
-36.788320728011335
20
-32.14492244580952
10
-29.9466991410989
20
-25.303300858901103
42
-0.99999999999999989
10
-25.30330085890111
20
-29.94669914109889
0
LWPOLYLINE
5
111
100
AcDbEntity
8
0
100
AcDbPolyline
90
4
70
1
43
0.0
10
-36.78832072800931
20
32.144922445811559
42
-0.99999999999999989
10
-32.14492244580952
20
36.788320728011328
10
-25.303300858901103
20
29.9466991410989
42
-0.99999999999999989
10
-29.94669914109889
20
25.30330085890111
0
LWPOLYLINE
5
112
100
AcDbEntity
8
0
100
AcDbPolyline
90
4
70
1
43
0.0
10
32.144922445811559
20
36.788320728009332
42
-0.99999999999999989
10
36.788320728011328
20
32.144922445809542
10
29.946699141098897
20
25.303300858901117
42
-0.99999999999999989
10
25.303300858901107
20
29.946699141098904
0
ARC
5
113
100
AcDbEntity
8
0
100
AcDbCircle
10
27.625
20
-27.625
30
0
40
3.2833784130920218
100
AcDbArc
50
45.000000000000092
51
225.00000000000014
0
LINE
5
114
100
AcDbEntity
8
0
100
AcDbLine
10
29.94669914109889
20
-25.303300858901103
30
0
11
36.788320693413297
21
-32.144922411215539
31
0
0
ARC
5
115
100
AcDbEntity
8
0
100
AcDbCircle
10
34.466621586909419
20
-34.466621586911444
30
0
40
3.2833784130934287
100
AcDbArc
50
-134.99999999999991
51
45.000000000000263
0
LINE
5
116
100
AcDbEntity
8
0
100
AcDbLine
10
32.144922445809534
20
-36.788320728011335
30
0
11
25.30330085890111
21
-29.9466991410989
31
0
0
LWPOLYLINE
5
117
100
AcDbEntity
8
0
100
AcDbPolyline
90
4
70
1
43
0.0
10
-31.028126156553817
20
14.393602094331362
42
-0.74881368026671713
10
-31.028126156553824
20
-14.393602094331367
42
-0.59965485754888237
10
-34.116724569269103
20
-11.245001636195953
42
0.15346448793155126
10
-34.116724569269095
20
11.245001636195957
42
-0.59965485754888104
0
LWPOLYLINE
5
118
100
AcDbEntity
8
0
100
AcDbPolyline
90
4
70
1
43
0.0
10
31.028126156553597
20
-14.393602094331309
42
-0.74881368026670425
10
31.028126156553579
20
14.393602094331294
42
-0.59965485754888614
10
34.116724569268897
20
11.245001636195902
42
0.15346448793154974
10
34.116724569268904
20
-11.245001636195882
42
-0.59965485754888792
0
CIRCLE
5
119
100
AcDbEntity
8
0
100
AcDbCircle
10
35.25
20
19.999999999999996
30
0
40
1.6000000000000014
0
CIRCLE
5
120
100
AcDbEntity
8
0
100
AcDbCircle
10
-20
20
-35.25
30
0
40
1.6000000000000014
0
CIRCLE
5
121
100
AcDbEntity
8
0
100
AcDbCircle
10
-20
20
35.25
30
0
40
1.6000000000000014
0
CIRCLE
5
122
100
AcDbEntity
8
0
100
AcDbCircle
10
20
20
-35.25
30
0
40
1.6000000000000014
0
CIRCLE
5
123
100
AcDbEntity
8
0
100
AcDbCircle
10
-35.25
20
19.999999999999996
30
0
40
1.6000000000000014
0
CIRCLE
5
124
100
AcDbEntity
8
0
100
AcDbCircle
10
35.25
20
-19.999999999999996
30
0
40
1.6000000000000014
0
CIRCLE
5
125
100
AcDbEntity
8
0
100
AcDbCircle
10
20
20
35.25
30
0
40
1.6000000000000014
0
CIRCLE
5
126
100
AcDbEntity
8
0
100
AcDbCircle
10
-35.25
20
-19.999999999999996
30
0
40
1.6000000000000014
0
LWPOLYLINE
5
127
100
AcDbEntity
8
0
100
AcDbPolyline
90
6
70
1
43
0.0
10
-9.5446293494843655
20
62.980711043871295
42
-0.6129032258067203
10
9.5446293494659091
20
62.98071104388093
42
-0.11832004406087053
10
15.000000000000018
20
40.249999999999972
10
14.999999999997936
20
35.249984253928353
42
-0.99999973605592174
10
-14.999999999999986
20
35.249992172251751
10
-15.000000000012099
20
40.249999999999986
42
-0.11832004406078452
0
LWPOLYLINE
5
128
100
AcDbEntity
8
0
100
AcDbPolyline
90
8
70
1
43
0.0
10
-8.5480150834321318
20
-64.574112865087329
42
-0.16311773777728067
10
-8.7499835595547761
20
-63.971497160929218
10
-8.7499835595547655
20
-23.590757427780325
42
-0.25112561298523139
10
-8.3035538138086
20
-22.757954946032498
42
-0.060194790219321878
10
-5.0892680995229149
20
-21.139735257112275
42
-0.51964287209941906
10
-3.7499835595547655
20
-22.080419051454776
10
-3.7499835595547673
20
-66.589716495537701
42
-0.5731833010354066
10
-5.2390989995160098
20
-67.461935554256044
42
-0.10360489006253794
0
LWPOLYLINE
5
129
100
AcDbEntity
8
0
100
AcDbPolyline
90
6
70
1
43
0.0
10
13.214320034182601
20
-53.504318427178347
42
-0.87431047919613492
10
11.249974209873116
20
-53.239672340907049
10
11.249993855784711
20
-28.472259418172655
42
-0.7745959893429516
10
13.124993416911725
20
-27.988136499898655
42
-0.12701674991677314
10
15
20
-35.249984250171465
10
15.000000000000021
20
-40.249999999999986
42
-0.067059270891199188
0
LWPOLYLINE
5
130
100
AcDbEntity
8
0
100
AcDbPolyline
90
8
70
1
43
0.0
10
8.7499656971853863
20
-63.971521608838259
42
-0.16311831755693718
10
8.5479953817385841
20
-64.574138955551632
42
-0.10360471362386249
10
5.239077007159433
20
-67.461947886905648
42
-0.57318278265541844
10
3.7499636203762874
20
-66.589726883610751
10
3.7499989258903135
20
-22.080423800557099
42
-0.51964299071680853
10
5.0892845634535178
20
-21.139741195311025
42
-0.060194802361878116
10
8.3035689941384305
20
-22.75796503652851
42
-0.2511255008360766
10
8.7499977278623007
20
-23.590767638793029
0
LWPOLYLINE
5
131
100
AcDbEntity
8
0
100
AcDbPolyline
90
6
70
1
43
0.0
10
-11.24998355955478
20
-53.239639064597917
42
-0.87431044680268166
10
-13.214329574350462
20
-53.504283663537151
42
-0.067059090137244232
10
-15
20
-40.249999999999993
10
-15.000000000002093
20
-35.249992176008625
42
-0.1270172700533633
10
-13.124982385237127
20
-27.988116561414145
42
-0.77459569898002578
10
-11.249983559554773
20
-28.472241602136585
0
LWPOLYLINE
5
132
100
AcDbEntity
8
0
100
AcDbPolyline
90
36
70
1
43
0.0
10
18.455370650530625
20
-67.519288956125962
42
-0.61290322580666712
10
-18.455370650529822
20
-67.519288956125393
42
-0.12739955591310512
10
-24.961549306744914
20
-38.100811040491436
42
0.32077082270319102
10
-25.603991767071893
20
-37.130905027274693
42
0.2957912030689881
10
-29.860089226271278
20
-38.039021414401788
10
-30.377155492845191
20
-38.556087680975672
42
-0.99999999999999989
10
-38.556087680977711
20
-30.377155492843151
10
-38.039021414406044
20
-29.860089226271491
42
0.44721359549994733
10
-38.370804743974254
20
-23.906478945292811
42
-0.37080123374236212
10
-39.580127018924742
20
-17.499999999998753
42
0.26794919243110071
10
-39.580127018924756
20
17.499999999998753
42
-0.37080123374245233
10
-38.370804743973018
20
23.906478945293816
42
0.44721359550004286
10
-38.039021414403813
20
29.860089226273292
10
-38.556087680975672
20
30.377155492845187
42
-0.99999999999999989
10
-30.377155492843158
20
38.556087680977704
10
-29.86008922626948
20
38.039021414404026
42
0.29579120306887058
10
-25.603991767071719
20
37.13090502727632
42
0.32077082270330531
10
-24.961549306758055
20
38.10081104049268
42
-0.12739955591304589
10
-18.45537065054689
20
67.519288956120704
42
-0.6129032258066669
10
18.455370650524394
20
67.519288956136137
42
-0.12739955591315455
10
24.961549306744935
20
38.100811040491429
42
0.32077082270319845
10
25.603991767071928
20
37.130905027274693
42
0.29579120306898354
10
29.860089226271256
20
38.039021414401802
10
30.377155492845183
20
38.556087680975693
42
-0.99999999999999989
10
38.556087680977697
20
30.37715549284318
10
38.039021414406022
20
29.860089226271501
42
0.44721359549994738
10
38.37080474397424
20
23.906478945292822
42
-0.37080123374236257
10
39.580127018924742
20
17.499999999998764
42
0.2679491924311006
10
39.580127018924749
20
-17.499999999998742
42
-0.37080123374245311
10
38.370804743973018
20
-23.906478945293816
42
0.44721359550004164
10
38.039021414403813
20
-29.860089226273292
10
38.556087680975679
20
-30.377155492845183
42
-0.99999999999999989
10
30.377155492843162
20
-38.556087680977697
10
29.860089226269487
20
-38.039021414404026
42
0.29579120306886786
10
25.603991767071758
20
-37.130905027276306
42
0.32077082270330998
10
24.961549306745965
20
-38.100811040493092
42
-0.12739955591309768
0
ARC
5
133
100
AcDbEntity
8
0
100
AcDbCircle
10
-1.4130918657428992e-11
20
58.119269949071715
30
0
40
10.711375212220641
100
AcDbArc
50
26.991466561580353
51
153.00853343844179
0
LWPOLYLINE
5
134
100
AcDbEntity
8
0
100
AcDbPolyline
90
24
70
1
43
0.0
10
-13.501114227815314
20
7.8442599783202427
42
-0.3316792665681611
10
-13.414836900363969
20
7.2529063785928809
42
0.25302451236004458
10
-13.41483690036214
20
-7.2529063785962666
42
-0.3316792665683973
10
-13.501114227813627
20
-7.8442599783239526
10
-21.613961030679135
20
-15.957106781184692
42
0.99999999999999989
10
-15.957106781188413
20
-21.61396103067873
10
-7.8442599783202507
20
-13.501114227815311
42
-0.33167926656816288
10
-7.2529063785928845
20
-13.414836900363966
42
0.25302451236004464
10
7.2529063785962657
20
-13.41483690036214
42
-0.33167926656839514
10
7.8442599783239491
20
-13.50111422781363
10
15.957106781184688
20
-21.613961030679143
42
0.99999999999999989
10
21.613961030678727
20
-15.957106781188413
10
13.501114227815309
20
-7.8442599783202489
42
-0.33167926656816249
10
13.414836900363964
20
-7.2529063785928845
42
0.2530245123600447
10
13.414836900362134
20
7.2529063785962711
42
-0.33167926656839447
10
13.501114227813627
20
7.8442599783239526
10
21.613961030679135
20
15.957106781184693
42
0.99999999999999989
10
15.957106781188406
20
21.61396103067873
10
7.8442599783202454
20
13.501114227815309
42
-0.33167926656816021
10
7.2529063785928827
20
13.414836900363966
42
0.25302451236004475
10
-7.2529063785962737
20
13.414836900362133
42
-0.33167926656839514
10
-7.8442599783239562
20
13.501114227813623
10
-15.957106781184702
20
21.613961030679135
42
0.99999999999999989
10
-21.613961030678741
20
15.957106781188408
0
ARC
5
135
100
AcDbEntity
8
0
100
AcDbCircle
10
35.083333333329286
20
40.249999999999908
30
0
40
50.083333333341386
100
AcDbArc
50
153.00853343841504
51
180
0
LINE
5
136
100
AcDbEntity
8
0
100
AcDbLine
10
-14.999999999999982
20
40.249999999999986
30
0
11
-14.999999999999982
21
35.249992172251751
31
0
0
ARC
5
137
100
AcDbEntity
8
0
100
AcDbCircle
10
1.7763568394002505e-14
20
35.249992172251737
30
0
40
15
100
AcDbArc
50
180
51
359.99996975423261
0
LINE
5
138
100
AcDbEntity
8
0
100
AcDbLine
10
14.999999999997929
20
35.249984253928339
30
0
11
15.00000000000002
21
40.249999999999979
31
0
0
ARC
5
139
100
AcDbEntity
8
0
100
AcDbCircle
10
-35.083333333329236
20
40.24999999999995
30
0
40
50.08333333332925
100
AcDbArc
50
0
51
26.99146656160433
0
CIRCLE
5
140
100
AcDbEntity
8
0
100
AcDbCircle
10
14.000000000000002
20
-65.25
30
0
40
1.6000000000000036
0
CIRCLE
5
141
100
AcDbEntity
8
0
100
AcDbCircle
10
-13.999999999999972
20
65.25
30
0
40
1.6000000000000036
0
CIRCLE
5
142
100
AcDbEntity
8
0
100
AcDbCircle
10
-14.000000000000002
20
-65.25
30
0
40
1.6000000000000036
0
CIRCLE
5
143
100
AcDbEntity
8
0
100
AcDbCircle
10
14.000000000000036
20
65.249999999999972
30
0
40
1.6000000000000036
0
ARC
5
144
100
AcDbEntity
8
0
100
AcDbCircle
10
-34.466621586911451
20
-34.466621586909412
30
0
40
3.2833784130934291
100
AcDbArc
50
135
51
315
0
LINE
5
145
100
AcDbEntity
8
0
100
AcDbLine
10
-32.144922445811559
20
-36.788320728009303
30
0
11
-25.30330085890111
21
-29.94669914109889
31
0
0
ARC
5
146
100
AcDbEntity
8
0
100
AcDbCircle
10
-27.625000000000007
20
-27.624999999999996
30
0
40
3.2833784130920218
100
AcDbArc
50
-44.99999999999995
51
135
0
LINE
5
147
100
AcDbEntity
8
0
100
AcDbLine
10
-29.9466991410989
20
-25.303300858901103
30
0
11
-36.788320728011342
21
-32.14492244580952
31
0
0
ARC
5
148
100
AcDbEntity
8
0
100
AcDbCircle
10
-34.466621586909419
20
34.466621586911444
30
0
40
3.2833784130934291
100
AcDbArc
50
45
51
225
0
LINE
5
149
100
AcDbEntity
8
0
100
AcDbLine
10
-36.788320728009303
20
32.144922445811559
30
0
11
-29.94669914109889
21
25.30330085890111
31
0
0
ARC
5
150
100
AcDbEntity
8
0
100
AcDbCircle
10
-27.624999999999996
20
27.625000000000007
30
0
40
3.2833784130920218
100
AcDbArc
50
-134.99999999999994
51
45
0
LINE
5
151
100
AcDbEntity
8
0
100
AcDbLine
10
-25.303300858901103
20
29.9466991410989
30
0
11
-32.144922445809527
21
36.788320728011335
31
0
0
ARC
5
152
100
AcDbEntity
8
0
100
AcDbCircle
10
34.466621586911444
20
34.46662158690944
30
0
40
3.2833784130934291
100
AcDbArc
50
-45.000000000000099
51
135.00000000000011
0
LINE
5
153
100
AcDbEntity
8
0
100
AcDbLine
10
32.144922445811552
20
36.788320728009325
30
0
11
25.303300858901107
21
29.946699141098904
31
0
0
ARC
5
154
100
AcDbEntity
8
0
100
AcDbCircle
10
27.625
20
27.625000000000011
30
0
40
3.2833784130920218
100
AcDbArc
50
135
51
315.00000000000006
0
LINE
5
155
100
AcDbEntity
8
0
100
AcDbLine
10
29.946699141098897
20
25.303300858901117
30
0
11
36.788320728011328
21
32.144922445809549
31
0
0
ARC
5
156
100
AcDbEntity
8
0
100
AcDbCircle
10
27.625
20
-27.625
30
0
40
3.2833784130920218
100
AcDbArc
50
44.999999999999957
51
224.99999999979232
0
LINE
5
157
100
AcDbEntity
8
0
100
AcDbLine
10
25.30330085889269
20
-29.94669914109048
30
0
11
32.144922445809534
21
-36.788320728011328
31
0
0
ARC
5
158
100
AcDbEntity
8
0
100
AcDbCircle
10
34.466621586909419
20
-34.466621586911444
30
0
40
3.2833784130934291
100
AcDbArc
50
-135
51
45.000000853773656
0
LINE
5
159
100
AcDbEntity
8
0
100
AcDbLine
10
36.788320693413297
20
-32.144922411215539
30
0
11
29.946699141098897
21
-25.303300858901107
31
0
0
LWPOLYLINE
5
160
100
AcDbEntity
8
0
100
AcDbPolyline
90
4
70
1
43
0.0
10
-34.116724569269081
20
11.245001636195939
42
-0.15346448793155124
10
-34.116724569269095
20
-11.245001636195964
42
0.59965485754888115
10
-31.028126156553828
20
-14.393602094331372
42
0.74881368026671691
10
-31.028126156553814
20
14.393602094331362
42
0.59965485754888315
0
CIRCLE
5
161
100
AcDbEntity
8
0
100
AcDbCircle
10
35.25
20
19.999999999999996
30
0
40
1.6000000000000014
0
CIRCLE
5
162
100
AcDbEntity
8
0
100
AcDbCircle
10
-20
20
-35.25
30
0
40
1.6000000000000014
0
CIRCLE
5
163
100
AcDbEntity
8
0
100
AcDbCircle
10
-20
20
35.25
30
0
40
1.6000000000000014
0
CIRCLE
5
164
100
AcDbEntity
8
0
100
AcDbCircle
10
20
20
-35.25
30
0
40
1.6000000000000014
0
CIRCLE
5
165
100
AcDbEntity
8
0
100
AcDbCircle
10
-35.25
20
19.999999999999996
30
0
40
1.6000000000000014
0
CIRCLE
5
166
100
AcDbEntity
8
0
100
AcDbCircle
10
35.25
20
-19.999999999999996
30
0
40
1.6000000000000014
0
CIRCLE
5
167
100
AcDbEntity
8
0
100
AcDbCircle
10
20
20
35.25
30
0
40
1.6000000000000014
0
CIRCLE
5
168
100
AcDbEntity
8
0
100
AcDbCircle
10
-35.25
20
-19.999999999999996
30
0
40
1.6000000000000014
0
LWPOLYLINE
5
169
100
AcDbEntity
8
0
100
AcDbPolyline
90
4
70
1
43
0.0
10
34.116724569268897
20
-11.245001636195918
42
-0.15346448793154988
10
34.116724569268897
20
11.245001636195902
42
0.5996548575488867
10
31.028126156553576
20
14.393602094331291
42
0.74881368026670414
10
31.028126156553594
20
-14.393602094331296
42
0.5996548575488837
0
ENDSEC
0
SECTION
2
OBJECTS
0
DICTIONARY
5
C
100
AcDbDictionary
3
ACAD_GROUP
350
D
3
ACAD_MLINESTYLE
350
17
0
DICTIONARY
5
D
100
AcDbDictionary
0
DICTIONARY
5
1A
330
C
100
AcDbDictionary
0
DICTIONARY
5
17
100
AcDbDictionary
0
ENDSEC
0
EOF
