0
SECTION
2
HEADER
9
$INSUNITS
70
4
9
$ACADVER
1
AC1014
9
$HANDSEED
5
FFFF
0
ENDSEC
0
SECTION
2
TABLES
0
TABLE
2
VPORT
5
8
100
AcDbSymbolTable
0
ENDTAB
0
TABLE
2
LTYPE
5
5
100
AcDbSymbolTable
0
LTYPE
5
14
100
AcDbSymbolTableRecord
100
AcDbLinetypeTableRecord
2
BYBLOCK
70
0
0
LTYPE
5
15
100
AcDbSymbolTableRecord
100
AcDbLinetypeTableRecord
2
BYLAYER
70
0
0
ENDTAB
0
TABLE
2
LAYER
5
2
100
AcDbSymbolTable
70
2
0
LAYER
5
50
100
AcDbSymbolTableRecord
100
AcDbLayerTableRecord
2
0
70
0
6
CONTINUOUS
0
ENDTAB
0
TABLE
2
STYLE
5
3
100
AcDbSymbolTable
70
1
0
STYLE
5
11
100
AcDbSymbolTableRecord
100
AcDbTextStyleTableRecord
2
STANDARD
70
0
0
ENDTAB
0
TABLE
2
VIEW
5
6
100
AcDbSymbolTable
70
0
0
ENDTAB
0
TABLE
2
UCS
5
7
100
AcDbSymbolTable
70
0
0
ENDTAB
0
TABLE
2
APPID
5
9
100
AcDbSymbolTable
70
2
0
APPID
5
12
100
AcDbSymbolTableRecord
100
AcDbRegAppTableRecord
2
ACAD
70
0
0
ENDTAB
0
TABLE
2
DIMSTYLE
5
A
100
AcDbSymbolTable
70
1
0
ENDTAB
0
TABLE
2
BLOCK_RECORD
5
1
100
AcDbSymbolTable
70
1
0
BLOCK_RECORD
5
1F
100
AcDbSymbolTableRecord
100
AcDbBlockTableRecord
2
*MODEL_SPACE
0
BLOCK_RECORD
5
1B
100
AcDbSymbolTableRecord
100
AcDbBlockTableRecord
2
*PAPER_SPACE
0
ENDTAB
0
ENDSEC
0
SECTION
2
BLOCKS
0
BLOCK
5
20
100
AcDbEntity
100
AcDbBlockBegin
2
*MODEL_SPACE
0
ENDBLK
5
21
100
AcDbEntity
100
AcDbBlockEnd
0
BLOCK
5
1C
100
AcDbEntity
100
AcDbBlockBegin
2
*PAPER_SPACE
0
ENDBLK
5
1D
100
AcDbEntity
100
AcDbBlockEnd
0
ENDSEC
0
SECTION
2
ENTITIES
0
LWPOLYLINE
5
100
100
AcDbEntity
8
0
100
AcDbPolyline
90
49
70
1
43
0.0
10
57.836007113271677
20
114.38771408640579
10
57.712154097602806
20
114.34563430786405
10
57.453344273791203
20
114.31149016458157
10
55.953344328606619
20
114.31108464486785
10
55.694516081129599
20
114.3450888465168
10
55.570640331326047
20
114.38710165245745
10
55.453308127318515
20
114.44492406294957
10
55.344527055648172
20
114.51756672051808
10
55.24615839061093
20
114.60378668915149
10
55.159885247338636
20
114.70210872128213
10
55.087183783232092
20
114.81085049968009
10
55.029297940498708
20
114.92815142236795
10
54.98721816195696
20
115.05200443803682
10
54.953074018674499
20
115.31081426184841
10
54.95287125881763
20
116.0608142344407
10
54.952769878889271
20
116.43581422073683
10
54.952668498960776
20
116.81081420703299
10
54.986672700609716
20
117.06964245451003
10
55.02868550655036
20
117.19351820431356
10
55.086507917042496
20
117.3108504083211
10
55.15915057461099
20
117.41963147999161
10
55.245370543244405
20
117.51800014502888
10
55.343692575375059
20
117.60427328830117
10
55.452434353773015
20
117.67697475240772
10
55.693588292129732
20
117.77694037368265
10
55.952398115941335
20
117.81108451696511
10
56.302030689819219
20
117.81117903890276
10
57.130030659561051
20
117.8114028857847
10
57.452398061125919
20
117.81149003667885
10
57.835102058406491
20
117.73547302908925
10
57.952434262414023
20
117.67765061859713
10
58.061215334084366
20
117.60500796102862
10
58.159583999121608
20
117.5187879923952
10
58.245857142393902
20
117.42046596026456
10
58.318558606500446
20
117.31172418186659
10
58.37644444923383
20
117.19442325917875
10
58.418524227775578
20
117.07057024350988
10
58.452668371058039
20
116.81176041969827
10
58.453073890771762
20
116.43581422073683
10
58.452871130914815
20
116.06176044710601
10
58.452972510843267
20
115.68676046080986
10
58.453073890771762
20
115.3117604745137
10
58.419069689122821
20
115.05293222703668
10
58.377056883182178
20
114.92905647723313
10
58.319234472690042
20
114.81172427322561
10
58.246591815121732
20
114.70294320155509
10
58.160371846488133
20
114.60457453651783
10
58.062049814357493
20
114.51830139324554
10
57.953308035959523
20
114.44559992913901
0
LWPOLYLINE
5
101
100
AcDbEntity
8
0
100
AcDbPolyline
90
102
70
1
43
0.0
10
71.724397375043168
20
148.85970422844991
10
71.724397375043168
20
164.46609412535591
10
71.724397375043168
20
165.2702874047252
10
71.724397375043168
20
168.29015274813764
10
71.724397375043083
20
175.73628740472518
10
71.724397375043168
20
183.18242206131274
10
71.724397375043736
20
186.20228740472595
10
71.724397375043736
20
187.00648068409527
10
71.724397375043552
20
192.48628740472483
10
71.724397375043338
20
198.16869235583439
10
71.724397375043168
20
202.61287058100049
42
0.19891236737965537
10
70.985615329651495
20
204.39644821462281
10
70.71321332285315
20
204.68728892641067
10
70.460416494266013
20
204.99532291219373
10
70.228307364297038
20
205.31923111635967
10
70.017879864994484
20
205.65762650710599
10
69.830035083857808
20
206.00906001595337
10
69.665577405221981
20
206.37202674291157
10
69.525211065742639
20
206.7449724007254
10
69.40953713873111
20
207.12629997060574
10
69.319050960253293
20
207.514376540944
10
69.254140008013039
20
207.90754029972689
10
69.202044914740782
20
208.7023804228572
10
69.202102321912633
20
237.07032381845318
10
69.15094064678425
20
237.6766252313972
10
69.087330396455371
20
237.97440471852084
10
68.998908212017795
20
238.26578145780843
10
68.886300291845146
20
238.54869194402778
10
68.750304115629774
20
238.82113262922971
10
68.591882796699934
20
239.08117411170335
10
68.412158261333218
20
239.32697479983437
10
68.212403303370053
20
239.55679395410058
10
67.994032570396598
20
239.76900401484028
10
67.507750594362108
20
240.134720790671
10
61.637518685592099
20
243.82032771244144
10
60.57484544201305
20
244.42022951288592
10
60.023659211739471
20
244.68230987825748
10
59.460834432644063
20
244.91836208941561
10
58.887599403346599
20
245.12787099028327
10
58.305205141608809
20
245.31037935242409
10
57.714922654135563
20
245.46548887288878
10
57.118040162752891
20
245.59286104346509
10
56.515860293016189
20
245.69221788943113
10
55.909697231383362
20
245.76334257620317
10
54.690718855463544
20
245.82033653934991
10
46.213315721337693
20
245.82034731110807
10
44.994340647967057
20
245.76335643704545
10
44.388179139671834
20
245.69223328056034
10
43.786000763923347
20
245.5928779520259
10
43.189119711740304
20
245.46550728400479
10
42.598838613289431
20
245.31039924959401
10
42.016445695031862
20
245.12789235577736
10
41.44321196830461
20
244.91838490466978
10
40.880388455471675
20
244.68233412426514
10
40.329203459699556
20
244.42025517058352
10
39.266532607590889
20
243.82035613799206
10
33.396317585915085
20
240.13476696124951
10
32.910035817296333
20
239.76905073728275
10
32.691665263177129
20
239.55684084647427
10
32.491910550213689
20
239.32702180611369
10
32.31218633610581
20
239.08122118868843
10
32.153765423079719
20
238.8211797478001
10
32.01776974393519
20
238.54873909019301
10
31.905162416547181
20
238.26582863354315
10
31.816740923089508
20
237.97445194237159
10
31.753131462287065
20
237.67667253885321
10
31.701971652395216
20
237.07037146775474
10
31.702563850064998
20
208.70224671618001
10
31.650483944469912
20
207.90742785548423
10
31.585580668026498
20
207.51427408049886
10
31.495102192237461
20
207.12620711269918
10
31.379435980415575
20
206.74488880272551
10
31.239077359357914
20
206.37195210089385
10
31.074627398167536
20
206.00899406427956
10
30.886790334246825
20
205.65756901751143
10
30.676370557484134
20
205.31918189656051
10
30.444269165550288
20
204.99528180403081
10
30.191480105054502
20
204.68725580355027
10
29.919085915086576
20
204.39642297983534
42
0.19891236737965803
10
29.180314322286058
20
202.61287058100049
10
29.180314322286058
20
198.16869235583439
10
29.180314322286058
20
192.48628740472483
10
29.180314322286165
20
148.85970422844957
42
0.19891236737966214
10
29.919084055909195
20
147.07615631806613
10
30.191476843998348
20
146.78532490835039
10
30.444264510619661
20
146.47730033873879
10
30.676364513261269
20
146.15340169926341
10
30.886782902640793
20
145.81501605936245
10
31.074618579211783
20
145.46359252786891
10
31.239067152048623
20
145.10063604732034
10
31.379424383585217
20
144.72770094916569
10
31.49508920545447
20
144.34638429746767
10
31.585566292514855
20
143.95831904960681
10
31.650468184039227
20
143.56516706327477
10
31.70254534623286
20
142.77035201361613
10
31.701879758398732
20
115.36128740472452
42
0.41421374447781401
10
34.951877737730292
20
112.11128740472459
10
65.951877701350242
20
112.11128740472452
42
0.41421305720611074
10
69.201883306786982
20
115.36128740472452
10
69.202008870661018
20
142.77014758876714
10
69.208798849360775
20
142.97753213976421
42
-0.19041992835858804
10
70.985611673292539
20
147.07611776759617
42
0.19891236737965834
0
CIRCLE
5
102
100
AcDbEntity
8
0
100
AcDbCircle
10
65.701722312426227
20
160.48628740472395
30
1.604560928569753e-12
40
1.5
0
CIRCLE
5
103
100
AcDbEntity
8
0
100
AcDbCircle
10
53.95228707492258
20
160.48631435838357
30
6.7679195581149533e-14
40
1.5000000000002003
0
CIRCLE
5
104
100
AcDbEntity
8
0
100
AcDbCircle
10
46.952424622406795
20
160.48631435838314
30
6.7679195581149533e-14
40
1.5000000000000204
0
CIRCLE
5
105
100
AcDbEntity
8
0
100
AcDbCircle
10
35.202507227401334
20
160.48628740472449
30
9.1648910682806652e-13
40
1.50000000000002
0
CIRCLE
5
106
100
AcDbEntity
8
0
100
AcDbCircle
10
35.202507227400432
20
172.2363809924947
30
1.0603073974380091e-12
40
1.500000000000018
0
CIRCLE
5
107
100
AcDbEntity
8
0
100
AcDbCircle
10
65.701509890537153
20
116.11128740472454
30
1.4297230066517838e-12
40
1.500000000000018
0
CIRCLE
5
108
100
AcDbEntity
8
0
100
AcDbCircle
10
35.20250722740105
20
179.23619381695457
30
1.0659473304031042e-12
40
1.4999999999999978
0
CIRCLE
5
109
100
AcDbEntity
8
0
100
AcDbCircle
10
65.702204469928176
20
179.23619381695454
30
1.0546674644729131e-12
40
1.4999999999999956
0
LWPOLYLINE
5
110
100
AcDbEntity
8
0
100
AcDbPolyline
90
46
70
1
43
0.0
10
43.453344200676852
20
117.81149003667885
10
43.58146643412411
20
117.8114553992833
10
44.721466434124096
20
117.8114553992833
10
44.953344145861394
20
117.81108451696511
10
45.212153969672819
20
117.77694037368265
10
45.336006985341712
20
117.7348605951409
10
45.453307908029572
20
117.67697475240772
10
45.562049686427528
20
117.60427328830117
10
45.660371718558181
20
117.51800014502888
10
45.746591687191781
20
117.41963147999161
10
45.819234344760247
20
117.3108504083211
10
45.877056755252212
20
117.19351820431356
10
45.919069561192828
20
117.06964245451003
10
45.953073762841967
20
116.81081420703299
10
45.952871002985098
20
116.0608142344407
10
45.952668243128244
20
115.31081426184841
10
45.918524099845769
20
115.05200443803682
10
45.876444321303836
20
114.92815142236795
10
45.818558478570651
20
114.81085049968009
10
45.745857014464129
20
114.70210872128213
10
45.659583871191813
20
114.60378668915149
10
45.561215206154571
20
114.51756672051808
10
45.452434134484037
20
114.44492406294957
10
45.335101930476505
20
114.38710165245745
10
45.211226180672988
20
114.3450888465168
10
44.952397933195925
20
114.31108464486785
10
43.452397988011384
20
114.31149016458157
10
43.193588164199781
20
114.34563430786405
10
43.069735148531066
20
114.38771408640579
10
42.952434225843049
20
114.44559992913901
10
42.84369244744525
20
114.51830139324554
10
42.745370415314632
20
114.60457453651783
10
42.659150446681039
20
114.70294320155509
10
42.586507789112531
20
114.81172427322561
10
42.528685378620565
20
114.92905647723313
10
42.486672572679765
20
115.05293222703668
10
42.452668371030811
20
115.3117604745137
10
42.453073890744534
20
116.81176041969827
10
42.487218034027009
20
117.07057024350988
10
42.529297812568942
20
117.19442325917875
10
42.587183655302127
20
117.31172418186659
10
42.659885119408685
20
117.42046596026456
10
42.746158262680964
20
117.5187879923952
10
42.844526927718221
20
117.60500796102862
10
42.953307999388741
20
117.67765061859713
10
43.070640203396273
20
117.73547302908925
0
CIRCLE
5
111
100
AcDbEntity
8
0
100
AcDbCircle
10
65.702204469926187
20
190.9862874047266
30
9.249490062757103e-13
40
1.5000000000000164
0
CIRCLE
5
112
100
AcDbEntity
8
0
100
AcDbCircle
10
35.202516728756109
20
205.07036511374335
30
6.8745571907069297e-13
40
1.499999999999998
0
CIRCLE
5
113
100
AcDbEntity
8
0
100
AcDbCircle
10
46.95242462240671
20
190.98626045106693
30
6.7679195581150593e-14
40
1.4999999999999956
0
CIRCLE
5
114
100
AcDbEntity
8
0
100
AcDbCircle
10
53.95228707492258
20
190.98626045106684
30
5.6399329650957959e-14
40
1.4999999999999911
0
CIRCLE
5
115
100
AcDbEntity
8
0
100
AcDbCircle
10
65.70205062372051
20
205.07036511374366
30
7.2329665356047883e-13
40
1.5000000000000193
0
CIRCLE
5
116
100
AcDbEntity
8
0
100
AcDbCircle
10
35.202989384901144
20
190.98628740472532
30
1.6017409620872051e-12
40
1.4995342768111042
0
LWPOLYLINE
5
117
100
AcDbEntity
8
0
100
AcDbPolyline
90
4
70
1
43
0.0
10
64.70202485670481
20
226.8203657498444
10
64.70202485670481
20
220.82036574984457
10
66.80202485670506
20
220.82036574984457
10
66.80202485670506
20
226.8203657498444
0
CIRCLE
5
118
100
AcDbEntity
8
0
100
AcDbCircle
10
65.702052529685943
20
235.57032826576776
30
1.4381581568863716e-12
40
1.4999999999999662
0
CIRCLE
5
119
100
AcDbEntity
8
0
100
AcDbCircle
10
35.202050948294627
20
116.11128740472454
30
2.2993894860889232e-12
40
1.50000000000002
0
CIRCLE
5
120
100
AcDbEntity
8
0
100
AcDbCircle
10
35.202579000705128
20
235.57036701972908
30
1.3845787937179613e-12
40
1.5000000000000127
0
LWPOLYLINE
5
121
100
AcDbEntity
8
0
100
AcDbPolyline
90
4
70
1
43
0.0
10
36.201976186373571
20
220.82036574984457
10
34.10197618637369
20
220.82036574984457
10
34.10197618637369
20
226.8203657498444
10
36.201976186373571
20
226.8203657498444
0
ENDSEC
0
SECTION
2
OBJECTS
0
DICTIONARY
5
C
100
AcDbDictionary
3
ACAD_GROUP
350
D
3
ACAD_MLINESTYLE
350
17
0
DICTIONARY
5
D
100
AcDbDictionary
0
DICTIONARY
5
1A
330
C
100
AcDbDictionary
0
DICTIONARY
5
17
100
AcDbDictionary
0
ENDSEC
0
EOF
