  0
SECTION
  2
HEADER
  9
$ACADVER
  1
AC1024
  9
$ACADMAINTVER
 70
     6
  9
$DWGCODEPAGE
  3
UNDEFINED
  9
$INSBASE
 10
0.0
 20
0.0
 30
0.0
  9
$EXTMIN
 10
1.000000000000000E+20
 20
1.000000000000000E+20
 30
1.000000000000000E+20
  9
$EXTMAX
 10
-1.000000000000000E+20
 20
-1.000000000000000E+20
 30
-1.000000000000000E+20
  9
$LIMMIN
 10
0.0
 20
0.0
  9
$LIMMAX
 10
12.0
 20
9.0
  9
$ORTHOMODE
 70
     0
  9
$REGENMODE
 70
     1
  9
$FILLMODE
 70
     1
  9
$QTEXTMODE
 70
     0
  9
$MIRRTEXT
 70
     1
  9
$LTSCALE
 40
1.0
  9
$ATTMODE
 70
     1
  9
$TEXTSIZE
 40
0.2
  9
$TRACEWID
 40
0.05
  9
$TEXTSTYLE
  7
Standard
  9
$CLAYER
  8
0
  9
$CELTYPE
  6
ByLayer
  9
$CECOLOR
 62
   256
  9
$CELTSCALE
 40
1.0
  9
$DISPSILH
 70
     0
  9
$DIMSCALE
 40
1.0
  9
$DIMASZ
 40
0.18
  9
$DIMEXO
 40
0.0625
  9
$DIMDLI
 40
0.38
  9
$DIMRND
 40
0.0
  9
$DIMDLE
 40
0.0
  9
$DIMEXE
 40
0.18
  9
$DIMTP
 40
0.0
  9
$DIMTM
 40
0.0
  9
$DIMTXT
 40
0.18
  9
$DIMCEN
 40
0.09
  9
$DIMTSZ
 40
0.0
  9
$DIMTOL
 70
     0
  9
$DIMLIM
 70
     0
  9
$DIMTIH
 70
     1
  9
$DIMTOH
 70
     1
  9
$DIMSE1
 70
     0
  9
$DIMSE2
 70
     0
  9
$DIMTAD
 70
     0
  9
$DIMZIN
 70
     0
  9
$DIMBLK
  1

  9
$DIMASO
 70
     1
  9
$DIMSHO
 70
     1
  9
$DIMPOST
  1

  9
$DIMAPOST
  1

  9
$DIMALT
 70
     0
  9
$DIMALTD
 70
     2
  9
$DIMALTF
 40
25.4
  9
$DIMLFAC
 40
1.0
  9
$DIMTOFL
 70
     0
  9
$DIMTVP
 40
0.0
  9
$DIMTIX
 70
     0
  9
$DIMSOXD
 70
     0
  9
$DIMSAH
 70
     0
  9
$DIMBLK1
  1

  9
$DIMBLK2
  1

  9
$DIMSTYLE
  2
Standard
  9
$DIMCLRD
 70
     0
  9
$DIMCLRE
 70
     0
  9
$DIMCLRT
 70
     0
  9
$DIMTFAC
 40
1.0
  9
$DIMGAP
 40
0.09
  9
$DIMJUST
 70
     0
  9
$DIMSD1
 70
     0
  9
$DIMSD2
 70
     0
  9
$DIMTOLJ
 70
     1
  9
$DIMTZIN
 70
     0
  9
$DIMALTZ
 70
     0
  9
$DIMALTTZ
 70
     0
  9
$DIMUPT
 70
     0
  9
$DIMDEC
 70
     4
  9
$DIMTDEC
 70
     4
  9
$DIMALTU
 70
     2
  9
$DIMALTTD
 70
     2
  9
$DIMTXSTY
  7
Standard
  9
$DIMAUNIT
 70
     0
  9
$DIMADEC
 70
     0
  9
$DIMALTRND
 40
0.0
  9
$DIMAZIN
 70
     0
  9
$DIMDSEP
 70
    46
  9
$DIMATFIT
 70
     3
  9
$DIMFRAC
 70
     0
  9
$DIMLDRBLK
  1

  9
$DIMLUNIT
 70
     2
  9
$DIMLWD
 70
    -2
  9
$DIMLWE
 70
    -2
  9
$DIMTMOVE
 70
     0
  9
$DIMFXL
 40
1.0
  9
$DIMFXLON
 70
     0
  9
$DIMJOGANG
 40
0.7853981633974483
  9
$DIMTFILL
 70
     0
  9
$DIMTFILLCLR
 70
     0
  9
$DIMARCSYM
 70
     0
  9
$DIMLTYPE
  6

  9
$DIMLTEX1
  6

  9
$DIMLTEX2
  6

  9
$DIMTXTDIRECTION
 70
     0
  9
$LUNITS
 70
     2
  9
$LUPREC
 70
     4
  9
$SKETCHINC
 40
0.1
  9
$FILLETRAD
 40
0.5
  9
$AUNITS
 70
     0
  9
$AUPREC
 70
     0
  9
$MENU
  1
.
  9
$ELEVATION
 40
0.0
  9
$PELEVATION
 40
0.0
  9
$THICKNESS
 40
0.0
  9
$LIMCHECK
 70
     0
  9
$CHAMFERA
 40
0.5
  9
$CHAMFERB
 40
0.5
  9
$CHAMFERC
 40
1.0
  9
$CHAMFERD
 40
0.0
  9
$SKPOLY
 70
     0
  9
$TDCREATE
 40
2458132.999594896
  9
$TDUCREATE
 40
2458133.207928241
  9
$TDUPDATE
 40
2458132.999594896
  9
$TDUUPDATE
 40
2458133.207928241
  9
$TDINDWG
 40
0.0000000116
  9
$TDUSRTIMER
 40
0.0000000116
  9
$USRTIMER
 70
     1
  9
$ANGBASE
 50
0.0
  9
$ANGDIR
 70
     0
  9
$PDMODE
 70
     0
  9
$PDSIZE
 40
0.0
  9
$PLINEWID
 40
0.0
  9
$SPLFRAME
 70
     0
  9
$SPLINETYPE
 70
     6
  9
$SPLINESEGS
 70
     8
  9
$HANDSEED
  5
69
  9
$SURFTAB1
 70
     6
  9
$SURFTAB2
 70
     6
  9
$SURFTYPE
 70
     6
  9
$SURFU
 70
     6
  9
$SURFV
 70
     6
  9
$UCSBASE
  2

  9
$UCSNAME
  2

  9
$UCSORG
 10
0.0
 20
0.0
 30
0.0
  9
$UCSXDIR
 10
1.0
 20
0.0
 30
0.0
  9
$UCSYDIR
 10
0.0
 20
1.0
 30
0.0
  9
$UCSORTHOREF
  2

  9
$UCSORTHOVIEW
 70
     0
  9
$UCSORGTOP
 10
0.0
 20
0.0
 30
0.0
  9
$UCSORGBOTTOM
 10
0.0
 20
0.0
 30
0.0
  9
$UCSORGLEFT
 10
0.0
 20
0.0
 30
0.0
  9
$UCSORGRIGHT
 10
0.0
 20
0.0
 30
0.0
  9
$UCSORGFRONT
 10
0.0
 20
0.0
 30
0.0
  9
$UCSORGBACK
 10
0.0
 20
0.0
 30
0.0
  9
$PUCSBASE
  2

  9
$PUCSNAME
  2

  9
$PUCSORG
 10
0.0
 20
0.0
 30
0.0
  9
$PUCSXDIR
 10
1.0
 20
0.0
 30
0.0
  9
$PUCSYDIR
 10
0.0
 20
1.0
 30
0.0
  9
$PUCSORTHOREF
  2

  9
$PUCSORTHOVIEW
 70
     0
  9
$PUCSORGTOP
 10
0.0
 20
0.0
 30
0.0
  9
$PUCSORGBOTTOM
 10
0.0
 20
0.0
 30
0.0
  9
$PUCSORGLEFT
 10
0.0
 20
0.0
 30
0.0
  9
$PUCSORGRIGHT
 10
0.0
 20
0.0
 30
0.0
  9
$PUCSORGFRONT
 10
0.0
 20
0.0
 30
0.0
  9
$PUCSORGBACK
 10
0.0
 20
0.0
 30
0.0
  9
$USERI1
 70
     0
  9
$USERI2
 70
     0
  9
$USERI3
 70
     0
  9
$USERI4
 70
     0
  9
$USERI5
 70
     0
  9
$USERR1
 40
0.0
  9
$USERR2
 40
0.0
  9
$USERR3
 40
0.0
  9
$USERR4
 40
0.0
  9
$USERR5
 40
0.0
  9
$WORLDVIEW
 70
     1
  9
$SHADEDGE
 70
     3
  9
$SHADEDIF
 70
    70
  9
$TILEMODE
 70
     1
  9
$MAXACTVP
 70
    64
  9
$PINSBASE
 10
0.0
 20
0.0
 30
0.0
  9
$PLIMCHECK
 70
     0
  9
$PEXTMIN
 10
1.000000000000000E+20
 20
1.000000000000000E+20
 30
1.000000000000000E+20
  9
$PEXTMAX
 10
-1.000000000000000E+20
 20
-1.000000000000000E+20
 30
-1.000000000000000E+20
  9
$PLIMMIN
 10
0.0
 20
0.0
  9
$PLIMMAX
 10
12.0
 20
9.0
  9
$UNITMODE
 70
     0
  9
$VISRETAIN
 70
     1
  9
$PLINEGEN
 70
     0
  9
$PSLTSCALE
 70
     1
  9
$TREEDEPTH
 70
  3020
  9
$CMLSTYLE
  2
Standard
  9
$CMLJUST
 70
     0
  9
$CMLSCALE
 40
1.0
  9
$PROXYGRAPHICS
 70
     1
  9
$MEASUREMENT
 70
     0
  9
$CELWEIGHT
370
    -1
  9
$ENDCAPS
280
     0
  9
$JOINSTYLE
280
     0
  9
$LWDISPLAY
290
     1
  9
$INSUNITS
 70
     1
  9
$HYPERLINKBASE
  1

  9
$STYLESHEET
  1

  9
$XEDIT
290
     1
  9
$CEPSNTYPE
380
     0
  9
$PSTYLEMODE
290
     1
  9
$FINGERPRINTGUID
  2
{70085DF8-B609-6849-3C5E-03C4C983ED17}
  9
$VERSIONGUID
  2
{FAEB1C32-E019-11D5-929B-00C0DF256EC4}
  9
$EXTNAMES
290
     1
  9
$PSVPSCALE
 40
0.0
  9
$OLESTARTUP
290
     0
  9
$SORTENTS
280
   127
  9
$INDEXCTL
280
     0
  9
$HIDETEXT
280
     1
  9
$XCLIPFRAME
280
     2
  9
$HALOGAP
280
     0
  9
$OBSCOLOR
 70
   257
  9
$OBSLTYPE
280
     0
  9
$INTERSECTIONDISPLAY
280
     0
  9
$INTERSECTIONCOLOR
 70
   257
  9
$DIMASSOC
280
     2
  9
$PROJECTNAME
  1

  9
$CAMERADISPLAY
290
     0
  9
$LENSLENGTH
 40
50.0
  9
$CAMERAHEIGHT
 40
0.0
  9
$STEPSPERSEC
 40
2.0
  9
$STEPSIZE
 40
6.0
  9
$3DDWFPREC
 40
2.0
  9
$PSOLWIDTH
 40
0.25
  9
$PSOLHEIGHT
 40
4.0
  9
$LOFTANG1
 40
1.570796326794897
  9
$LOFTANG2
 40
1.570796326794897
  9
$LOFTMAG1
 40
0.0
  9
$LOFTMAG2
 40
0.0
  9
$LOFTPARAM
 70
     7
  9
$LOFTNORMALS
280
     1
  9
$LATITUDE
 40
37.795
  9
$LONGITUDE
 40
-122.394
  9
$NORTHDIRECTION
 40
0.0
  9
$TIMEZONE
 70
 -8000
  9
$LIGHTGLYPHDISPLAY
280
     1
  9
$TILEMODELIGHTSYNCH
280
     1
  9
$CMATERIAL
347
3C
  9
$SOLIDHIST
280
     1
  9
$SHOWHIST
280
     1
  9
$DWFFRAME
280
     2
  9
$DGNFRAME
280
     2
  9
$REALWORLDSCALE
290
     1
  9
$INTERFERECOLOR
 62
   256
  9
$CSHADOW
280
     0
  9
$SHADOWPLANELOCATION
 40
0.0
  0
ENDSEC
  0
SECTION
  2
CLASSES
  0
CLASS
  1
ACDBDICTIONARYWDFLT
  2
AcDbDictionaryWithDefault
  3
ObjectDBX Classes
 90
        0
 91
        4
280
     0
281
     0
  0
CLASS
  1
VISUALSTYLE
  2
AcDbVisualStyle
  3
ObjectDBX Classes
 90
     4095
 91
        4
280
     0
281
     0
  0
CLASS
  1
MATERIAL
  2
AcDbMaterial
  3
ObjectDBX Classes
 90
     1153
 91
        4
280
     0
281
     0
  0
CLASS
  1
SUN
  2
AcDbSun
  3
SCENEOE
 90
     1024
 91
        4
280
     0
281
     0
  0
ENDSEC
  0
SECTION
  2
TABLES
  0
TABLE
  2
VPORT
  5
8
330
0
100
AcDbSymbolTable
 70
     1
  0
VPORT
  5
29
330
8
100
AcDbSymbolTableRecord
100
AcDbViewportTableRecord
  2
*Active
 70
     0
 10
0.0
 20
0.0
 11
1.0
 21
1.0
 12
0.0
 22
0.0
 13
0.0
 23
0.0
 14
0.5
 24
0.5
 15
0.5
 25
0.5
 16
0.0
 26
0.0
 36
1.0
 17
139.699999965075
 27
-107.9499999730125
 37
0.0
 40
215.899999946025
 41
1.294117647058823
 42
50.0
 43
0.0
 44
0.0
 50
0.0
 51
0.0
 71
     0
 72
   100
 73
     1
 74
     3
 75
     0
 76
     0
 77
     0
 78
     0
281
     0
 65
     1
110
0.0
120
0.0
130
0.0
111
1.0
121
0.0
131
0.0
112
0.0
122
1.0
132
0.0
 79
     0
146
0.0
 60
     3
 61
     5
292
     1
282
     1
141
0.0
142
0.0
 63
   250
361
3F
  0
ENDTAB
  0
TABLE
  2
LTYPE
  5
5
330
0
100
AcDbSymbolTable
 70
     1
  0
LTYPE
  5
14
330
5
100
AcDbSymbolTableRecord
100
AcDbLinetypeTableRecord
  2
ByBlock
 70
     0
  3

 72
    65
 73
     0
 40
0.0
  0
LTYPE
  5
15
330
5
100
AcDbSymbolTableRecord
100
AcDbLinetypeTableRecord
  2
ByLayer
 70
     0
  3

 72
    65
 73
     0
 40
0.0
  0
LTYPE
  5
16
330
5
100
AcDbSymbolTableRecord
100
AcDbLinetypeTableRecord
  2
Continuous
 70
     0
  3
Solid line
 72
    65
 73
     0
 40
0.0
  0
ENDTAB
  0
TABLE
  2
LAYER
  5
2
330
0
100
AcDbSymbolTable
 70
     2
  0
LAYER
  5
10
330
2
100
AcDbSymbolTableRecord
100
AcDbLayerTableRecord
  2
0
 70
     0
 62
     7
  6
Continuous
370
    -3
390
F
347
3E
  0
LAYER
  5
40
330
2
100
AcDbSymbolTableRecord
100
AcDbLayerTableRecord
  2
Layer 1
 70
     0
 62
     7
  6
Continuous
370
    -3
390
F
347
3E
  0
ENDTAB
  0
TABLE
  2
STYLE
  5
3
330
0
100
AcDbSymbolTable
 70
     1
  0
STYLE
  5
11
330
3
100
AcDbSymbolTableRecord
100
AcDbTextStyleTableRecord
  2
Standard
 70
     0
 40
0.0
 41
1.0
 50
0.0
 71
     0
 42
0.2
  3
txt
  4

  0
ENDTAB
  0
TABLE
  2
VIEW
  5
6
330
0
100
AcDbSymbolTable
 70
     0
  0
ENDTAB
  0
TABLE
  2
UCS
  5
7
330
0
100
AcDbSymbolTable
 70
     0
  0
ENDTAB
  0
TABLE
  2
APPID
  5
9
330
0
100
AcDbSymbolTable
 70
     1
  0
APPID
  5
12
330
9
100
AcDbSymbolTableRecord
100
AcDbRegAppTableRecord
  2
ACAD
 70
     0
  0
ENDTAB
  0
TABLE
  2
DIMSTYLE
  5
A
330
0
100
AcDbSymbolTable
 70
     1
100
AcDbDimStyleTable
  0
DIMSTYLE
105
27
330
A
100
AcDbSymbolTableRecord
100
AcDbDimStyleTableRecord
  2
Standard
 70
     0
178
     0
340
11
  0
ENDTAB
  0
TABLE
  2
BLOCK_RECORD
  5
1
330
0
100
AcDbSymbolTable
 70
     1
  0
BLOCK_RECORD
  5
1F
330
1
100
AcDbSymbolTableRecord
100
AcDbBlockTableRecord
  2
*Model_Space
340
22
 70
     0
280
     1
281
     0
  0
BLOCK_RECORD
  5
1B
330
1
100
AcDbSymbolTableRecord
100
AcDbBlockTableRecord
  2
*Paper_Space
340
1E
 70
     0
280
     1
281
     0
  0
BLOCK_RECORD
  5
23
330
1
100
AcDbSymbolTableRecord
100
AcDbBlockTableRecord
  2
*Paper_Space0
340
26
 70
     0
280
     1
281
     0
  0
ENDTAB
  0
ENDSEC
  0
SECTION
  2
BLOCKS
  0
BLOCK
  5
20
330
1F
100
AcDbEntity
  8
0
100
AcDbBlockBegin
  2
*Model_Space
 70
     0
 10
0.0
 20
0.0
 30
0.0
  3
*Model_Space
  1

  0
ENDBLK
  5
21
330
1F
100
AcDbEntity
  8
0
100
AcDbBlockEnd
  0
BLOCK
  5
1C
330
1B
100
AcDbEntity
 67
     1
  8
0
100
AcDbBlockBegin
  2
*Paper_Space
 70
     0
 10
0.0
 20
0.0
 30
0.0
  3
*Paper_Space
  1

  0
ENDBLK
  5
1D
330
1B
100
AcDbEntity
 67
     1
  8
0
100
AcDbBlockEnd
  0
BLOCK
  5
24
330
23
100
AcDbEntity
  8
0
100
AcDbBlockBegin
  2
*Paper_Space0
 70
     0
 10
0.0
 20
0.0
 30
0.0
  3
*Paper_Space0
  1

  0
ENDBLK
  5
25
330
23
100
AcDbEntity
  8
0
100
AcDbBlockEnd
  0
ENDSEC
  0
SECTION
  2
ENTITIES
  0
SPLINE
  5
41
330
1F
100
AcDbEntity
  8
Layer 1
370
     0
100
AcDbSpline
210
0.0
220
0.0
230
1.0
 70
    11
 71
     3
 72
   509
 73
   505
 74
     0
 42
0.0000000001
 43
0.0000000001
 12
1.0
 22
0.0
 32
0.0
 13
1.0
 23
0.0
 33
0.0
 40
0.0
 40
0.0
 40
0.0
 40
0.0
 40
1.0
 40
1.0
 40
1.0
 40
2.0
 40
2.0
 40
2.0
 40
3.0
 40
3.0
 40
3.0
 40
4.0
 40
4.0
 40
4.0
 40
5.0
 40
5.0
 40
5.0
 40
6.0
 40
6.0
 40
6.0
 40
7.0
 40
7.0
 40
7.0
 40
8.0
 40
8.0
 40
8.0
 40
9.0
 40
9.0
 40
9.0
 40
10.0
 40
10.0
 40
10.0
 40
11.0
 40
11.0
 40
11.0
 40
12.0
 40
12.0
 40
12.0
 40
13.0
 40
13.0
 40
13.0
 40
14.0
 40
14.0
 40
14.0
 40
15.0
 40
15.0
 40
15.0
 40
16.0
 40
16.0
 40
16.0
 40
17.0
 40
17.0
 40
17.0
 40
18.0
 40
18.0
 40
18.0
 40
19.0
 40
19.0
 40
19.0
 40
20.0
 40
20.0
 40
20.0
 40
21.0
 40
21.0
 40
21.0
 40
22.0
 40
22.0
 40
22.0
 40
23.0
 40
23.0
 40
23.0
 40
24.0
 40
24.0
 40
24.0
 40
25.0
 40
25.0
 40
25.0
 40
26.0
 40
26.0
 40
26.0
 40
27.0
 40
27.0
 40
27.0
 40
28.0
 40
28.0
 40
28.0
 40
29.0
 40
29.0
 40
29.0
 40
30.0
 40
30.0
 40
30.0
 40
31.0
 40
31.0
 40
31.0
 40
32.0
 40
32.0
 40
32.0
 40
33.0
 40
33.0
 40
33.0
 40
34.0
 40
34.0
 40
34.0
 40
35.0
 40
35.0
 40
35.0
 40
36.0
 40
36.0
 40
36.0
 40
37.0
 40
37.0
 40
37.0
 40
38.0
 40
38.0
 40
38.0
 40
39.0
 40
39.0
 40
39.0
 40
40.0
 40
40.0
 40
40.0
 40
41.0
 40
41.0
 40
41.0
 40
42.0
 40
42.0
 40
42.0
 40
43.0
 40
43.0
 40
43.0
 40
44.0
 40
44.0
 40
44.0
 40
45.0
 40
45.0
 40
45.0
 40
46.0
 40
46.0
 40
46.0
 40
47.0
 40
47.0
 40
47.0
 40
48.0
 40
48.0
 40
48.0
 40
49.0
 40
49.0
 40
49.0
 40
50.0
 40
50.0
 40
50.0
 40
51.0
 40
51.0
 40
51.0
 40
52.0
 40
52.0
 40
52.0
 40
53.0
 40
53.0
 40
53.0
 40
54.0
 40
54.0
 40
54.0
 40
55.0
 40
55.0
 40
55.0
 40
56.0
 40
56.0
 40
56.0
 40
57.0
 40
57.0
 40
57.0
 40
58.0
 40
58.0
 40
58.0
 40
59.0
 40
59.0
 40
59.0
 40
60.0
 40
60.0
 40
60.0
 40
61.0
 40
61.0
 40
61.0
 40
62.0
 40
62.0
 40
62.0
 40
63.0
 40
63.0
 40
63.0
 40
64.0
 40
64.0
 40
64.0
 40
65.0
 40
65.0
 40
65.0
 40
66.0
 40
66.0
 40
66.0
 40
67.0
 40
67.0
 40
67.0
 40
68.0
 40
68.0
 40
68.0
 40
69.0
 40
69.0
 40
69.0
 40
70.0
 40
70.0
 40
70.0
 40
71.0
 40
71.0
 40
71.0
 40
72.0
 40
72.0
 40
72.0
 40
73.0
 40
73.0
 40
73.0
 40
74.0
 40
74.0
 40
74.0
 40
75.0
 40
75.0
 40
75.0
 40
76.0
 40
76.0
 40
76.0
 40
77.0
 40
77.0
 40
77.0
 40
78.0
 40
78.0
 40
78.0
 40
79.0
 40
79.0
 40
79.0
 40
80.0
 40
80.0
 40
80.0
 40
81.0
 40
81.0
 40
81.0
 40
82.0
 40
82.0
 40
82.0
 40
83.0
 40
83.0
 40
83.0
 40
84.0
 40
84.0
 40
84.0
 40
85.0
 40
85.0
 40
85.0
 40
86.0
 40
86.0
 40
86.0
 40
87.0
 40
87.0
 40
87.0
 40
88.0
 40
88.0
 40
88.0
 40
89.0
 40
89.0
 40
89.0
 40
90.0
 40
90.0
 40
90.0
 40
91.0
 40
91.0
 40
91.0
 40
92.0
 40
92.0
 40
92.0
 40
93.0
 40
93.0
 40
93.0
 40
94.0
 40
94.0
 40
94.0
 40
95.0
 40
95.0
 40
95.0
 40
96.0
 40
96.0
 40
96.0
 40
97.0
 40
97.0
 40
97.0
 40
98.0
 40
98.0
 40
98.0
 40
99.0
 40
99.0
 40
99.0
 40
100.0
 40
100.0
 40
100.0
 40
101.0
 40
101.0
 40
101.0
 40
102.0
 40
102.0
 40
102.0
 40
103.0
 40
103.0
 40
103.0
 40
104.0
 40
104.0
 40
104.0
 40
105.0
 40
105.0
 40
105.0
 40
106.0
 40
106.0
 40
106.0
 40
107.0
 40
107.0
 40
107.0
 40
108.0
 40
108.0
 40
108.0
 40
109.0
 40
109.0
 40
109.0
 40
110.0
 40
110.0
 40
110.0
 40
111.0
 40
111.0
 40
111.0
 40
112.0
 40
112.0
 40
112.0
 40
113.0
 40
113.0
 40
113.0
 40
114.0
 40
114.0
 40
114.0
 40
115.0
 40
115.0
 40
115.0
 40
116.0
 40
116.0
 40
116.0
 40
117.0
 40
117.0
 40
117.0
 40
118.0
 40
118.0
 40
118.0
 40
119.0
 40
119.0
 40
119.0
 40
120.0
 40
120.0
 40
120.0
 40
121.0
 40
121.0
 40
121.0
 40
122.0
 40
122.0
 40
122.0
 40
123.0
 40
123.0
 40
123.0
 40
124.0
 40
124.0
 40
124.0
 40
125.0
 40
125.0
 40
125.0
 40
126.0
 40
126.0
 40
126.0
 40
127.0
 40
127.0
 40
127.0
 40
128.0
 40
128.0
 40
128.0
 40
129.0
 40
129.0
 40
129.0
 40
130.0
 40
130.0
 40
130.0
 40
131.0
 40
131.0
 40
131.0
 40
132.0
 40
132.0
 40
132.0
 40
133.0
 40
133.0
 40
133.0
 40
134.0
 40
134.0
 40
134.0
 40
135.0
 40
135.0
 40
135.0
 40
136.0
 40
136.0
 40
136.0
 40
137.0
 40
137.0
 40
137.0
 40
138.0
 40
138.0
 40
138.0
 40
139.0
 40
139.0
 40
139.0
 40
140.0
 40
140.0
 40
140.0
 40
141.0
 40
141.0
 40
141.0
 40
142.0
 40
142.0
 40
142.0
 40
143.0
 40
143.0
 40
143.0
 40
144.0
 40
144.0
 40
144.0
 40
145.0
 40
145.0
 40
145.0
 40
146.0
 40
146.0
 40
146.0
 40
147.0
 40
147.0
 40
147.0
 40
148.0
 40
148.0
 40
148.0
 40
149.0
 40
149.0
 40
149.0
 40
150.0
 40
150.0
 40
150.0
 40
151.0
 40
151.0
 40
151.0
 40
152.0
 40
152.0
 40
152.0
 40
153.0
 40
153.0
 40
153.0
 40
154.0
 40
154.0
 40
154.0
 40
155.0
 40
155.0
 40
155.0
 40
156.0
 40
156.0
 40
156.0
 40
157.0
 40
157.0
 40
157.0
 40
158.0
 40
158.0
 40
158.0
 40
159.0
 40
159.0
 40
159.0
 40
160.0
 40
160.0
 40
160.0
 40
161.0
 40
161.0
 40
161.0
 40
162.0
 40
162.0
 40
162.0
 40
163.0
 40
163.0
 40
163.0
 40
164.0
 40
164.0
 40
164.0
 40
165.0
 40
165.0
 40
165.0
 40
166.0
 40
166.0
 40
166.0
 40
167.0
 40
167.0
 40
167.0
 40
168.0
 40
168.0
 40
168.0
 40
168.0
 10
190.2922052421246
 20
-153.3737643594021
 30
0.0
 10
190.1279765944048
 20
-152.0620273054273
 30
0.0
 10
189.0899970105294
 20
-151.0608519160843
 30
0.0
 10
187.8233129839112
 20
-150.8162827888853
 30
0.0
 10
187.3816076144427
 20
-150.7309990919076
 30
0.0
 10
186.9764143606526
 20
-150.5133148225724
 30
0.0
 10
186.6582964072331
 20
-150.1952300695593
 30
0.0
 10
186.6582964072331
 20
-150.1952300695593
 30
0.0
 10
186.3707316036789
 20
-149.9076952777315
 30
0.0
 10
186.3707316036789
 20
-149.9076952777315
 30
0.0
 10
186.0605786220712
 20
-149.5975746652701
 30
0.0
 10
185.8453085326992
 20
-149.2048850497041
 30
0.0
 10
185.7563641729696
 20
-148.7753986504492
 30
0.0
 10
185.4999684812638
 20
-147.5373385559611
 30
0.0
 10
184.4545370597726
 20
-146.4400655854639
 30
0.0
 10
183.201890936619
 20
-146.2829970544854
 30
0.0
 10
183.0677839960046
 20
-146.2661814672514
 30
0.0
 10
182.935108318353
 20
-146.2582877817108
 30
0.0
 10
182.8043772699391
 20
-146.2588021091673
 30
0.0
 10
181.1740991986273
 20
-146.2652160160706
 30
0.0
 10
179.6142548717457
 20
-145.5996698414691
 30
0.0
 10
178.4826209958651
 20
-144.4261058257661
 30
0.0
 10
178.4826209958651
 20
-144.4261058257661
 30
0.0
 10
155.8550036779345
 20
-120.9600732055766
 30
0.0
 10
155.8550036779345
 20
-120.9600732055766
 30
0.0
 10
154.5969354016578
 20
-119.6553900480583
 30
0.0
 10
153.8939505350456
 20
-117.9136010586708
 30
0.0
 10
153.8939505350456
 20
-116.1011623895624
 30
0.0
 10
153.8939505350456
 20
-116.1011623895624
 30
0.0
 10
153.8939505350456
 20
-113.9403320027572
 30
0.0
 10
153.8939505350456
 20
-113.9403320027572
 30
0.0
 10
153.8939505350488
 20
-113.3880809618549
 30
0.0
 10
154.3416384587319
 20
-112.9403930381673
 30
0.0
 10
154.8938894996394
 20
-112.9403930381673
 30
0.0
 10
154.8938894996394
 20
-112.9403930381673
 30
0.0
 10
155.3939451093234
 20
-112.9403930381673
 30
0.0
 10
155.3939451093234
 20
-112.9403930381673
 30
0.0
 10
155.9461961502296
 20
-112.9403930381673
 30
0.0
 10
156.3938840739171
 20
-113.3880809618549
 30
0.0
 10
156.3938840739171
 20
-113.9403320027611
 30
0.0
 10
156.3938840739171
 20
-113.9403320027611
 30
0.0
 10
156.3938840739171
 20
-114.2698553859252
 30
0.0
 10
156.3938840739171
 20
-114.2698553859252
 30
0.0
 10
156.3938840739171
 20
-114.8221539936737
 30
0.0
 10
156.8416105581483
 20
-115.2698804779087
 30
0.0
 10
157.3939091658955
 20
-115.2698804779087
 30
0.0
 10
157.3939091658955
 20
-115.2698804779087
 30
0.0
 10
157.8938786481949
 20
-115.2698804779087
 30
0.0
 10
157.8938786481949
 20
-115.2698804779087
 30
0.0
 10
158.4461296891011
 20
-115.2698804779087
 30
0.0
 10
158.8938176127887
 20
-114.8221925542173
 30
0.0
 10
158.8938176127887
 20
-114.2699415133149
 30
0.0
 10
158.8938176127887
 20
-114.2699415133149
 30
0.0
 10
158.8938176127887
 20
-112.9403930381673
 30
0.0
 10
158.8938176127887
 20
-112.9403930381673
 30
0.0
 10
158.8938176127887
 20
-112.9403930381673
 30
0.0
 10
158.8938176127887
 20
-108.7082654893121
 30
0.0
 10
158.8938176127887
 20
-108.7082654893121
 30
0.0
 10
158.8938176127887
 20
-108.7082654893121
 30
0.0
 10
158.8938176127887
 20
-107.3813869631685
 30
0.0
 10
158.8938176127887
 20
-107.3813869631685
 30
0.0
 10
158.8938176127887
 20
-106.8291359222617
 30
0.0
 10
158.4461296891011
 20
-106.3814479985747
 30
0.0
 10
157.8938786481949
 20
-106.3814479985747
 30
0.0
 10
157.8938786481949
 20
-106.3814479985747
 30
0.0
 10
157.3938230385109
 20
-106.3814479985747
 30
0.0
 10
157.3938230385109
 20
-106.3814479985747
 30
0.0
 10
156.8415719976034
 20
-106.3814479985747
 30
0.0
 10
156.3938840739171
 20
-106.8291359222617
 30
0.0
 10
156.3938840739171
 20
-107.3813869631685
 30
0.0
 10
156.3938840739171
 20
-107.3813869631685
 30
0.0
 10
156.3938840739171
 20
-107.7083265247187
 30
0.0
 10
156.3938840739171
 20
-107.7083265247187
 30
0.0
 10
156.3938840739171
 20
-108.2605775656255
 30
0.0
 10
155.9461961502296
 20
-108.7082654893121
 30
0.0
 10
155.3939451093234
 20
-108.7082654893121
 30
0.0
 10
155.3939451093234
 20
-108.7082654893121
 30
0.0
 10
154.8938894996394
 20
-108.7082654893121
 30
0.0
 10
154.8938894996394
 20
-108.7082654893121
 30
0.0
 10
154.3416384587319
 20
-108.7082654893121
 30
0.0
 10
153.8939505350456
 20
-108.2605775656255
 30
0.0
 10
153.8939505350456
 20
-107.7083265247187
 30
0.0
 10
153.8939505350456
 20
-107.7083265247187
 30
0.0
 10
153.8939505350456
 20
-100.5994796081551
 30
0.0
 10
153.8939505350456
 20
-100.5994796081551
 30
0.0
 10
153.8939505350456
 20
-98.78731943408312
 30
0.0
 10
154.5967199879657
 20
-97.04577576077757
 30
0.0
 10
155.8544449848187
 20
-95.74114848496427
 30
0.0
 10
155.8544449848187
 20
-95.74114848496427
 30
0.0
 10
178.5269906343246
 20
-72.2231127136851
 30
0.0
 10
178.5269906343246
 20
-72.2231127136851
 30
0.0
 10
179.6511595480429
 20
-71.05702200933625
 30
0.0
 10
181.1983901205927
 20
-70.3909807004977
 30
0.0
 10
182.8181191836263
 20
-70.3899610461015
 30
0.0
 10
182.9484842999904
 20
-70.38987897844774
 30
0.0
 10
183.0807891322303
 20
-70.38139873758543
 30
0.0
 10
183.2145360006033
 20
-70.36399892361185
 30
0.0
 10
184.4601483233706
 20
-70.20195084756408
 30
0.0
 10
185.499562962901
 20
-69.1062019584725
 30
0.0
 10
185.7558188121235
 20
-67.87342557243149
 30
0.0
 10
185.8451563779679
 20
-67.44364712289739
 30
0.0
 10
186.0600490778481
 20
-67.05048725589734
 30
0.0
 10
186.3704838150793
 20
-66.74013102465092
 30
0.0
 10
186.3704838150793
 20
-66.74013102465092
 30
0.0
 10
186.6572247064938
 20
-66.45346264727357
 30
0.0
 10
186.6572247064938
 20
-66.45346264727357
 30
0.0
 10
186.975686583103
 20
-66.13508130663453
 30
0.0
 10
187.3814675561478
 20
-65.91774760833883
 30
0.0
 10
187.8235912541585
 20
-65.8322415817814
 30
0.0
 10
189.085728275506
 20
-65.5881462705602
 30
0.0
 10
190.1211323927724
 20
-64.5932250482756
 30
0.0
 10
190.2904061749768
 20
-63.28696181263109
 30
0.0
 10
190.3116709013937
 20
-63.12286475065176
 30
0.0
 10
190.3195177071952
 20
-62.96094428054175
 30
0.0
 10
190.3149075742053
 20
-62.80211864159736
 30
0.0
 10
190.2690095944301
 20
-61.22086795344686
 30
0.0
 10
190.9518166788129
 20
-59.70519942519284
 30
0.0
 10
192.0702256923381
 20
-58.58644045125033
 30
0.0
 10
192.0702256923381
 20
-58.58644045125033
 30
0.0
 10
194.8520239225384
 20
-55.80377177093508
 30
0.0
 10
194.8520239225384
 20
-55.80377177093508
 30
0.0
 10
195.6329600712313
 20
-55.02259126017677
 30
0.0
 10
195.6327508488633
 20
-53.75624207093597
 30
0.0
 10
194.8515566142667
 20
-52.97531965061433
 30
0.0
 10
194.8515566142667
 20
-52.97531965061433
 30
0.0
 10
192.7298731791824
 20
-50.85437444915299
 30
0.0
 10
192.7298731791824
 20
-50.85437444915299
 30
0.0
 10
191.9486986130933
 20
-50.07347169049891
 30
0.0
 10
190.6823882569885
 20
-50.07368062494363
 30
0.0
 10
189.9014714229945
 20
-50.85484112033629
 30
0.0
 10
189.9014714229945
 20
-50.85484112033629
 30
0.0
 10
187.1225829718362
 20
-53.63459663929737
 30
0.0
 10
187.1225829718362
 20
-53.63459663929737
 30
0.0
 10
186.00329117695
 20
-54.75423767521531
 30
0.0
 10
184.4863631660672
 20
-55.43701808652866
 30
0.0
 10
182.9038612911961
 20
-55.39121429364758
 30
0.0
 10
182.7453104039208
 20
-55.38662521093174
 30
0.0
 10
182.5836818792736
 20
-55.39444803283636
 30
0.0
 10
182.4198919158138
 20
-55.41563943522122
 30
0.0
 10
181.1134316219702
 20
-55.58467131728352
 30
0.0
 10
180.1182831567761
 20
-56.62014688584682
 30
0.0
 10
179.8740377001334
 20
-57.88241624460947
 30
0.0
 10
179.788449409305
 20
-58.32473962889714
 30
0.0
 10
179.5709832504675
 20
-58.73069307193495
 30
0.0
 10
179.2523602223095
 20
-59.04921261252719
 30
0.0
 10
179.2523602223095
 20
-59.04921261252719
 30
0.0
 10
178.9749747208013
 20
-59.32650802026729
 30
0.0
 10
178.9749747208013
 20
-59.32650802026729
 30
0.0
 10
178.6565804684679
 20
-59.64479885933663
 30
0.0
 10
178.2509268654063
 20
-59.86216682334074
 30
0.0
 10
177.8089076009174
 20
-59.94762399373882
 30
0.0
 10
176.5460685365902
 20
-60.19177320119881
 30
0.0
 10
175.5102916740281
 20
-61.18767893202322
 30
0.0
 10
175.3417809656863
 20
-62.49479131325073
 30
0.0
 10
175.320640520662
 20
-62.65877458593635
 30
0.0
 10
175.3128878146202
 20
-62.82058465732673
 30
0.0
 10
175.3175674422686
 20
-62.97930369563271
 30
0.0
 10
175.3642310667241
 20
-64.56199491864203
 30
0.0
 10
174.6816944001398
 20
-66.07940213216119
 30
0.0
 10
173.5622505389394
 20
-67.19919427487034
 30
0.0
 10
173.5622505389394
 20
-67.19919427487034
 30
0.0
 10
156.9551991344692
 20
-83.81141246717779
 30
0.0
 10
156.9551991344692
 20
-83.81141246717779
 30
0.0
 10
156.1040365783812
 20
-84.66283983706508
 30
0.0
 10
154.8900661319867
 20
-84.97094128580116
 30
0.0
 10
153.7021613839094
 20
-84.77526662579305
 30
0.0
 10
153.3934363082141
 20
-84.72441265427696
 30
0.0
 10
153.0673147300736
 20
-84.72506427947648
 30
0.0
 10
152.7328130128764
 20
-84.78640080502218
 30
0.0
 10
151.6724230439534
 20
-84.98084117131678
 30
0.0
 10
150.8061692464968
 20
-85.81420662670676
 30
0.0
 10
150.5718866332486
 20
-86.86651152518844
 30
0.0
 10
150.5694834824484
 20
-86.87730552873688
 30
0.0
 10
150.5671450603982
 20
-86.8880912046617
 30
0.0
 10
150.5648710263386
 20
-86.8988682739772
 30
0.0
 10
150.3158034374893
 20
-88.07924578884285
 30
0.0
 10
149.5530052237182
 20
-89.08488874634206
 30
0.0
 10
148.4430336118024
 20
-89.5574231494972
 30
0.0
 10
148.4430336118024
 20
-89.5574231494972
 30
0.0
 10
147.6996807300081
 20
-89.87388152245131
 30
0.0
 10
147.6996807300081
 20
-89.87388152245131
 30
0.0
 10
142.6922908314852
 20
-92.00561531786055
 30
0.0
 10
137.0323883180679
 20
-92.0045489755162
 30
0.0
 10
132.0258020248823
 20
-89.87092851742946
 30
0.0
 10
132.0258020248823
 20
-89.87092851742946
 30
0.0
 10
131.3975052949525
 20
-89.60317187083882
 30
0.0
 10
131.3975052949525
 20
-89.60317187083882
 30
0.0
 10
130.2832956630727
 20
-89.12833725779934
 30
0.0
 10
129.5146307595686
 20
-88.11779063419218
 30
0.0
 10
129.274646253685
 20
-86.93063502078186
 30
0.0
 10
129.271453075022
 20
-86.91483900110872
 30
0.0
 10
129.2681197599659
 20
-86.89902227531684
 30
0.0
 10
129.2646451396165
 20
-86.88318565281203
 30
0.0
 10
129.0291118230166
 20
-85.80967204702482
 30
0.0
 10
128.1390186214882
 20
-84.9603631411999
 30
0.0
 10
127.0551211911434
 20
-84.77850120034564
 30
0.0
 10
126.7171784942917
 20
-84.72179941932234
 30
0.0
 10
126.3885632613191
 20
-84.72710896982399
 30
0.0
 10
126.078422224235
 20
-84.78473979704138
 30
0.0
 10
124.8804383232769
 20
-85.00735078671745
 30
0.0
 10
123.6476270023444
 20
-84.67862366624104
 30
0.0
 10
122.7860396658325
 20
-83.81700406268415
 30
0.0
 10
122.7860396658325
 20
-83.81700406268415
 30
0.0
 10
106.2017676346759
 20
-67.2321109390293
 30
0.0
 10
106.2017676346759
 20
-67.2321109390293
 30
0.0
 10
105.0764593858424
 20
-66.10676054662224
 30
0.0
 10
104.3939507967464
 20
-64.57977532753465
 30
0.0
 10
104.4459043932637
 20
-62.98916758695619
 30
0.0
 10
104.4510962002034
 20
-62.83021558260598
 30
0.0
 10
104.4438527059261
 20
-62.66817146229782
 30
0.0
 10
104.4232270509065
 20
-62.50397558300815
 30
0.0
 10
104.2585077345738
 20
-61.19268471917319
 30
0.0
 10
103.2206738673518
 20
-60.19208010649186
 30
0.0
 10
101.9543482659121
 20
-59.94749988856962
 30
0.0
 10
101.5125004134259
 20
-59.86216066465538
 30
0.0
 10
101.1071592706008
 20
-59.64445204304498
 30
0.0
 10
100.7889729967557
 20
-59.32622287559121
 30
0.0
 10
100.7889729967557
 20
-59.32622287559121
 30
0.0
 10
100.5112373013557
 20
-59.04844973958952
 30
0.0
 10
100.5112373013557
 20
-59.04844973958952
 30
0.0
 10
100.1931258071169
 20
-58.73029536182575
 30
0.0
 10
99.97547065781197
 20
-58.32504418639053
 30
0.0
 10
99.89017697974607
 20
-57.88329525391798
 30
0.0
 10
99.64566022544557
 20
-56.61690579070537
 30
0.0
 10
98.64503109230237
 20
-55.57901045916998
 30
0.0
 10
97.333694877145
 20
-55.4142535567842
 30
0.0
 10
97.1695314178788
 20
-55.39362798210342
 30
0.0
 10
97.00751971383119
 20
-55.38637738559033
 30
0.0
 10
96.84859892007566
 20
-55.39155610847467
 30
0.0
 10
95.2580193410345
 20
-55.44338803476652
 30
0.0
 10
93.73109612838499
 20
-54.76088371084121
 30
0.0
 10
92.6058040549278
 20
-53.63556255879076
 30
0.0
 10
92.6058040549278
 20
-53.63556255879076
 30
0.0
 10
89.86190668330653
 20
-50.89159428231135
 30
0.0
 10
89.86190668330653
 20
-50.89159428231135
 30
0.0
 10
89.08084180929733
 20
-50.11050922485499
 30
0.0
 10
87.81445975893747
 20
-50.11052307937275
 30
0.0
 10
87.03341197561771
 20
-50.89162522670424
 30
0.0
 10
87.03341197561771
 20
-50.89162522670424
 30
0.0
 10
84.91216239962743
 20
-53.01302245005476
 30
0.0
 10
84.91216239962743
 20
-53.01302245005476
 30
0.0
 10
84.13117110280314
 20
-53.79406810695652
 30
0.0
 10
84.13118060778663
 20
-55.06033859431854
 30
0.0
 10
84.9121836300194
 20
-55.84137252645417
 30
0.0
 10
84.9121836300194
 20
-55.84137252645417
 30
0.0
 10
87.69274646862972
 20
-58.62204541191935
 30
0.0
 10
87.69274646862972
 20
-58.62204541191935
 30
0.0
 10
88.80514501176427
 20
-59.73448798065817
 30
0.0
 10
89.48901988844705
 20
-61.23966632420378
 30
0.0
 10
89.44858668797173
 20
-62.81234688420858
 30
0.0
 10
89.44449809285688
 20
-62.97137594884693
 30
0.0
 10
89.45293279447522
 20
-63.13350868375037
 30
0.0
 10
89.47487091711893
 20
-63.29783791527271
 30
0.0
 10
89.64857429902335
 20
-64.59897674659948
 30
0.0
 10
90.68137202872391
 20
-65.58822082852049
 30
0.0
 10
91.93918377170252
 20
-65.83198402968979
 30
0.0
 10
92.38181400100012
 20
-65.91776551665102
 30
0.0
 10
92.78824212460383
 20
-66.13485676222795
 30
0.0
 10
93.10705115343347
 20
-66.45366828418094
 30
0.0
 10
93.10705115343347
 20
-66.45366828418094
 30
0.0
 10
93.39378254151241
 20
-66.74040191453662
 30
0.0
 10
93.39378254151241
 20
-66.74040191453662
 30
0.0
 10
93.7042630810078
 20
-67.05088488202867
 30
0.0
 10
93.91877874761292
 20
-67.44427109066874
 30
0.0
 10
94.00836921330597
 20
-67.8741215146122
 30
0.0
 10
94.26441820756723
 20
-69.10263135533283
 30
0.0
 10
95.29910490048962
 20
-70.19684067826724
 30
0.0
 10
96.53914937583718
 20
-70.36260843931515
 30
0.0
 10
96.67357269239602
 20
-70.3805779981984
 30
0.0
 10
96.80653066194729
 20
-70.38951138312815
 30
0.0
 10
96.93752538096908
 20
-70.3899452782188
 30
0.0
 10
98.54855660869632
 20
-70.39528151271557
 30
0.0
 10
100.0855916907601
 20
-71.062611297803
 30
0.0
 10
101.2039139666089
 20
-72.22226873837457
 30
0.0
 10
101.2039139666089
 20
-72.22226873837457
 30
0.0
 10
123.9326710145465
 20
-95.7911207542247
 30
0.0
 10
123.9326710145465
 20
-95.7911207542247
 30
0.0
 10
125.1908700460748
 20
-97.09582504219297
 30
0.0
 10
125.8939369786775
 20
-98.83770735886735
 30
0.0
 10
125.8939369786775
 20
-100.6502520016197
 30
0.0
 10
125.8939369786775
 20
-100.6502520016197
 30
0.0
 10
125.8939369786775
 20
-107.684296983711
 30
0.0
 10
125.8939369786775
 20
-107.684296983711
 30
0.0
 10
125.8939369786775
 20
-108.2365955899418
 30
0.0
 10
125.4462104960403
 20
-108.6843220731357
 30
0.0
 10
124.8939118898063
 20
-108.6843220738236
 30
0.0
 10
124.8939118898063
 20
-108.6843220738236
 30
0.0
 10
124.3939424022122
 20
-108.6843220744448
 30
0.0
 10
124.3939424022122
 20
-108.6843220744448
 30
0.0
 10
123.8416913627158
 20
-108.6843220751327
 30
0.0
 10
123.394003439806
 20
-108.2366341527795
 30
0.0
 10
123.394003439806
 20
-107.6843831132831
 30
0.0
 10
123.394003439806
 20
-107.6843831132831
 30
0.0
 10
123.394003439806
 20
-107.3548597279321
 30
0.0
 10
123.394003439806
 20
-107.3548597279321
 30
0.0
 10
123.394003439806
 20
-106.8025611201843
 30
0.0
 10
122.9462769555748
 20
-106.3548346359531
 30
0.0
 10
122.3939783478225
 20
-106.3548346359531
 30
0.0
 10
122.3939783478225
 20
-106.3548346359531
 30
0.0
 10
121.8940088655282
 20
-106.3548346359531
 30
0.0
 10
121.8940088655282
 20
-106.3548346359531
 30
0.0
 10
121.3417578246207
 20
-106.3548346359531
 30
0.0
 10
120.8940699009344
 20
-106.80252255964
 30
0.0
 10
120.8940699009344
 20
-107.3547736005469
 30
0.0
 10
120.8940699009344
 20
-107.3547736005469
 30
0.0
 10
120.8940699009344
 20
-108.6843220756897
 30
0.0
 10
120.8940699009344
 20
-108.6843220756897
 30
0.0
 10
120.8940699009344
 20
-108.6843220756897
 30
0.0
 10
120.8940699009344
 20
-112.9164496245448
 30
0.0
 10
120.8940699009344
 20
-112.9164496245448
 30
0.0
 10
120.8940699009344
 20
-112.9164496245448
 30
0.0
 10
120.8940699009344
 20
-114.2433281506888
 30
0.0
 10
120.8940699009344
 20
-114.2433281506888
 30
0.0
 10
120.8940699009344
 20
-114.7955791915963
 30
0.0
 10
121.3417578246207
 20
-115.2432671152826
 30
0.0
 10
121.8940088655282
 20
-115.2432671152826
 30
0.0
 10
121.8940088655282
 20
-115.2432671152826
 30
0.0
 10
122.3940644752122
 20
-115.2432671152826
 30
0.0
 10
122.3940644752122
 20
-115.2432671152826
 30
0.0
 10
122.9463155161184
 20
-115.2432671152826
 30
0.0
 10
123.394003439806
 20
-114.7955791915963
 30
0.0
 10
123.394003439806
 20
-114.2433281506888
 30
0.0
 10
123.394003439806
 20
-114.2433281506888
 30
0.0
 10
123.394003439806
 20
-113.9163885891386
 30
0.0
 10
123.394003439806
 20
-113.9163885891386
 30
0.0
 10
123.394003439806
 20
-113.3641375482324
 30
0.0
 10
123.8416913634923
 20
-112.9164496245448
 30
0.0
 10
124.3939424043998
 20
-112.9164496245448
 30
0.0
 10
124.3939424043998
 20
-112.9164496245448
 30
0.0
 10
124.8938257593095
 20
-112.9164496245448
 30
0.0
 10
124.8938257593095
 20
-112.9164496245448
 30
0.0
 10
125.4461719339015
 20
-112.9164496245448
 30
0.0
 10
125.8939369786775
 20
-113.3642146693209
 30
0.0
 10
125.8939369786775
 20
-113.9165608439128
 30
0.0
 10
125.8939369786775
 20
-113.9165608439128
 30
0.0
 10
125.8939369786775
 20
-116.057604505246
 30
0.0
 10
125.8939369786775
 20
-116.057604505246
 30
0.0
 10
125.8939369786775
 20
-117.8697735474223
 30
0.0
 10
125.191160686796
 20
-119.611325036617
 30
0.0
 10
123.9334247871939
 20
-120.9159541196409
 30
0.0
 10
123.9334247871939
 20
-120.9159541196409
 30
0.0
 10
101.2688027882053
 20
-144.4255995268962
 30
0.0
 10
101.2688027882053
 20
-144.4255995268962
 30
0.0
 10
100.1390421724452
 20
-145.5974819202011
 30
0.0
 10
98.582260192516
 20
-146.2624868462733
 30
0.0
 10
96.95448449540437
 20
-146.2587892074424
 30
0.0
 10
96.82436500609595
 20
-146.2584936293258
 30
0.0
 10
96.69231620441307
 20
-146.2665350987559
 30
0.0
 10
96.5588411442126
 20
-146.2834232195167
 30
0.0
 10
95.30799164727735
 20
-146.4416887211375
 30
0.0
 10
94.26408384696258
 20
-147.5384381779958
 30
0.0
 10
94.00780387079244
 20
-148.7751057570102
 30
0.0
 10
93.9188115349
 20
-149.2045342992795
 30
0.0
 10
93.70370714238835
 20
-149.5972231049674
 30
0.0
 10
93.39363259322603
 20
-149.9073557906484
 30
0.0
 10
93.39363259322603
 20
-149.9073557906484
 30
0.0
 10
93.1060202643598
 20
-150.1950220445503
 30
0.0
 10
93.1060202643598
 20
-150.1950220445503
 30
0.0
 10
92.78778650252956
 20
-150.5133154726918
 30
0.0
 10
92.38235304422737
 20
-150.7309882088087
 30
0.0
 10
91.94043370557817
 20
-150.8163739903972
 30
0.0
 10
90.67480236287501
 20
-151.0609139142144
 30
0.0
 10
89.63743873787608
 20
-152.0606837948703
 30
0.0
 10
89.47209017689019
 20
-153.3711824644562
 30
0.0
 10
89.4513833142681
 20
-153.5352982920012
 30
0.0
 10
89.44405209907563
 20
-153.6972561212883
 30
0.0
 10
89.4491488603335
 20
-153.8561214839026
 30
0.0
 10
89.50012733007675
 20
-155.4451135281817
 30
0.0
 10
88.81782946841852
 20
-156.9702136295259
 30
0.0
 10
87.69383232471844
 20
-158.0945467394656
 30
0.0
 10
87.69383232471844
 20
-158.0945467394656
 30
0.0
 10
84.91171841814314
 20
-160.8774922285361
 30
0.0
 10
84.91171841814314
 20
-160.8774922285361
 30
0.0
 10
84.13079220460757
 20
-161.6586518633456
 30
0.0
 10
84.13097495178293
 20
-162.9249706487377
 30
0.0
 10
84.91212659689133
 20
-163.705904854278
 30
0.0
 10
84.91212659689133
 20
-163.705904854278
 30
0.0
 10
87.0339084260186
 20
-165.8270960691216
 30
0.0
 10
87.0339084260186
 20
-165.8270960691216
 30
0.0
 10
87.81507121787823
 20
-166.6080414183086
 30
0.0
 10
89.08141200093604
 20
-166.6078588876752
 30
0.0
 10
89.86234962907702
 20
-165.8266883769988
 30
0.0
 10
89.86234962907702
 20
-165.8266883769988
 30
0.0
 10
92.67395049243326
 20
-163.0142490692952
 30
0.0
 10
92.67395049243326
 20
-163.0142490692952
 30
0.0
 10
93.78730073631056
 20
-161.9005668144905
 30
0.0
 10
95.29421678511983
 20
-161.216445726711
 30
0.0
 10
96.86842673761774
 20
-161.2576762454304
 30
0.0
 10
97.02750962473864
 20
-161.2618428243205
 30
0.0
 10
97.18969462561046
 20
-161.2534814726139
 30
0.0
 10
97.35406892077958
 20
-161.23161280803
 30
0.0
 10
98.65593624277547
 20
-161.0584099373102
 30
0.0
 10
99.64589947889999
 20
-160.0251390638604
 30
0.0
 10
99.8897313493468
 20
-158.7666822986447
 30
0.0
 10
99.97549418951189
 20
-158.324046041913
 30
0.0
 10
100.1926525207186
 20
-157.9176362861428
 30
0.0
 10
100.51148405034
 20
-157.5988439144527
 30
0.0
 10
100.51148405034
 20
-157.5988439144527
 30
0.0
 10
100.7880350408695
 20
-157.322326889081
 30
0.0
 10
100.7880350408695
 20
-157.322326889081
 30
0.0
 10
101.1067645216311
 20
-157.0036365537178
 30
0.0
 10
101.5130341976466
 20
-156.7865051524836
 30
0.0
 10
101.9555344886049
 20
-156.7007992351796
 30
0.0
 10
103.2143516973248
 20
-156.4569845173237
 30
0.0
 10
104.2478095440343
 20
-155.4665022023373
 30
0.0
 10
104.4205691705909
 20
-154.1642000536731
 30
0.0
 10
104.4424181471681
 20
-153.9994973988121
 30
0.0
 10
104.450710967558
 20
-153.836994348817
 30
0.0
 10
104.4464301711472
 20
-153.6776087668092
 30
0.0
 10
104.4041455879954
 20
-152.1032398295864
 30
0.0
 10
105.0882735179705
 20
-150.5958716561525
 30
0.0
 10
106.2017460678213
 20
-149.4820474253237
 30
0.0
 10
106.2017460678213
 20
-149.4820474253237
 30
0.0
 10
121.4694019219801
 20
-134.2095694100203
 30
0.0
 10
121.4694019219801
 20
-134.2095694100203
 30
0.0
 10
122.511244978484
 20
-133.1673972961141
 30
0.0
 10
124.0695071505178
 20
-132.9407424972837
 30
0.0
 10
125.429707608009
 20
-133.5076766952497
 30
0.0
 10
125.899921202543
 20
-133.7036626366034
 30
0.0
 10
126.4363087900997
 20
-133.7727127933454
 30
0.0
 10
126.996311869843
 20
-133.6719982040929
 30
0.0
 10
128.0635318472657
 20
-133.4800624352392
 30
0.0
 10
128.9339281309468
 20
-132.6391371397014
 30
0.0
 10
129.1680883980711
 20
-131.5803799489932
 30
0.0
 10
129.1705085455075
 20
-131.5694372364012
 30
0.0
 10
129.1728614737838
 20
-131.5585039047715
 30
0.0
 10
129.1751475602842
 20
-131.5475802240502
 30
0.0
 10
129.4253934854613
 20
-130.3518220633479
 30
0.0
 10
130.1931511271529
 20
-129.3307403434233
 30
0.0
 10
131.3170203995656
 20
-128.8518056292099
 30
0.0
 10
131.3170203995656
 20
-128.8518056292099
 30
0.0
 10
132.0254092440516
 20
-128.5499270948356
 30
0.0
 10
132.0254092440516
 20
-128.5499270948356
 30
0.0
 10
137.0321286331567
 20
-126.4163233220224
 30
0.0
 10
142.6921354920099
 20
-126.4152412740569
 30
0.0
 10
147.6996702956211
 20
-128.5469305786326
 30
0.0
 10
147.6996702956211
 20
-128.5469305786326
 30
0.0
 10
148.317841093571
 20
-128.810083632992
 30
0.0
 10
148.317841093571
 20
-128.810083632992
 30
0.0
 10
149.446162182147
 20
-129.2904058056711
 30
0.0
 10
150.2216779344661
 20
-130.3153803169297
 30
0.0
 10
150.4624134966293
 20
-131.5178212749818
 30
0.0
 10
150.4661103801099
 20
-131.5362866985102
 30
0.0
 10
150.4699998915809
 20
-131.554781291173
 30
0.0
 10
150.474083964889
 20
-131.5733037821508
 30
0.0
 10
150.7107996502149
 20
-132.6468800405831
 30
0.0
 10
151.5990011015699
 20
-133.4971789907167
 30
0.0
 10
152.6833401442661
 20
-133.6783119221068
 30
0.0
 10
153.2493406359246
 20
-133.7728592216006
 30
0.0
 10
153.789964862638
 20
-133.6942857926607
 30
0.0
 10
154.2612070943877
 20
-133.4870882689544
 30
0.0
 10
155.6099142102163
 20
-132.8940837464913
 30
0.0
 10
157.1733684385778
 20
-133.1055189447121
 30
0.0
 10
158.215139911254
 20
-134.1473334419575
 30
0.0
 10
158.215139911254
 20
-134.1473334419575
 30
0.0
 10
173.5615660222358
 20
-149.4943933515829
 30
0.0
 10
173.5615660222358
 20
-149.4943933515829
 30
0.0
 10
174.6732915594242
 20
-150.6061648024005
 30
0.0
 10
175.3573624159386
 20
-152.1102145917519
 30
0.0
 10
175.3173996170465
 20
-153.6819564292
 30
0.0
 10
175.3133535788158
 20
-153.841087614657
 30
0.0
 10
175.3218460241066
 20
-154.0033276454618
 30
0.0
 10
175.3438566080077
 20
-154.1677701880677
 30
0.0
 10
175.5179275550796
 20
-155.4682658612424
 30
0.0
 10
176.5502015328926
 20
-156.4569459793114
 30
0.0
 10
177.8074049386005
 20
-156.7006951602237
 30
0.0
 10
178.2500729622338
 20
-156.7865205467037
 30
0.0
 10
178.6565536297316
 20
-157.0035853358108
 30
0.0
 10
178.9753857653255
 20
-157.3224380375765
 30
0.0
 10
178.9753857653255
 20
-157.3224380375765
 30
0.0
 10
179.2527896890229
 20
-157.5998598551364
 30
0.0
 10
179.2527896890229
 20
-157.5998598551364
 30
0.0
 10
179.5715575948295
 20
-157.9186483229733
 30
0.0
 10
179.7886196822515
 20
-158.3250363163022
 30
0.0
 10
179.874405814773
 20
-158.7676194208882
 30
0.0
 10
180.1181594840851
 20
-160.025179967527
 30
0.0
 10
181.107313540366
 20
-161.0576497875829
 30
0.0
 10
182.4082304492466
 20
-161.2313964158495
 30
0.0
 10
182.5716925985921
 20
-161.253227938757
 30
0.0
 10
182.7329649147473
 20
-161.26170380734
 30
0.0
 10
182.8911613791262
 20
-161.2577881163508
 30
0.0
 10
184.4635307230443
 20
-161.2188687100632
 30
0.0
 10
185.9682102994874
 20
-161.9015465455155
 30
0.0
 10
187.0803552150063
 20
-163.0137487576917
 30
0.0
 10
187.0803552150063
 20
-163.0137487576917
 30
0.0
 10
189.8977310270739
 20
-165.831269718303
 30
0.0
 10
189.8977310270739
 20
-165.831269718303
 30
0.0
 10
190.6787929750773
 20
-166.6123719058902
 30
0.0
 10
191.9451890476879
 20
-166.6123661805743
 30
0.0
 10
192.7262439330169
 20
-165.8312569307363
 30
0.0
 10
192.7262439330169
 20
-165.8312569307363
 30
0.0
 10
194.8474752144314
 20
-163.7098780032393
 30
0.0
 10
194.8474752144314
 20
-163.7098780032393
 30
0.0
 10
195.6284665443744
 20
-162.928832313211
 30
0.0
 10
195.6284569526852
 20
-161.6625617454121
 30
0.0
 10
194.8474537903708
 20
-160.8815278871103
 30
0.0
 10
194.8474537903708
 20
-160.8815278871103
 30
0.0
 10
192.0705502597189
 20
-158.104515215039
 30
0.0
 10
192.0705502597189
 20
-158.104515215039
 30
0.0
 10
190.9446300014779
 20
-156.9785507044372
 30
0.0
 10
190.2621472998244
 20
-155.450525209784
 30
0.0
 10
190.3147008200781
 20
-153.8590697015904
 30
0.0
 10
190.3199510136765
 20
-153.7000803612611
 30
0.0
 10
190.3127671680393
 20
-153.5379978259473
 30
0.0
 10
190.2922052421246
 20
-153.3737643594021
 30
0.0
  0
SPLINE
  5
42
330
1F
100
AcDbEntity
  8
Layer 1
370
     0
100
AcDbSpline
210
0.0
220
0.0
230
1.0
 70
    11
 71
     3
 72
    17
 73
    13
 74
     0
 42
0.0000000001
 43
0.0000000001
 12
1.0
 22
0.0
 32
0.0
 13
1.0
 23
0.0
 33
0.0
 40
0.0
 40
0.0
 40
0.0
 40
0.0
 40
1.0
 40
1.0
 40
1.0
 40
2.0
 40
2.0
 40
2.0
 40
3.0
 40
3.0
 40
3.0
 40
4.0
 40
4.0
 40
4.0
 40
4.0
 10
191.3161279887977
 20
-53.1401204295807
 30
0.0
 10
192.0065251240418
 20
-53.1401204295807
 30
0.0
 10
192.5661808856206
 20
-53.69969006377433
 30
0.0
 10
192.5661808856206
 20
-54.3900871990184
 30
0.0
 10
192.5661808856206
 20
-55.0803982068734
 30
0.0
 10
192.0065251240418
 20
-55.64005396845224
 30
0.0
 10
191.3161279887977
 20
-55.64005396845224
 30
0.0
 10
190.6259031083279
 20
-55.64005396845224
 30
0.0
 10
190.066247346749
 20
-55.0803982068734
 30
0.0
 10
190.066247346749
 20
-54.3900871990184
 30
0.0
 10
190.066247346749
 20
-53.69969006377433
 30
0.0
 10
190.6259031083279
 20
-53.1401204295807
 30
0.0
 10
191.3161279887977
 20
-53.1401204295807
 30
0.0
  0
SPLINE
  5
43
330
1F
100
AcDbEntity
  8
Layer 1
370
     0
100
AcDbSpline
210
0.0
220
0.0
230
1.0
 70
    11
 71
     3
 72
    17
 73
    13
 74
     0
 42
0.0000000001
 43
0.0000000001
 12
1.0
 22
0.0
 32
0.0
 13
1.0
 23
0.0
 33
0.0
 40
0.0
 40
0.0
 40
0.0
 40
0.0
 40
1.0
 40
1.0
 40
1.0
 40
2.0
 40
2.0
 40
2.0
 40
3.0
 40
3.0
 40
3.0
 40
4.0
 40
4.0
 40
4.0
 40
4.0
 10
187.3528901425663
 20
-61.88997394301823
 30
0.0
 10
187.9051389488518
 20
-61.88997394301823
 30
0.0
 10
188.35282910716
 20
-62.33766410132645
 30
0.0
 10
188.35282910716
 20
-62.889912907612
 30
0.0
 10
188.35282910716
 20
-63.4422478412866
 30
0.0
 10
187.9051389488518
 20
-63.88993799959482
 30
0.0
 10
187.3528901425663
 20
-63.88993799959482
 30
0.0
 10
186.8006413362807
 20
-63.88993799959482
 30
0.0
 10
186.3527789231982
 20
-63.4422478412866
 30
0.0
 10
186.3527789231982
 20
-62.889912907612
 30
0.0
 10
186.3527789231982
 20
-62.33766410132645
 30
0.0
 10
186.8006413362807
 20
-61.88997394301823
 30
0.0
 10
187.3528901425663
 20
-61.88997394301823
 30
0.0
  0
SPLINE
  5
44
330
1F
100
AcDbEntity
  8
Layer 1
370
     0
100
AcDbSpline
210
0.0
220
0.0
230
1.0
 70
    11
 71
     3
 72
    17
 73
    13
 74
     0
 42
0.0000000001
 43
0.0000000001
 12
1.0
 22
0.0
 32
0.0
 13
1.0
 23
0.0
 33
0.0
 40
0.0
 40
0.0
 40
0.0
 40
0.0
 40
1.0
 40
1.0
 40
1.0
 40
2.0
 40
2.0
 40
2.0
 40
3.0
 40
3.0
 40
3.0
 40
4.0
 40
4.0
 40
4.0
 40
4.0
 10
182.8529064197329
 20
-68.39000784981336
 30
0.0
 10
182.3006576134474
 20
-68.39000784981336
 30
0.0
 10
181.8529674551392
 20
-67.94231769150515
 30
0.0
 10
181.8529674551392
 20
-67.38998275783439
 30
0.0
 10
181.8529674551392
 20
-66.83773395154884
 30
0.0
 10
182.3006576134474
 20
-66.38995766585157
 30
0.0
 10
182.8529064197329
 20
-66.38995766585157
 30
0.0
 10
183.4051552260185
 20
-66.38995766585157
 30
0.0
 10
183.8528453843267
 20
-66.83764782415979
 30
0.0
 10
183.8528453843267
 20
-67.38998275783439
 30
0.0
 10
183.8528453843267
 20
-67.94231769150515
 30
0.0
 10
183.4051552260185
 20
-68.39000784981336
 30
0.0
 10
182.8529064197329
 20
-68.39000784981336
 30
0.0
  0
SPLINE
  5
45
330
1F
100
AcDbEntity
  8
Layer 1
370
     0
100
AcDbSpline
210
0.0
220
0.0
230
1.0
 70
    11
 71
     3
 72
    17
 73
    13
 74
     0
 42
0.0000000001
 43
0.0000000001
 12
1.0
 22
0.0
 32
0.0
 13
1.0
 23
0.0
 33
0.0
 40
0.0
 40
0.0
 40
0.0
 40
0.0
 40
1.0
 40
1.0
 40
1.0
 40
2.0
 40
2.0
 40
2.0
 40
3.0
 40
3.0
 40
3.0
 40
4.0
 40
4.0
 40
4.0
 40
4.0
 10
182.8529064197329
 20
-57.3899902201849
 30
0.0
 10
183.4051552260185
 20
-57.3899902201849
 30
0.0
 10
183.8528453843267
 20
-57.83768037849311
 30
0.0
 10
183.8528453843267
 20
-58.38992918477866
 30
0.0
 10
183.8528453843267
 20
-58.94226411845327
 30
0.0
 10
183.4051552260185
 20
-59.38995427676149
 30
0.0
 10
182.8529064197329
 20
-59.39004040414669
 30
0.0
 10
182.3004853586731
 20
-59.39004040414669
 30
0.0
 10
181.8527952003649
 20
-58.94226411845327
 30
0.0
 10
181.8527952003649
 20
-58.39001531216772
 30
0.0
 10
181.8527952003649
 20
-57.83768037849311
 30
0.0
 10
182.3004853586731
 20
-57.3899902201849
 30
0.0
 10
182.8529064197329
 20
-57.3899902201849
 30
0.0
  0
SPLINE
  5
46
330
1F
100
AcDbEntity
  8
Layer 1
370
     0
100
AcDbSpline
210
0.0
220
0.0
230
1.0
 70
    11
 71
     3
 72
    17
 73
    13
 74
     0
 42
0.0000000001
 43
0.0000000001
 12
1.0
 22
0.0
 32
0.0
 13
1.0
 23
0.0
 33
0.0
 40
0.0
 40
0.0
 40
0.0
 40
0.0
 40
1.0
 40
1.0
 40
1.0
 40
2.0
 40
2.0
 40
2.0
 40
3.0
 40
3.0
 40
3.0
 40
4.0
 40
4.0
 40
4.0
 40
4.0
 10
181.085055671477
 20
-61.1222344141303
 30
0.0
 10
182.0613957319968
 20
-60.1458943536105
 30
0.0
 10
183.6442448526948
 20
-60.1458943536105
 30
0.0
 10
184.6205849132146
 20
-61.1222344141303
 30
0.0
 10
185.5969249737344
 20
-62.0984883472649
 30
0.0
 10
185.5969249737344
 20
-63.68142359534815
 30
0.0
 10
184.6205849132146
 20
-64.65776365586795
 30
0.0
 10
183.6442448526948
 20
-65.63410371638776
 30
0.0
 10
182.0613957319968
 20
-65.63410371638776
 30
0.0
 10
181.085055671477
 20
-64.65776365586795
 30
0.0
 10
180.1087156109572
 20
-63.68142359534815
 30
0.0
 10
180.1087156109572
 20
-62.09857447465011
 30
0.0
 10
181.085055671477
 20
-61.1222344141303
 30
0.0
  0
SPLINE
  5
47
330
1F
100
AcDbEntity
  8
Layer 1
370
     0
100
AcDbSpline
210
0.0
220
0.0
230
1.0
 70
    11
 71
     3
 72
    17
 73
    13
 74
     0
 42
0.0000000001
 43
0.0000000001
 12
1.0
 22
0.0
 32
0.0
 13
1.0
 23
0.0
 33
0.0
 40
0.0
 40
0.0
 40
0.0
 40
0.0
 40
1.0
 40
1.0
 40
1.0
 40
2.0
 40
2.0
 40
2.0
 40
3.0
 40
3.0
 40
3.0
 40
4.0
 40
4.0
 40
4.0
 40
4.0
 10
178.3529226968996
 20
-61.88997394301823
 30
0.0
 10
178.9051715031851
 20
-61.88997394301823
 30
0.0
 10
179.3528616614934
 20
-62.33775022871551
 30
0.0
 10
179.3528616614934
 20
-62.88999903500105
 30
0.0
 10
179.3528616614934
 20
-63.44233396867181
 30
0.0
 10
178.9051715031851
 20
-63.89002412698002
 30
0.0
 10
178.3529226968996
 20
-63.89002412698002
 30
0.0
 10
177.8005016358398
 20
-63.89002412698002
 30
0.0
 10
177.3528114775316
 20
-63.44233396867181
 30
0.0
 10
177.3528114775316
 20
-62.88999903500105
 30
0.0
 10
177.3528114775316
 20
-62.33775022871551
 30
0.0
 10
177.8005016358398
 20
-61.88997394301823
 30
0.0
 10
178.3529226968996
 20
-61.88997394301823
 30
0.0
  0
SPLINE
  5
48
330
1F
100
AcDbEntity
  8
Layer 1
370
     0
100
AcDbSpline
210
0.0
220
0.0
230
1.0
 70
    11
 71
     3
 72
    17
 73
    13
 74
     0
 42
0.0000000001
 43
0.0000000001
 12
1.0
 22
0.0
 32
0.0
 13
1.0
 23
0.0
 33
0.0
 40
0.0
 40
0.0
 40
0.0
 40
0.0
 40
1.0
 40
1.0
 40
1.0
 40
2.0
 40
2.0
 40
2.0
 40
3.0
 40
3.0
 40
3.0
 40
4.0
 40
4.0
 40
4.0
 40
4.0
 10
88.44764385652869
 20
-55.67708874491868
 30
0.0
 10
87.75724672128462
 20
-55.67708874491868
 30
0.0
 10
87.19759095970578
 20
-55.11743298333984
 30
0.0
 10
87.19759095970578
 20
-54.42703584809577
 30
0.0
 10
87.19759095970578
 20
-53.73672484024076
 30
0.0
 10
87.75724672128462
 20
-53.17706907866192
 30
0.0
 10
88.44764385652869
 20
-53.17706907866192
 30
0.0
 10
89.13804099177275
 20
-53.17706907866192
 30
0.0
 10
89.6976967533516
 20
-53.73672484024076
 30
0.0
 10
89.6976967533516
 20
-54.42703584809577
 30
0.0
 10
89.6976967533516
 20
-55.11743298333984
 30
0.0
 10
89.13804099177275
 20
-55.67708874491868
 30
0.0
 10
88.44764385652869
 20
-55.67708874491868
 30
0.0
  0
SPLINE
  5
49
330
1F
100
AcDbEntity
  8
Layer 1
370
     0
100
AcDbSpline
210
0.0
220
0.0
230
1.0
 70
    11
 71
     3
 72
    17
 73
    13
 74
     0
 42
0.0000000001
 43
0.0000000001
 12
1.0
 22
0.0
 32
0.0
 13
1.0
 23
0.0
 33
0.0
 40
0.0
 40
0.0
 40
0.0
 40
0.0
 40
1.0
 40
1.0
 40
1.0
 40
2.0
 40
2.0
 40
2.0
 40
3.0
 40
3.0
 40
3.0
 40
4.0
 40
4.0
 40
4.0
 40
4.0
 10
92.44757196967801
 20
-63.89002412698002
 30
0.0
 10
91.89532316339246
 20
-63.89002412698002
 30
0.0
 10
91.44763300508424
 20
-63.44233396867181
 30
0.0
 10
91.44763300508424
 20
-62.88999903500105
 30
0.0
 10
91.44763300508424
 20
-62.33775022871551
 30
0.0
 10
91.89532316339246
 20
-61.88997394301823
 30
0.0
 10
92.44757196967801
 20
-61.88997394301823
 30
0.0
 10
92.99982077596356
 20
-61.88997394301823
 30
0.0
 10
93.44751093427178
 20
-62.33775022871551
 30
0.0
 10
93.44751093427178
 20
-62.88999903500105
 30
0.0
 10
93.44751093427178
 20
-63.44233396867181
 30
0.0
 10
92.99982077596356
 20
-63.89002412698002
 30
0.0
 10
92.44757196967801
 20
-63.89002412698002
 30
0.0
  0
SPLINE
  5
4A
330
1F
100
AcDbEntity
  8
Layer 1
370
     0
100
AcDbSpline
210
0.0
220
0.0
230
1.0
 70
    11
 71
     3
 72
    17
 73
    13
 74
     0
 42
0.0000000001
 43
0.0000000001
 12
1.0
 22
0.0
 32
0.0
 13
1.0
 23
0.0
 33
0.0
 40
0.0
 40
0.0
 40
0.0
 40
0.0
 40
1.0
 40
1.0
 40
1.0
 40
2.0
 40
2.0
 40
2.0
 40
3.0
 40
3.0
 40
3.0
 40
4.0
 40
4.0
 40
4.0
 40
4.0
 10
96.94755569251134
 20
-57.3899902201849
 30
0.0
 10
97.49980449879689
 20
-57.3899902201849
 30
0.0
 10
97.94749465710511
 20
-57.83768037849311
 30
0.0
 10
97.94749465710511
 20
-58.38992918477866
 30
0.0
 10
97.94749465710511
 20
-58.94226411845327
 30
0.0
 10
97.49980449879689
 20
-59.38995427676149
 30
0.0
 10
96.94755569251134
 20
-59.39004040414669
 30
0.0
 10
96.3953068862258
 20
-59.39004040414669
 30
0.0
 10
95.94761672791758
 20
-58.94226411845327
 30
0.0
 10
95.94761672791758
 20
-58.39001531216772
 30
0.0
 10
95.94761672791758
 20
-57.83768037849311
 30
0.0
 10
96.3953068862258
 20
-57.3899902201849
 30
0.0
 10
96.94755569251134
 20
-57.3899902201849
 30
0.0
  0
SPLINE
  5
4B
330
1F
100
AcDbEntity
  8
Layer 1
370
     0
100
AcDbSpline
210
0.0
220
0.0
230
1.0
 70
    11
 71
     3
 72
    17
 73
    13
 74
     0
 42
0.0000000001
 43
0.0000000001
 12
1.0
 22
0.0
 32
0.0
 13
1.0
 23
0.0
 33
0.0
 40
0.0
 40
0.0
 40
0.0
 40
0.0
 40
1.0
 40
1.0
 40
1.0
 40
2.0
 40
2.0
 40
2.0
 40
3.0
 40
3.0
 40
3.0
 40
4.0
 40
4.0
 40
4.0
 40
4.0
 10
96.94772794728561
 20
-68.39000784981336
 30
0.0
 10
96.3953068862258
 20
-68.39000784981336
 30
0.0
 10
95.94761672791758
 20
-67.94231769150515
 30
0.0
 10
95.94761672791758
 20
-67.38998275783439
 30
0.0
 10
95.94761672791758
 20
-66.83773395154884
 30
0.0
 10
96.3953068862258
 20
-66.38995766585157
 30
0.0
 10
96.94755569251134
 20
-66.38995766585157
 30
0.0
 10
97.49997675357116
 20
-66.38995766585157
 30
0.0
 10
97.94766691187937
 20
-66.83764782415979
 30
0.0
 10
97.94766691187937
 20
-67.38998275783439
 30
0.0
 10
97.94766691187937
 20
-67.94231769150515
 30
0.0
 10
97.49997675357116
 20
-68.39000784981336
 30
0.0
 10
96.94772794728561
 20
-68.39000784981336
 30
0.0
  0
SPLINE
  5
4C
330
1F
100
AcDbEntity
  8
Layer 1
370
     0
100
AcDbSpline
210
0.0
220
0.0
230
1.0
 70
    11
 71
     3
 72
    17
 73
    13
 74
     0
 42
0.0000000001
 43
0.0000000001
 12
1.0
 22
0.0
 32
0.0
 13
1.0
 23
0.0
 33
0.0
 40
0.0
 40
0.0
 40
0.0
 40
0.0
 40
1.0
 40
1.0
 40
1.0
 40
2.0
 40
2.0
 40
2.0
 40
3.0
 40
3.0
 40
3.0
 40
4.0
 40
4.0
 40
4.0
 40
4.0
 10
98.7154064407673
 20
-64.65776365586795
 30
0.0
 10
97.7390663802475
 20
-65.63410371638776
 30
0.0
 10
96.1560450047752
 20
-65.63410371638776
 30
0.0
 10
95.17987719902965
 20
-64.65776365586795
 30
0.0
 10
94.20353713850984
 20
-63.68142359534815
 30
0.0
 10
94.20353713850984
 20
-62.09857447465011
 30
0.0
 10
95.17970494425539
 20
-61.1222344141303
 30
0.0
 10
96.1560450047752
 20
-60.1458943536105
 30
0.0
 10
97.7390663802475
 20
-60.1458943536105
 30
0.0
 10
98.7154064407673
 20
-61.1222344141303
 30
0.0
 10
99.69157424651284
 20
-62.0984883472649
 30
0.0
 10
99.69157424651284
 20
-63.68142359534815
 30
0.0
 10
98.7154064407673
 20
-64.65776365586795
 30
0.0
  0
SPLINE
  5
4D
330
1F
100
AcDbEntity
  8
Layer 1
370
     0
100
AcDbSpline
210
0.0
220
0.0
230
1.0
 70
    11
 71
     3
 72
    17
 73
    13
 74
     0
 42
0.0000000001
 43
0.0000000001
 12
1.0
 22
0.0
 32
0.0
 13
1.0
 23
0.0
 33
0.0
 40
0.0
 40
0.0
 40
0.0
 40
0.0
 40
1.0
 40
1.0
 40
1.0
 40
2.0
 40
2.0
 40
2.0
 40
3.0
 40
3.0
 40
3.0
 40
4.0
 40
4.0
 40
4.0
 40
4.0
 10
101.4475394153447
 20
-63.88993799959482
 30
0.0
 10
100.8952906090591
 20
-63.88993799959482
 30
0.0
 10
100.4476004507509
 20
-63.4422478412866
 30
0.0
 10
100.4476004507509
 20
-62.889912907612
 30
0.0
 10
100.4476004507509
 20
-62.33766410132645
 30
0.0
 10
100.8952906090591
 20
-61.88997394301823
 30
0.0
 10
101.4475394153447
 20
-61.88997394301823
 30
0.0
 10
101.9997882216302
 20
-61.88997394301823
 30
0.0
 10
102.4474783799384
 20
-62.33766410132645
 30
0.0
 10
102.4474783799384
 20
-62.889912907612
 30
0.0
 10
102.4474783799384
 20
-63.4422478412866
 30
0.0
 10
101.9997882216302
 20
-63.88993799959482
 30
0.0
 10
101.4475394153447
 20
-63.88993799959482
 30
0.0
  0
SPLINE
  5
4E
330
1F
100
AcDbEntity
  8
Layer 1
370
     0
100
AcDbSpline
210
0.0
220
0.0
230
1.0
 70
    11
 71
     3
 72
    17
 73
    13
 74
     0
 42
0.0000000001
 43
0.0000000001
 12
1.0
 22
0.0
 32
0.0
 13
1.0
 23
0.0
 33
0.0
 40
0.0
 40
0.0
 40
0.0
 40
0.0
 40
1.0
 40
1.0
 40
1.0
 40
2.0
 40
2.0
 40
2.0
 40
3.0
 40
3.0
 40
3.0
 40
4.0
 40
4.0
 40
4.0
 40
4.0
 10
88.44764385652869
 20
-163.5411803790353
 30
0.0
 10
87.75724672128462
 20
-163.5411803790353
 30
0.0
 10
87.19759095970578
 20
-162.9815246174565
 30
0.0
 10
87.19759095970578
 20
-162.2911274822124
 30
0.0
 10
87.19759095970578
 20
-161.6008164743529
 30
0.0
 10
87.75724672128462
 20
-161.0411607127741
 30
0.0
 10
88.44764385652869
 20
-161.0411607127741
 30
0.0
 10
89.13804099177275
 20
-161.0411607127741
 30
0.0
 10
89.6976967533516
 20
-161.6008164743529
 30
0.0
 10
89.6976967533516
 20
-162.2911274822124
 30
0.0
 10
89.6976967533516
 20
-162.9815246174565
 30
0.0
 10
89.13804099177275
 20
-163.5411803790353
 30
0.0
 10
88.44764385652869
 20
-163.5411803790353
 30
0.0
  0
SPLINE
  5
4F
330
1F
100
AcDbEntity
  8
Layer 1
370
     0
100
AcDbSpline
210
0.0
220
0.0
230
1.0
 70
    11
 71
     3
 72
    17
 73
    13
 74
     0
 42
0.0000000001
 43
0.0000000001
 12
1.0
 22
0.0
 32
0.0
 13
1.0
 23
0.0
 33
0.0
 40
0.0
 40
0.0
 40
0.0
 40
0.0
 40
1.0
 40
1.0
 40
1.0
 40
2.0
 40
2.0
 40
2.0
 40
3.0
 40
3.0
 40
3.0
 40
4.0
 40
4.0
 40
4.0
 40
4.0
 10
92.44757196967801
 20
-154.7587707132622
 30
0.0
 10
91.89532316339246
 20
-154.7587707132622
 30
0.0
 10
91.44763300508424
 20
-154.3110805549539
 30
0.0
 10
91.44763300508424
 20
-153.7588317486684
 30
0.0
 10
91.44763300508424
 20
-153.2064968149931
 30
0.0
 10
91.89532316339246
 20
-152.7588066566849
 30
0.0
 10
92.44757196967801
 20
-152.7588066566849
 30
0.0
 10
92.99982077596356
 20
-152.7588066566849
 30
0.0
 10
93.44751093427178
 20
-153.2064968149931
 30
0.0
 10
93.44751093427178
 20
-153.7587456212787
 30
0.0
 10
93.44751093427178
 20
-154.3110805549539
 30
0.0
 10
92.99982077596356
 20
-154.7587707132622
 30
0.0
 10
92.44757196967801
 20
-154.7587707132622
 30
0.0
  0
SPLINE
  5
50
330
1F
100
AcDbEntity
  8
Layer 1
370
     0
100
AcDbSpline
210
0.0
220
0.0
230
1.0
 70
    11
 71
     3
 72
    17
 73
    13
 74
     0
 42
0.0000000001
 43
0.0000000001
 12
1.0
 22
0.0
 32
0.0
 13
1.0
 23
0.0
 33
0.0
 40
0.0
 40
0.0
 40
0.0
 40
0.0
 40
1.0
 40
1.0
 40
1.0
 40
2.0
 40
2.0
 40
2.0
 40
3.0
 40
3.0
 40
3.0
 40
4.0
 40
4.0
 40
4.0
 40
4.0
 10
96.94755569251134
 20
-148.258736806467
 30
0.0
 10
97.49980449879689
 20
-148.258736806467
 30
0.0
 10
97.94749465710511
 20
-148.7065130921598
 30
0.0
 10
97.94749465710511
 20
-149.2587618984454
 30
0.0
 10
97.94749465710511
 20
-149.8110107047309
 30
0.0
 10
97.49980449879689
 20
-150.2587869904288
 30
0.0
 10
96.94755569251134
 20
-150.2587869904288
 30
0.0
 10
96.3953068862258
 20
-150.2587869904288
 30
0.0
 10
95.94761672791758
 20
-149.8110107047309
 30
0.0
 10
95.94761672791758
 20
-149.2587618984454
 30
0.0
 10
95.94761672791758
 20
-148.7065130921598
 30
0.0
 10
96.3953068862258
 20
-148.2588229338516
 30
0.0
 10
96.94755569251134
 20
-148.258736806467
 30
0.0
  0
SPLINE
  5
51
330
1F
100
AcDbEntity
  8
Layer 1
370
     0
100
AcDbSpline
210
0.0
220
0.0
230
1.0
 70
    11
 71
     3
 72
    17
 73
    13
 74
     0
 42
0.0000000001
 43
0.0000000001
 12
1.0
 22
0.0
 32
0.0
 13
1.0
 23
0.0
 33
0.0
 40
0.0
 40
0.0
 40
0.0
 40
0.0
 40
1.0
 40
1.0
 40
1.0
 40
2.0
 40
2.0
 40
2.0
 40
3.0
 40
3.0
 40
3.0
 40
4.0
 40
4.0
 40
4.0
 40
4.0
 10
96.94772794728561
 20
-159.2587544360955
 30
0.0
 10
96.3953068862258
 20
-159.2587544360955
 30
0.0
 10
95.94761672791758
 20
-158.8110642777873
 30
0.0
 10
95.94761672791758
 20
-158.258729344112
 30
0.0
 10
95.94761672791758
 20
-157.7064805378265
 30
0.0
 10
96.3953068862258
 20
-157.2587903795183
 30
0.0
 10
96.94755569251134
 20
-157.2587903795183
 30
0.0
 10
97.49997675357116
 20
-157.2587903795183
 30
0.0
 10
97.94766691187937
 20
-157.7064805378265
 30
0.0
 10
97.94766691187937
 20
-158.258729344112
 30
0.0
 10
97.94766691187937
 20
-158.8110642777873
 30
0.0
 10
97.49997675357116
 20
-159.2587544360955
 30
0.0
 10
96.94772794728561
 20
-159.2587544360955
 30
0.0
  0
SPLINE
  5
52
330
1F
100
AcDbEntity
  8
Layer 1
370
     0
100
AcDbSpline
210
0.0
220
0.0
230
1.0
 70
    11
 71
     3
 72
    17
 73
    13
 74
     0
 42
0.0000000001
 43
0.0000000001
 12
1.0
 22
0.0
 32
0.0
 13
1.0
 23
0.0
 33
0.0
 40
0.0
 40
0.0
 40
0.0
 40
0.0
 40
1.0
 40
1.0
 40
1.0
 40
2.0
 40
2.0
 40
2.0
 40
3.0
 40
3.0
 40
3.0
 40
4.0
 40
4.0
 40
4.0
 40
4.0
 10
98.7154064407673
 20
-155.5265102421501
 30
0.0
 10
97.7390663802475
 20
-156.5028503026699
 30
0.0
 10
96.1560450047752
 20
-156.5028503026699
 30
0.0
 10
95.17987719902965
 20
-155.5265963695346
 30
0.0
 10
94.20353713850984
 20
-154.5502563090149
 30
0.0
 10
94.20353713850984
 20
-152.9673210609322
 30
0.0
 10
95.17970494425539
 20
-151.9909810004124
 30
0.0
 10
96.1560450047752
 20
-151.0147270672772
 30
0.0
 10
97.7390663802475
 20
-151.0147270672772
 30
0.0
 10
98.7154064407673
 20
-151.9909810004124
 30
0.0
 10
99.69157424651284
 20
-152.9673210609322
 30
0.0
 10
99.69157424651284
 20
-154.5502563090149
 30
0.0
 10
98.7154064407673
 20
-155.5265102421501
 30
0.0
  0
SPLINE
  5
53
330
1F
100
AcDbEntity
  8
Layer 1
370
     0
100
AcDbSpline
210
0.0
220
0.0
230
1.0
 70
    11
 71
     3
 72
    17
 73
    13
 74
     0
 42
0.0000000001
 43
0.0000000001
 12
1.0
 22
0.0
 32
0.0
 13
1.0
 23
0.0
 33
0.0
 40
0.0
 40
0.0
 40
0.0
 40
0.0
 40
1.0
 40
1.0
 40
1.0
 40
2.0
 40
2.0
 40
2.0
 40
3.0
 40
3.0
 40
3.0
 40
4.0
 40
4.0
 40
4.0
 40
4.0
 10
101.4475394153447
 20
-154.7586845858725
 30
0.0
 10
100.8952906090591
 20
-154.7586845858725
 30
0.0
 10
100.4476004507509
 20
-154.3109944275643
 30
0.0
 10
100.4476004507509
 20
-153.7587456212787
 30
0.0
 10
100.4476004507509
 20
-153.2064968149931
 30
0.0
 10
100.8952906090591
 20
-152.7587205293004
 30
0.0
 10
101.4475394153447
 20
-152.7587205293004
 30
0.0
 10
101.9997882216302
 20
-152.7587205293004
 30
0.0
 10
102.4474783799384
 20
-153.2064106876086
 30
0.0
 10
102.4474783799384
 20
-153.7587456212787
 30
0.0
 10
102.4474783799384
 20
-154.3109944275643
 30
0.0
 10
101.9997882216302
 20
-154.7586845858725
 30
0.0
 10
101.4475394153447
 20
-154.7586845858725
 30
0.0
  0
SPLINE
  5
54
330
1F
100
AcDbEntity
  8
Layer 1
370
     0
100
AcDbSpline
210
0.0
220
0.0
230
1.0
 70
    11
 71
     3
 72
    17
 73
    13
 74
     0
 42
0.0000000001
 43
0.0000000001
 12
1.0
 22
0.0
 32
0.0
 13
1.0
 23
0.0
 33
0.0
 40
0.0
 40
0.0
 40
0.0
 40
0.0
 40
1.0
 40
1.0
 40
1.0
 40
2.0
 40
2.0
 40
2.0
 40
3.0
 40
3.0
 40
3.0
 40
4.0
 40
4.0
 40
4.0
 40
4.0
 10
153.2526460104663
 20
-85.98867524450417
 30
0.0
 10
154.0810192198946
 20
-85.98867524450417
 30
0.0
 10
154.7526405847441
 20
-86.66021048196457
 30
0.0
 10
154.7526405847441
 20
-87.48866981878194
 30
0.0
 10
154.7526405847441
 20
-88.31704302821026
 30
0.0
 10
154.0810192198946
 20
-88.98866439305972
 30
0.0
 10
153.2526460104663
 20
-88.98866439305972
 30
0.0
 10
152.4241005462637
 20
-88.98866439305972
 30
0.0
 10
151.7526514361886
 20
-88.31704302821026
 30
0.0
 10
151.7526514361886
 20
-87.48866981878194
 30
0.0
 10
151.7526514361886
 20
-86.66021048196457
 30
0.0
 10
152.4241005462637
 20
-85.98867524450417
 30
0.0
 10
153.2526460104663
 20
-85.98867524450417
 30
0.0
  0
SPLINE
  5
55
330
1F
100
AcDbEntity
  8
Layer 1
370
     0
100
AcDbSpline
210
0.0
220
0.0
230
1.0
 70
    11
 71
     3
 72
    29
 73
    25
 74
     0
 42
0.0000000001
 43
0.0000000001
 12
1.0
 22
0.0
 32
0.0
 13
1.0
 23
0.0
 33
0.0
 40
0.0
 40
0.0
 40
0.0
 40
0.0
 40
1.0
 40
1.0
 40
1.0
 40
2.0
 40
2.0
 40
2.0
 40
3.0
 40
3.0
 40
3.0
 40
4.0
 40
4.0
 40
4.0
 40
5.0
 40
5.0
 40
5.0
 40
6.0
 40
6.0
 40
6.0
 40
7.0
 40
7.0
 40
7.0
 40
8.0
 40
8.0
 40
8.0
 40
8.0
 10
135.96343431774
 20
-102.9460849080726
 30
0.0
 10
135.96343431774
 20
-102.9460849080726
 30
0.0
 10
139.2247339588518
 20
-99.68444075741236
 30
0.0
 10
139.2247339588518
 20
-99.68444075741236
 30
0.0
 10
139.5763059531215
 20
-99.33295489052782
 30
0.0
 10
140.1461247463818
 20
-99.33295489052782
 30
0.0
 10
140.4975244858773
 20
-99.68444075741236
 30
0.0
 10
140.4975244858773
 20
-99.68444075741236
 30
0.0
 10
143.7593408913119
 20
-102.9459987806836
 30
0.0
 10
143.7593408913119
 20
-102.9459987806836
 30
0.0
 10
144.1107406308074
 20
-103.2974846475681
 30
0.0
 10
144.1107406308074
 20
-103.8673895682137
 30
0.0
 10
143.7593408913119
 20
-104.2188754350982
 30
0.0
 10
143.7593408913119
 20
-104.2188754350982
 30
0.0
 10
140.4975244858773
 20
-107.4804334583694
 30
0.0
 10
140.4975244858773
 20
-107.4804334583694
 30
0.0
 10
140.1461247463818
 20
-107.831919325254
 30
0.0
 10
139.5763059531215
 20
-107.8318331978649
 30
0.0
 10
139.2247339588518
 20
-107.4804334583694
 30
0.0
 10
139.2247339588518
 20
-107.4804334583694
 30
0.0
 10
135.96343431774
 20
-104.2187893077091
 30
0.0
 10
135.96343431774
 20
-104.2187893077091
 30
0.0
 10
135.6118623234703
 20
-103.8673895682137
 30
0.0
 10
135.6118623234703
 20
-103.2975707749533
 30
0.0
 10
135.96343431774
 20
-102.9460849080726
 30
0.0
  0
SPLINE
  5
56
330
1F
100
AcDbEntity
  8
Layer 1
370
     0
100
AcDbSpline
210
0.0
220
0.0
230
1.0
 70
    11
 71
     3
 72
    17
 73
    13
 74
     0
 42
0.0000000001
 43
0.0000000001
 12
1.0
 22
0.0
 32
0.0
 13
1.0
 23
0.0
 33
0.0
 40
0.0
 40
0.0
 40
0.0
 40
0.0
 40
1.0
 40
1.0
 40
1.0
 40
2.0
 40
2.0
 40
2.0
 40
3.0
 40
3.0
 40
3.0
 40
4.0
 40
4.0
 40
4.0
 40
4.0
 10
129.861136684717
 20
-101.8613104671527
 30
0.0
 10
130.6896821489196
 20
-101.8613104671527
 30
0.0
 10
131.3611312589948
 20
-102.5329318320021
 30
0.0
 10
131.3611312589948
 20
-103.3613050414305
 30
0.0
 10
131.3611312589948
 20
-104.1897643782478
 30
0.0
 10
130.6896821489196
 20
-104.8612996157082
 30
0.0
 10
129.861136684717
 20
-104.8612996157082
 30
0.0
 10
129.0327634752886
 20
-104.8612996157082
 30
0.0
 10
128.3611421104392
 20
-104.1897643782478
 30
0.0
 10
128.3611421104392
 20
-103.3613050414305
 30
0.0
 10
128.3611421104392
 20
-102.5329318320021
 30
0.0
 10
129.0327634752886
 20
-101.8613104671527
 30
0.0
 10
129.861136684717
 20
-101.8613104671527
 30
0.0
  0
SPLINE
  5
57
330
1F
100
AcDbEntity
  8
Layer 1
370
     0
100
AcDbSpline
210
0.0
220
0.0
230
1.0
 70
    11
 71
     3
 72
    17
 73
    13
 74
     0
 42
0.0000000001
 43
0.0000000001
 12
1.0
 22
0.0
 32
0.0
 13
1.0
 23
0.0
 33
0.0
 40
0.0
 40
0.0
 40
0.0
 40
0.0
 40
1.0
 40
1.0
 40
1.0
 40
2.0
 40
2.0
 40
2.0
 40
3.0
 40
3.0
 40
3.0
 40
4.0
 40
4.0
 40
4.0
 40
4.0
 10
126.4858043830434
 20
-132.4680555224347
 30
0.0
 10
125.6574311736151
 20
-132.4680555224347
 30
0.0
 10
124.9858098087657
 20
-131.7964341575853
 30
0.0
 10
124.9858098087657
 20
-130.9680609481569
 30
0.0
 10
124.9858098087657
 20
-130.139601611344
 30
0.0
 10
125.6574311736151
 20
-129.4679802464946
 30
0.0
 10
126.4858043830434
 20
-129.4679802464946
 30
0.0
 10
127.314349847246
 20
-129.4679802464946
 30
0.0
 10
127.9857989573212
 20
-130.139601611344
 30
0.0
 10
127.9857989573212
 20
-130.9680609481569
 30
0.0
 10
127.9857989573212
 20
-131.7964341575853
 30
0.0
 10
127.314349847246
 20
-132.4680555224347
 30
0.0
 10
126.4858043830434
 20
-132.4680555224347
 30
0.0
  0
SPLINE
  5
58
330
1F
100
AcDbEntity
  8
Layer 1
370
     0
100
AcDbSpline
210
0.0
220
0.0
230
1.0
 70
    11
 71
     3
 72
    17
 73
    13
 74
     0
 42
0.0000000001
 43
0.0000000001
 12
1.0
 22
0.0
 32
0.0
 13
1.0
 23
0.0
 33
0.0
 40
0.0
 40
0.0
 40
0.0
 40
0.0
 40
1.0
 40
1.0
 40
1.0
 40
2.0
 40
2.0
 40
2.0
 40
3.0
 40
3.0
 40
3.0
 40
4.0
 40
4.0
 40
4.0
 40
4.0
 10
126.5810612732106
 20
-88.98866439305972
 30
0.0
 10
125.7526880637823
 20
-88.98866439305972
 30
0.0
 10
125.0810666989328
 20
-88.31704302821026
 30
0.0
 10
125.0810666989328
 20
-87.48866981878194
 30
0.0
 10
125.0810666989328
 20
-86.66021048196457
 30
0.0
 10
125.7526880637823
 20
-85.98867524450417
 30
0.0
 10
126.5810612732106
 20
-85.98867524450417
 30
0.0
 10
127.4094344826389
 20
-85.98867524450417
 30
0.0
 10
128.0810558474884
 20
-86.66021048196457
 30
0.0
 10
128.0810558474884
 20
-87.48866981878194
 30
0.0
 10
128.0810558474884
 20
-88.31704302821026
 30
0.0
 10
127.4094344826389
 20
-88.98866439305972
 30
0.0
 10
126.5810612732106
 20
-88.98866439305972
 30
0.0
  0
SPLINE
  5
59
330
1F
100
AcDbEntity
  8
Layer 1
370
     0
100
AcDbSpline
210
0.0
220
0.0
230
1.0
 70
    11
 71
     3
 72
    17
 73
    13
 74
     0
 42
0.0000000001
 43
0.0000000001
 12
1.0
 22
0.0
 32
0.0
 13
1.0
 23
0.0
 33
0.0
 40
0.0
 40
0.0
 40
0.0
 40
0.0
 40
1.0
 40
1.0
 40
1.0
 40
2.0
 40
2.0
 40
2.0
 40
3.0
 40
3.0
 40
3.0
 40
4.0
 40
4.0
 40
4.0
 40
4.0
 10
129.861136684717
 20
-124.8613708183928
 30
0.0
 10
129.0327634752886
 20
-124.8613708183928
 30
0.0
 10
128.3611421104392
 20
-124.1897494535433
 30
0.0
 10
128.3611421104392
 20
-123.3612901167253
 30
0.0
 10
128.3611421104392
 20
-122.532916907297
 30
0.0
 10
129.0327634752886
 20
-121.8612955424475
 30
0.0
 10
129.861136684717
 20
-121.8612955424475
 30
0.0
 10
130.6896821489196
 20
-121.8612955424475
 30
0.0
 10
131.3611312589948
 20
-122.532916907297
 30
0.0
 10
131.3611312589948
 20
-123.3612901167253
 30
0.0
 10
131.3611312589948
 20
-124.1897494535433
 30
0.0
 10
130.6896821489196
 20
-124.8613708183928
 30
0.0
 10
129.861136684717
 20
-124.8613708183928
 30
0.0
  0
SPLINE
  5
5A
330
1F
100
AcDbEntity
  8
Layer 1
370
     0
100
AcDbSpline
210
0.0
220
0.0
230
1.0
 70
    11
 71
     3
 72
    29
 73
    25
 74
     0
 42
0.0000000001
 43
0.0000000001
 12
1.0
 22
0.0
 32
0.0
 13
1.0
 23
0.0
 33
0.0
 40
0.0
 40
0.0
 40
0.0
 40
0.0
 40
1.0
 40
1.0
 40
1.0
 40
2.0
 40
2.0
 40
2.0
 40
3.0
 40
3.0
 40
3.0
 40
4.0
 40
4.0
 40
4.0
 40
5.0
 40
5.0
 40
5.0
 40
6.0
 40
6.0
 40
6.0
 40
7.0
 40
7.0
 40
7.0
 40
8.0
 40
8.0
 40
8.0
 40
8.0
 10
133.0168441492058
 20
-115.6885457067511
 30
0.0
 10
133.0168441492058
 20
-115.6885457067511
 30
0.0
 10
129.7550277437713
 20
-112.4269876834805
 30
0.0
 10
129.7550277437713
 20
-112.4269876834805
 30
0.0
 10
129.4036280042758
 20
-112.0755018165953
 30
0.0
 10
129.4036280042758
 20
-111.505683023335
 30
0.0
 10
129.7550277437713
 20
-111.154197156455
 30
0.0
 10
129.7550277437713
 20
-111.154197156455
 30
0.0
 10
133.0168441492058
 20
-107.8925530057944
 30
0.0
 10
133.0168441492058
 20
-107.8925530057944
 30
0.0
 10
133.3682438887013
 20
-107.5410671389098
 30
0.0
 10
133.9380626819616
 20
-107.5410671389098
 30
0.0
 10
134.2896346762314
 20
-107.8925530057944
 30
0.0
 10
134.2896346762314
 20
-107.8925530057944
 30
0.0
 10
137.5511065721174
 20
-111.154197156455
 30
0.0
 10
137.5511065721174
 20
-111.154197156455
 30
0.0
 10
137.9025063116129
 20
-111.505683023335
 30
0.0
 10
137.9025063116129
 20
-112.0755018165953
 30
0.0
 10
137.5511065721174
 20
-112.4269876834805
 30
0.0
 10
137.5511065721174
 20
-112.4269876834805
 30
0.0
 10
134.2896346762314
 20
-115.6885457067511
 30
0.0
 10
134.2896346762314
 20
-115.6885457067511
 30
0.0
 10
133.9380626819616
 20
-116.0400315736363
 30
0.0
 10
133.3682438887013
 20
-116.0400315736363
 30
0.0
 10
133.0168441492058
 20
-115.6885457067511
 30
0.0
  0
SPLINE
  5
5B
330
1F
100
AcDbEntity
  8
Layer 1
370
     0
100
AcDbSpline
210
0.0
220
0.0
230
1.0
 70
    11
 71
     3
 72
    29
 73
    25
 74
     0
 42
0.0000000001
 43
0.0000000001
 12
1.0
 22
0.0
 32
0.0
 13
1.0
 23
0.0
 33
0.0
 40
0.0
 40
0.0
 40
0.0
 40
0.0
 40
1.0
 40
1.0
 40
1.0
 40
2.0
 40
2.0
 40
2.0
 40
3.0
 40
3.0
 40
3.0
 40
4.0
 40
4.0
 40
4.0
 40
5.0
 40
5.0
 40
5.0
 40
6.0
 40
6.0
 40
6.0
 40
7.0
 40
7.0
 40
7.0
 40
8.0
 40
8.0
 40
8.0
 40
8.0
 10
143.7593408913119
 20
-120.6350138044728
 30
0.0
 10
143.7593408913119
 20
-120.6350138044728
 30
0.0
 10
140.4975244858773
 20
-123.8966579551331
 30
0.0
 10
140.4975244858773
 20
-123.8966579551331
 30
0.0
 10
140.1461247463818
 20
-124.2481438220183
 30
0.0
 10
139.5763059531215
 20
-124.2481438220183
 30
0.0
 10
139.2247339588518
 20
-123.8966579551331
 30
0.0
 10
139.2247339588518
 20
-123.8966579551331
 30
0.0
 10
135.96343431774
 20
-120.6350138044728
 30
0.0
 10
135.96343431774
 20
-120.6350138044728
 30
0.0
 10
135.6118623234703
 20
-120.2835279375928
 30
0.0
 10
135.6118623234703
 20
-119.7137091443324
 30
0.0
 10
135.96343431774
 20
-119.3622232774473
 30
0.0
 10
135.96343431774
 20
-119.3622232774473
 30
0.0
 10
139.2247339588518
 20
-116.1006652541767
 30
0.0
 10
139.2247339588518
 20
-116.1006652541767
 30
0.0
 10
139.5763059531215
 20
-115.7491793872915
 30
0.0
 10
140.1461247463818
 20
-115.7491793872915
 30
0.0
 10
140.4975244858773
 20
-116.1006652541767
 30
0.0
 10
140.4975244858773
 20
-116.1006652541767
 30
0.0
 10
143.7593408913119
 20
-119.3622232774473
 30
0.0
 10
143.7593408913119
 20
-119.3622232774473
 30
0.0
 10
144.1107406308074
 20
-119.7137091443324
 30
0.0
 10
144.1107406308074
 20
-120.2836140649773
 30
0.0
 10
143.7593408913119
 20
-120.6350138044728
 30
0.0
  0
SPLINE
  5
5C
330
1F
100
AcDbEntity
  8
Layer 1
370
     0
100
AcDbSpline
210
0.0
220
0.0
230
1.0
 70
    11
 71
     3
 72
    29
 73
    25
 74
     0
 42
0.0000000001
 43
0.0000000001
 12
1.0
 22
0.0
 32
0.0
 13
1.0
 23
0.0
 33
0.0
 40
0.0
 40
0.0
 40
0.0
 40
0.0
 40
1.0
 40
1.0
 40
1.0
 40
2.0
 40
2.0
 40
2.0
 40
3.0
 40
3.0
 40
3.0
 40
4.0
 40
4.0
 40
4.0
 40
5.0
 40
5.0
 40
5.0
 40
6.0
 40
6.0
 40
6.0
 40
7.0
 40
7.0
 40
7.0
 40
8.0
 40
8.0
 40
8.0
 40
8.0
 10
146.7055865502975
 20
-115.6885457067511
 30
0.0
 10
146.354186810802
 20
-116.0400315736363
 30
0.0
 10
145.7843680175417
 20
-116.0400315736363
 30
0.0
 10
145.432796023272
 20
-115.6885457067511
 30
0.0
 10
145.432796023272
 20
-115.6885457067511
 30
0.0
 10
142.1714963821602
 20
-112.4269876834805
 30
0.0
 10
142.1714963821602
 20
-112.4269876834805
 30
0.0
 10
141.8199243878905
 20
-112.0755018165953
 30
0.0
 10
141.8199243878905
 20
-111.505683023335
 30
0.0
 10
142.1714963821602
 20
-111.154197156455
 30
0.0
 10
142.1714963821602
 20
-111.154197156455
 30
0.0
 10
145.432796023272
 20
-107.8925530057944
 30
0.0
 10
145.432796023272
 20
-107.8925530057944
 30
0.0
 10
145.7843680175417
 20
-107.5410671389098
 30
0.0
 10
146.354186810802
 20
-107.5410671389098
 30
0.0
 10
146.7055865502975
 20
-107.8925530057944
 30
0.0
 10
146.7055865502975
 20
-107.8925530057944
 30
0.0
 10
149.9674029557321
 20
-111.154197156455
 30
0.0
 10
149.9674029557321
 20
-111.154197156455
 30
0.0
 10
150.3188026952276
 20
-111.505683023335
 30
0.0
 10
150.3188026952276
 20
-112.0755018165953
 30
0.0
 10
149.9674029557321
 20
-112.4269876834805
 30
0.0
 10
149.9674029557321
 20
-112.4269876834805
 30
0.0
 10
146.7055865502975
 20
-115.6885457067511
 30
0.0
 10
146.7055865502975
 20
-115.6885457067511
 30
0.0
  0
SPLINE
  5
5D
330
1F
100
AcDbEntity
  8
Layer 1
370
     0
100
AcDbSpline
210
0.0
220
0.0
230
1.0
 70
    11
 71
     3
 72
    17
 73
    13
 74
     0
 42
0.0000000001
 43
0.0000000001
 12
1.0
 22
0.0
 32
0.0
 13
1.0
 23
0.0
 33
0.0
 40
0.0
 40
0.0
 40
0.0
 40
0.0
 40
1.0
 40
1.0
 40
1.0
 40
2.0
 40
2.0
 40
2.0
 40
3.0
 40
3.0
 40
3.0
 40
4.0
 40
4.0
 40
4.0
 40
4.0
 10
149.8612940147864
 20
-124.8613708183928
 30
0.0
 10
149.0327485505838
 20
-124.8613708183928
 30
0.0
 10
148.3612994405086
 20
-124.1897494535433
 30
0.0
 10
148.3612994405086
 20
-123.3612901167253
 30
0.0
 10
148.3612994405086
 20
-122.532916907297
 30
0.0
 10
149.0327485505838
 20
-121.8612955424475
 30
0.0
 10
149.8612940147864
 20
-121.8612955424475
 30
0.0
 10
150.6896672242147
 20
-121.8612955424475
 30
0.0
 10
151.3612885890642
 20
-122.532916907297
 30
0.0
 10
151.3612885890642
 20
-123.3612901167253
 30
0.0
 10
151.3612885890642
 20
-124.1897494535433
 30
0.0
 10
150.6896672242147
 20
-124.8613708183928
 30
0.0
 10
149.8612940147864
 20
-124.8613708183928
 30
0.0
  0
SPLINE
  5
5E
330
1F
100
AcDbEntity
  8
Layer 1
370
     0
100
AcDbSpline
210
0.0
220
0.0
230
1.0
 70
    11
 71
     3
 72
    17
 73
    13
 74
     0
 42
0.0000000001
 43
0.0000000001
 12
1.0
 22
0.0
 32
0.0
 13
1.0
 23
0.0
 33
0.0
 40
0.0
 40
0.0
 40
0.0
 40
0.0
 40
1.0
 40
1.0
 40
1.0
 40
2.0
 40
2.0
 40
2.0
 40
3.0
 40
3.0
 40
3.0
 40
4.0
 40
4.0
 40
4.0
 40
4.0
 10
149.8612940147864
 20
-104.8612996157082
 30
0.0
 10
149.0327485505838
 20
-104.8612996157082
 30
0.0
 10
148.3612994405086
 20
-104.1897643782478
 30
0.0
 10
148.3612994405086
 20
-103.3613050414305
 30
0.0
 10
148.3612994405086
 20
-102.5329318320021
 30
0.0
 10
149.0327485505838
 20
-101.8613104671527
 30
0.0
 10
149.8612940147864
 20
-101.8613104671527
 30
0.0
 10
150.6896672242147
 20
-101.8613104671527
 30
0.0
 10
151.3612885890642
 20
-102.5329318320021
 30
0.0
 10
151.3612885890642
 20
-103.3613050414305
 30
0.0
 10
151.3612885890642
 20
-104.1897643782478
 30
0.0
 10
150.6896672242147
 20
-104.8612996157082
 30
0.0
 10
149.8612940147864
 20
-104.8612996157082
 30
0.0
  0
SPLINE
  5
5F
330
1F
100
AcDbEntity
  8
Layer 1
370
     0
100
AcDbSpline
210
0.0
220
0.0
230
1.0
 70
    11
 71
     3
 72
    17
 73
    13
 74
     0
 42
0.0000000001
 43
0.0000000001
 12
1.0
 22
0.0
 32
0.0
 13
1.0
 23
0.0
 33
0.0
 40
0.0
 40
0.0
 40
0.0
 40
0.0
 40
1.0
 40
1.0
 40
1.0
 40
2.0
 40
2.0
 40
2.0
 40
3.0
 40
3.0
 40
3.0
 40
4.0
 40
4.0
 40
4.0
 40
4.0
 10
153.1573891202992
 20
-132.4680555224347
 30
0.0
 10
152.3290159108709
 20
-132.4680555224347
 30
0.0
 10
151.6573945460214
 20
-131.7964341575853
 30
0.0
 10
151.6573945460214
 20
-130.9680609481569
 30
0.0
 10
151.6573945460214
 20
-130.139601611344
 30
0.0
 10
152.3290159108709
 20
-129.4679802464946
 30
0.0
 10
153.1573891202992
 20
-129.4679802464946
 30
0.0
 10
153.9857623297275
 20
-129.4679802464946
 30
0.0
 10
154.6573836945769
 20
-130.139601611344
 30
0.0
 10
154.6573836945769
 20
-130.9680609481569
 30
0.0
 10
154.6573836945769
 20
-131.7964341575853
 30
0.0
 10
153.9857623297275
 20
-132.4680555224347
 30
0.0
 10
153.1573891202992
 20
-132.4680555224347
 30
0.0
  0
SPLINE
  5
60
330
1F
100
AcDbEntity
  8
Layer 1
370
     0
100
AcDbSpline
210
0.0
220
0.0
230
1.0
 70
    11
 71
     3
 72
    17
 73
    13
 74
     0
 42
0.0000000001
 43
0.0000000001
 12
1.0
 22
0.0
 32
0.0
 13
1.0
 23
0.0
 33
0.0
 40
0.0
 40
0.0
 40
0.0
 40
0.0
 40
1.0
 40
1.0
 40
1.0
 40
2.0
 40
2.0
 40
2.0
 40
3.0
 40
3.0
 40
3.0
 40
4.0
 40
4.0
 40
4.0
 40
4.0
 10
178.316404684756
 20
-154.7587707132622
 30
0.0
 10
177.7641558784704
 20
-154.7587707132622
 30
0.0
 10
177.3162934653879
 20
-154.3110805549539
 30
0.0
 10
177.3162934653879
 20
-153.7587456212787
 30
0.0
 10
177.3162934653879
 20
-153.2064968149931
 30
0.0
 10
177.7639836236961
 20
-152.7588066566849
 30
0.0
 10
178.316404684756
 20
-152.7588066566849
 30
0.0
 10
178.8686534910415
 20
-152.7588066566849
 30
0.0
 10
179.3163436493497
 20
-153.2064968149931
 30
0.0
 10
179.3163436493497
 20
-153.7587456212787
 30
0.0
 10
179.3163436493497
 20
-154.3110805549539
 30
0.0
 10
178.8686534910415
 20
-154.7587707132622
 30
0.0
 10
178.316404684756
 20
-154.7587707132622
 30
0.0
  0
SPLINE
  5
61
330
1F
100
AcDbEntity
  8
Layer 1
370
     0
100
AcDbSpline
210
0.0
220
0.0
230
1.0
 70
    11
 71
     3
 72
    17
 73
    13
 74
     0
 42
0.0000000001
 43
0.0000000001
 12
1.0
 22
0.0
 32
0.0
 13
1.0
 23
0.0
 33
0.0
 40
0.0
 40
0.0
 40
0.0
 40
0.0
 40
1.0
 40
1.0
 40
1.0
 40
2.0
 40
2.0
 40
2.0
 40
3.0
 40
3.0
 40
3.0
 40
4.0
 40
4.0
 40
4.0
 40
4.0
 10
182.8163884075893
 20
-148.258736806467
 30
0.0
 10
183.3686372138748
 20
-148.258736806467
 30
0.0
 10
183.8163273721831
 20
-148.7065130921598
 30
0.0
 10
183.8163273721831
 20
-149.2587618984454
 30
0.0
 10
183.8163273721831
 20
-149.8110107047309
 30
0.0
 10
183.3686372138748
 20
-150.2587869904288
 30
0.0
 10
182.8163884075893
 20
-150.2587869904288
 30
0.0
 10
182.2641396013037
 20
-150.2587869904288
 30
0.0
 10
181.8162771882212
 20
-149.8110107047309
 30
0.0
 10
181.8162771882212
 20
-149.2587618984454
 30
0.0
 10
181.8162771882212
 20
-148.7065130921598
 30
0.0
 10
182.2641396013037
 20
-148.258736806467
 30
0.0
 10
182.8163884075893
 20
-148.258736806467
 30
0.0
  0
SPLINE
  5
62
330
1F
100
AcDbEntity
  8
Layer 1
370
     0
100
AcDbSpline
210
0.0
220
0.0
230
1.0
 70
    11
 71
     3
 72
    17
 73
    13
 74
     0
 42
0.0000000001
 43
0.0000000001
 12
1.0
 22
0.0
 32
0.0
 13
1.0
 23
0.0
 33
0.0
 40
0.0
 40
0.0
 40
0.0
 40
0.0
 40
1.0
 40
1.0
 40
1.0
 40
2.0
 40
2.0
 40
2.0
 40
3.0
 40
3.0
 40
3.0
 40
4.0
 40
4.0
 40
4.0
 40
4.0
 10
182.8163884075893
 20
-159.2587544360955
 30
0.0
 10
182.2641396013037
 20
-159.2587544360955
 30
0.0
 10
181.8164494429955
 20
-158.8110642777873
 30
0.0
 10
181.8164494429955
 20
-158.258729344112
 30
0.0
 10
181.8164494429955
 20
-157.7064805378265
 30
0.0
 10
182.2641396013037
 20
-157.2587903795183
 30
0.0
 10
182.8163884075893
 20
-157.2587903795183
 30
0.0
 10
183.3686372138748
 20
-157.2587903795183
 30
0.0
 10
183.8164996269573
 20
-157.7064805378265
 30
0.0
 10
183.8164996269573
 20
-158.258729344112
 30
0.0
 10
183.8164996269573
 20
-158.8110642777873
 30
0.0
 10
183.3686372138748
 20
-159.2587544360955
 30
0.0
 10
182.8163884075893
 20
-159.2587544360955
 30
0.0
  0
SPLINE
  5
63
330
1F
100
AcDbEntity
  8
Layer 1
370
     0
100
AcDbSpline
210
0.0
220
0.0
230
1.0
 70
    11
 71
     3
 72
    17
 73
    13
 74
     0
 42
0.0000000001
 43
0.0000000001
 12
1.0
 22
0.0
 32
0.0
 13
1.0
 23
0.0
 33
0.0
 40
0.0
 40
0.0
 40
0.0
 40
0.0
 40
1.0
 40
1.0
 40
1.0
 40
2.0
 40
2.0
 40
2.0
 40
3.0
 40
3.0
 40
3.0
 40
4.0
 40
4.0
 40
4.0
 40
4.0
 10
184.584066901071
 20
-155.5265102421501
 30
0.0
 10
183.6077268405512
 20
-156.5028503026699
 30
0.0
 10
182.0248777198531
 20
-156.5028503026699
 30
0.0
 10
181.0485376593333
 20
-155.5265102421501
 30
0.0
 10
180.0721975988135
 20
-154.5502563090149
 30
0.0
 10
180.0721975988135
 20
-152.9673210609322
 30
0.0
 10
181.0485376593333
 20
-151.9909810004124
 30
0.0
 10
182.0248777198531
 20
-151.0147270672772
 30
0.0
 10
183.6077268405512
 20
-151.0147270672772
 30
0.0
 10
184.584066901071
 20
-151.9909810004124
 30
0.0
 10
185.5604069615908
 20
-152.9672349335426
 30
0.0
 10
185.5604069615908
 20
-154.5501701816303
 30
0.0
 10
184.584066901071
 20
-155.5265102421501
 30
0.0
  0
SPLINE
  5
64
330
1F
100
AcDbEntity
  8
Layer 1
370
     0
100
AcDbSpline
210
0.0
220
0.0
230
1.0
 70
    11
 71
     3
 72
    17
 73
    13
 74
     0
 42
0.0000000001
 43
0.0000000001
 12
1.0
 22
0.0
 32
0.0
 13
1.0
 23
0.0
 33
0.0
 40
0.0
 40
0.0
 40
0.0
 40
0.0
 40
1.0
 40
1.0
 40
1.0
 40
2.0
 40
2.0
 40
2.0
 40
3.0
 40
3.0
 40
3.0
 40
4.0
 40
4.0
 40
4.0
 40
4.0
 10
187.3163721304226
 20
-154.7586845858725
 30
0.0
 10
186.7641233241371
 20
-154.7586845858725
 30
0.0
 10
186.3162609110546
 20
-154.3109944275643
 30
0.0
 10
186.3162609110546
 20
-153.7587456212787
 30
0.0
 10
186.3162609110546
 20
-153.2064968149931
 30
0.0
 10
186.7641233241371
 20
-152.7587205293004
 30
0.0
 10
187.3163721304226
 20
-152.7587205293004
 30
0.0
 10
187.8686209367082
 20
-152.7587205293004
 30
0.0
 10
188.3163110950164
 20
-153.2064106876086
 30
0.0
 10
188.3163110950164
 20
-153.7587456212787
 30
0.0
 10
188.3163110950164
 20
-154.3109944275643
 30
0.0
 10
187.8686209367082
 20
-154.7586845858725
 30
0.0
 10
187.3163721304226
 20
-154.7586845858725
 30
0.0
  0
SPLINE
  5
65
330
1F
100
AcDbEntity
  8
Layer 1
370
     0
100
AcDbSpline
210
0.0
220
0.0
230
1.0
 70
    11
 71
     3
 72
    17
 73
    13
 74
     0
 42
0.0000000001
 43
0.0000000001
 12
1.0
 22
0.0
 32
0.0
 13
1.0
 23
0.0
 33
0.0
 40
0.0
 40
0.0
 40
0.0
 40
0.0
 40
1.0
 40
1.0
 40
1.0
 40
2.0
 40
2.0
 40
2.0
 40
3.0
 40
3.0
 40
3.0
 40
4.0
 40
4.0
 40
4.0
 40
4.0
 10
191.3119938742154
 20
-161.0456393369049
 30
0.0
 10
192.0022187546852
 20
-161.0456393369049
 30
0.0
 10
192.561874516264
 20
-161.6052950984837
 30
0.0
 10
192.561874516264
 20
-162.2956061063432
 30
0.0
 10
192.561874516264
 20
-162.9859171141976
 30
0.0
 10
192.0022187546852
 20
-163.5455728757764
 30
0.0
 10
191.3119938742154
 20
-163.5455728757764
 30
0.0
 10
190.6215967389713
 20
-163.5455728757764
 30
0.0
 10
190.0619409773925
 20
-162.9859171141976
 30
0.0
 10
190.0619409773925
 20
-162.2956061063432
 30
0.0
 10
190.0619409773925
 20
-161.6052950984837
 30
0.0
 10
190.6215967389713
 20
-161.0456393369049
 30
0.0
 10
191.3119938742154
 20
-161.0456393369049
 30
0.0
  0
HATCH
  5
66
330
1F
100
AcDbEntity
  8
Layer 1
 62
     7
420
 16777215
100
AcDbHatch
 10
0.0
 20
0.0
 30
0.0
210
0.0
220
0.0
230
1.0
  2
SOLID
 70
     1
 71
     0
 91
       37
 92
        1
 93
        1
 72
     4
 94
        3
 73
     0
 74
     1
 95
      509
 96
      505
 40
0.0
 40
0.0
 40
0.0
 40
0.0
 40
1.0
 40
1.0
 40
1.0
 40
2.0
 40
2.0
 40
2.0
 40
3.0
 40
3.0
 40
3.0
 40
4.0
 40
4.0
 40
4.0
 40
5.0
 40
5.0
 40
5.0
 40
6.0
 40
6.0
 40
6.0
 40
7.0
 40
7.0
 40
7.0
 40
8.0
 40
8.0
 40
8.0
 40
9.0
 40
9.0
 40
9.0
 40
10.0
 40
10.0
 40
10.0
 40
11.0
 40
11.0
 40
11.0
 40
12.0
 40
12.0
 40
12.0
 40
13.0
 40
13.0
 40
13.0
 40
14.0
 40
14.0
 40
14.0
 40
15.0
 40
15.0
 40
15.0
 40
16.0
 40
16.0
 40
16.0
 40
17.0
 40
17.0
 40
17.0
 40
18.0
 40
18.0
 40
18.0
 40
19.0
 40
19.0
 40
19.0
 40
20.0
 40
20.0
 40
20.0
 40
21.0
 40
21.0
 40
21.0
 40
22.0
 40
22.0
 40
22.0
 40
23.0
 40
23.0
 40
23.0
 40
24.0
 40
24.0
 40
24.0
 40
25.0
 40
25.0
 40
25.0
 40
26.0
 40
26.0
 40
26.0
 40
27.0
 40
27.0
 40
27.0
 40
28.0
 40
28.0
 40
28.0
 40
29.0
 40
29.0
 40
29.0
 40
30.0
 40
30.0
 40
30.0
 40
31.0
 40
31.0
 40
31.0
 40
32.0
 40
32.0
 40
32.0
 40
33.0
 40
33.0
 40
33.0
 40
34.0
 40
34.0
 40
34.0
 40
35.0
 40
35.0
 40
35.0
 40
36.0
 40
36.0
 40
36.0
 40
37.0
 40
37.0
 40
37.0
 40
38.0
 40
38.0
 40
38.0
 40
39.0
 40
39.0
 40
39.0
 40
40.0
 40
40.0
 40
40.0
 40
41.0
 40
41.0
 40
41.0
 40
42.0
 40
42.0
 40
42.0
 40
43.0
 40
43.0
 40
43.0
 40
44.0
 40
44.0
 40
44.0
 40
45.0
 40
45.0
 40
45.0
 40
46.0
 40
46.0
 40
46.0
 40
47.0
 40
47.0
 40
47.0
 40
48.0
 40
48.0
 40
48.0
 40
49.0
 40
49.0
 40
49.0
 40
50.0
 40
50.0
 40
50.0
 40
51.0
 40
51.0
 40
51.0
 40
52.0
 40
52.0
 40
52.0
 40
53.0
 40
53.0
 40
53.0
 40
54.0
 40
54.0
 40
54.0
 40
55.0
 40
55.0
 40
55.0
 40
56.0
 40
56.0
 40
56.0
 40
57.0
 40
57.0
 40
57.0
 40
58.0
 40
58.0
 40
58.0
 40
59.0
 40
59.0
 40
59.0
 40
60.0
 40
60.0
 40
60.0
 40
61.0
 40
61.0
 40
61.0
 40
62.0
 40
62.0
 40
62.0
 40
63.0
 40
63.0
 40
63.0
 40
64.0
 40
64.0
 40
64.0
 40
65.0
 40
65.0
 40
65.0
 40
66.0
 40
66.0
 40
66.0
 40
67.0
 40
67.0
 40
67.0
 40
68.0
 40
68.0
 40
68.0
 40
69.0
 40
69.0
 40
69.0
 40
70.0
 40
70.0
 40
70.0
 40
71.0
 40
71.0
 40
71.0
 40
72.0
 40
72.0
 40
72.0
 40
73.0
 40
73.0
 40
73.0
 40
74.0
 40
74.0
 40
74.0
 40
75.0
 40
75.0
 40
75.0
 40
76.0
 40
76.0
 40
76.0
 40
77.0
 40
77.0
 40
77.0
 40
78.0
 40
78.0
 40
78.0
 40
79.0
 40
79.0
 40
79.0
 40
80.0
 40
80.0
 40
80.0
 40
81.0
 40
81.0
 40
81.0
 40
82.0
 40
82.0
 40
82.0
 40
83.0
 40
83.0
 40
83.0
 40
84.0
 40
84.0
 40
84.0
 40
85.0
 40
85.0
 40
85.0
 40
86.0
 40
86.0
 40
86.0
 40
87.0
 40
87.0
 40
87.0
 40
88.0
 40
88.0
 40
88.0
 40
89.0
 40
89.0
 40
89.0
 40
90.0
 40
90.0
 40
90.0
 40
91.0
 40
91.0
 40
91.0
 40
92.0
 40
92.0
 40
92.0
 40
93.0
 40
93.0
 40
93.0
 40
94.0
 40
94.0
 40
94.0
 40
95.0
 40
95.0
 40
95.0
 40
96.0
 40
96.0
 40
96.0
 40
97.0
 40
97.0
 40
97.0
 40
98.0
 40
98.0
 40
98.0
 40
99.0
 40
99.0
 40
99.0
 40
100.0
 40
100.0
 40
100.0
 40
101.0
 40
101.0
 40
101.0
 40
102.0
 40
102.0
 40
102.0
 40
103.0
 40
103.0
 40
103.0
 40
104.0
 40
104.0
 40
104.0
 40
105.0
 40
105.0
 40
105.0
 40
106.0
 40
106.0
 40
106.0
 40
107.0
 40
107.0
 40
107.0
 40
108.0
 40
108.0
 40
108.0
 40
109.0
 40
109.0
 40
109.0
 40
110.0
 40
110.0
 40
110.0
 40
111.0
 40
111.0
 40
111.0
 40
112.0
 40
112.0
 40
112.0
 40
113.0
 40
113.0
 40
113.0
 40
114.0
 40
114.0
 40
114.0
 40
115.0
 40
115.0
 40
115.0
 40
116.0
 40
116.0
 40
116.0
 40
117.0
 40
117.0
 40
117.0
 40
118.0
 40
118.0
 40
118.0
 40
119.0
 40
119.0
 40
119.0
 40
120.0
 40
120.0
 40
120.0
 40
121.0
 40
121.0
 40
121.0
 40
122.0
 40
122.0
 40
122.0
 40
123.0
 40
123.0
 40
123.0
 40
124.0
 40
124.0
 40
124.0
 40
125.0
 40
125.0
 40
125.0
 40
126.0
 40
126.0
 40
126.0
 40
127.0
 40
127.0
 40
127.0
 40
128.0
 40
128.0
 40
128.0
 40
129.0
 40
129.0
 40
129.0
 40
130.0
 40
130.0
 40
130.0
 40
131.0
 40
131.0
 40
131.0
 40
132.0
 40
132.0
 40
132.0
 40
133.0
 40
133.0
 40
133.0
 40
134.0
 40
134.0
 40
134.0
 40
135.0
 40
135.0
 40
135.0
 40
136.0
 40
136.0
 40
136.0
 40
137.0
 40
137.0
 40
137.0
 40
138.0
 40
138.0
 40
138.0
 40
139.0
 40
139.0
 40
139.0
 40
140.0
 40
140.0
 40
140.0
 40
141.0
 40
141.0
 40
141.0
 40
142.0
 40
142.0
 40
142.0
 40
143.0
 40
143.0
 40
143.0
 40
144.0
 40
144.0
 40
144.0
 40
145.0
 40
145.0
 40
145.0
 40
146.0
 40
146.0
 40
146.0
 40
147.0
 40
147.0
 40
147.0
 40
148.0
 40
148.0
 40
148.0
 40
149.0
 40
149.0
 40
149.0
 40
150.0
 40
150.0
 40
150.0
 40
151.0
 40
151.0
 40
151.0
 40
152.0
 40
152.0
 40
152.0
 40
153.0
 40
153.0
 40
153.0
 40
154.0
 40
154.0
 40
154.0
 40
155.0
 40
155.0
 40
155.0
 40
156.0
 40
156.0
 40
156.0
 40
157.0
 40
157.0
 40
157.0
 40
158.0
 40
158.0
 40
158.0
 40
159.0
 40
159.0
 40
159.0
 40
160.0
 40
160.0
 40
160.0
 40
161.0
 40
161.0
 40
161.0
 40
162.0
 40
162.0
 40
162.0
 40
163.0
 40
163.0
 40
163.0
 40
164.0
 40
164.0
 40
164.0
 40
165.0
 40
165.0
 40
165.0
 40
166.0
 40
166.0
 40
166.0
 40
167.0
 40
167.0
 40
167.0
 40
168.0
 40
168.0
 40
168.0
 40
168.0
 10
190.2922052421246
 20
-153.3737643594021
 10
190.1279765944048
 20
-152.0620273054273
 10
189.0899970105294
 20
-151.0608519160843
 10
187.8233129839112
 20
-150.8162827888853
 10
187.3816076144427
 20
-150.7309990919076
 10
186.9764143606526
 20
-150.5133148225724
 10
186.6582964072331
 20
-150.1952300695593
 10
186.6582964072331
 20
-150.1952300695593
 10
186.3707316036789
 20
-149.9076952777315
 10
186.3707316036789
 20
-149.9076952777315
 10
186.0605786220712
 20
-149.5975746652701
 10
185.8453085326992
 20
-149.2048850497041
 10
185.7563641729696
 20
-148.7753986504492
 10
185.4999684812638
 20
-147.5373385559611
 10
184.4545370597726
 20
-146.4400655854639
 10
183.201890936619
 20
-146.2829970544854
 10
183.0677839960046
 20
-146.2661814672514
 10
182.935108318353
 20
-146.2582877817108
 10
182.8043772699391
 20
-146.2588021091673
 10
181.1740991986273
 20
-146.2652160160706
 10
179.6142548717457
 20
-145.5996698414691
 10
178.4826209958651
 20
-144.4261058257661
 10
178.4826209958651
 20
-144.4261058257661
 10
155.8550036779345
 20
-120.9600732055766
 10
155.8550036779345
 20
-120.9600732055766
 10
154.5969354016578
 20
-119.6553900480583
 10
153.8939505350456
 20
-117.9136010586708
 10
153.8939505350456
 20
-116.1011623895624
 10
153.8939505350456
 20
-116.1011623895624
 10
153.8939505350456
 20
-113.9403320027572
 10
153.8939505350456
 20
-113.9403320027572
 10
153.8939505350488
 20
-113.3880809618549
 10
154.3416384587319
 20
-112.9403930381673
 10
154.8938894996394
 20
-112.9403930381673
 10
154.8938894996394
 20
-112.9403930381673
 10
155.3939451093234
 20
-112.9403930381673
 10
155.3939451093234
 20
-112.9403930381673
 10
155.9461961502296
 20
-112.9403930381673
 10
156.3938840739171
 20
-113.3880809618549
 10
156.3938840739171
 20
-113.9403320027611
 10
156.3938840739171
 20
-113.9403320027611
 10
156.3938840739171
 20
-114.2698553859252
 10
156.3938840739171
 20
-114.2698553859252
 10
156.3938840739171
 20
-114.8221539936737
 10
156.8416105581483
 20
-115.2698804779087
 10
157.3939091658955
 20
-115.2698804779087
 10
157.3939091658955
 20
-115.2698804779087
 10
157.8938786481949
 20
-115.2698804779087
 10
157.8938786481949
 20
-115.2698804779087
 10
158.4461296891011
 20
-115.2698804779087
 10
158.8938176127887
 20
-114.8221925542173
 10
158.8938176127887
 20
-114.2699415133149
 10
158.8938176127887
 20
-114.2699415133149
 10
158.8938176127887
 20
-112.9403930381673
 10
158.8938176127887
 20
-112.9403930381673
 10
158.8938176127887
 20
-112.9403930381673
 10
158.8938176127887
 20
-108.7082654893121
 10
158.8938176127887
 20
-108.7082654893121
 10
158.8938176127887
 20
-108.7082654893121
 10
158.8938176127887
 20
-107.3813869631685
 10
158.8938176127887
 20
-107.3813869631685
 10
158.8938176127887
 20
-106.8291359222617
 10
158.4461296891011
 20
-106.3814479985747
 10
157.8938786481949
 20
-106.3814479985747
 10
157.8938786481949
 20
-106.3814479985747
 10
157.3938230385109
 20
-106.3814479985747
 10
157.3938230385109
 20
-106.3814479985747
 10
156.8415719976034
 20
-106.3814479985747
 10
156.3938840739171
 20
-106.8291359222617
 10
156.3938840739171
 20
-107.3813869631685
 10
156.3938840739171
 20
-107.3813869631685
 10
156.3938840739171
 20
-107.7083265247187
 10
156.3938840739171
 20
-107.7083265247187
 10
156.3938840739171
 20
-108.2605775656255
 10
155.9461961502296
 20
-108.7082654893121
 10
155.3939451093234
 20
-108.7082654893121
 10
155.3939451093234
 20
-108.7082654893121
 10
154.8938894996394
 20
-108.7082654893121
 10
154.8938894996394
 20
-108.7082654893121
 10
154.3416384587319
 20
-108.7082654893121
 10
153.8939505350456
 20
-108.2605775656255
 10
153.8939505350456
 20
-107.7083265247187
 10
153.8939505350456
 20
-107.7083265247187
 10
153.8939505350456
 20
-100.5994796081551
 10
153.8939505350456
 20
-100.5994796081551
 10
153.8939505350456
 20
-98.78731943408312
 10
154.5967199879657
 20
-97.04577576077757
 10
155.8544449848187
 20
-95.74114848496427
 10
155.8544449848187
 20
-95.74114848496427
 10
178.5269906343246
 20
-72.2231127136851
 10
178.5269906343246
 20
-72.2231127136851
 10
179.6511595480429
 20
-71.05702200933625
 10
181.1983901205927
 20
-70.3909807004977
 10
182.8181191836263
 20
-70.3899610461015
 10
182.9484842999904
 20
-70.38987897844774
 10
183.0807891322303
 20
-70.38139873758543
 10
183.2145360006033
 20
-70.36399892361185
 10
184.4601483233706
 20
-70.20195084756408
 10
185.499562962901
 20
-69.1062019584725
 10
185.7558188121235
 20
-67.87342557243149
 10
185.8451563779679
 20
-67.44364712289739
 10
186.0600490778481
 20
-67.05048725589734
 10
186.3704838150793
 20
-66.74013102465092
 10
186.3704838150793
 20
-66.74013102465092
 10
186.6572247064938
 20
-66.45346264727357
 10
186.6572247064938
 20
-66.45346264727357
 10
186.975686583103
 20
-66.13508130663453
 10
187.3814675561478
 20
-65.91774760833883
 10
187.8235912541585
 20
-65.8322415817814
 10
189.085728275506
 20
-65.5881462705602
 10
190.1211323927724
 20
-64.5932250482756
 10
190.2904061749768
 20
-63.28696181263109
 10
190.3116709013937
 20
-63.12286475065176
 10
190.3195177071952
 20
-62.96094428054175
 10
190.3149075742053
 20
-62.80211864159736
 10
190.2690095944301
 20
-61.22086795344686
 10
190.9518166788129
 20
-59.70519942519284
 10
192.0702256923381
 20
-58.58644045125033
 10
192.0702256923381
 20
-58.58644045125033
 10
194.8520239225384
 20
-55.80377177093508
 10
194.8520239225384
 20
-55.80377177093508
 10
195.6329600712313
 20
-55.02259126017677
 10
195.6327508488633
 20
-53.75624207093597
 10
194.8515566142667
 20
-52.97531965061433
 10
194.8515566142667
 20
-52.97531965061433
 10
192.7298731791824
 20
-50.85437444915299
 10
192.7298731791824
 20
-50.85437444915299
 10
191.9486986130933
 20
-50.07347169049891
 10
190.6823882569885
 20
-50.07368062494363
 10
189.9014714229945
 20
-50.85484112033629
 10
189.9014714229945
 20
-50.85484112033629
 10
187.1225829718362
 20
-53.63459663929737
 10
187.1225829718362
 20
-53.63459663929737
 10
186.00329117695
 20
-54.75423767521531
 10
184.4863631660672
 20
-55.43701808652866
 10
182.9038612911961
 20
-55.39121429364758
 10
182.7453104039208
 20
-55.38662521093174
 10
182.5836818792736
 20
-55.39444803283636
 10
182.4198919158138
 20
-55.41563943522122
 10
181.1134316219702
 20
-55.58467131728352
 10
180.1182831567761
 20
-56.62014688584682
 10
179.8740377001334
 20
-57.88241624460947
 10
179.788449409305
 20
-58.32473962889714
 10
179.5709832504675
 20
-58.73069307193495
 10
179.2523602223095
 20
-59.04921261252719
 10
179.2523602223095
 20
-59.04921261252719
 10
178.9749747208013
 20
-59.32650802026729
 10
178.9749747208013
 20
-59.32650802026729
 10
178.6565804684679
 20
-59.64479885933663
 10
178.2509268654063
 20
-59.86216682334074
 10
177.8089076009174
 20
-59.94762399373882
 10
176.5460685365902
 20
-60.19177320119881
 10
175.5102916740281
 20
-61.18767893202322
 10
175.3417809656863
 20
-62.49479131325073
 10
175.320640520662
 20
-62.65877458593635
 10
175.3128878146202
 20
-62.82058465732673
 10
175.3175674422686
 20
-62.97930369563271
 10
175.3642310667241
 20
-64.56199491864203
 10
174.6816944001398
 20
-66.07940213216119
 10
173.5622505389394
 20
-67.19919427487034
 10
173.5622505389394
 20
-67.19919427487034
 10
156.9551991344692
 20
-83.81141246717779
 10
156.9551991344692
 20
-83.81141246717779
 10
156.1040365783812
 20
-84.66283983706508
 10
154.8900661319867
 20
-84.97094128580116
 10
153.7021613839094
 20
-84.77526662579305
 10
153.3934363082141
 20
-84.72441265427696
 10
153.0673147300736
 20
-84.72506427947648
 10
152.7328130128764
 20
-84.78640080502218
 10
151.6724230439534
 20
-84.98084117131678
 10
150.8061692464968
 20
-85.81420662670676
 10
150.5718866332486
 20
-86.86651152518844
 10
150.5694834824484
 20
-86.87730552873688
 10
150.5671450603982
 20
-86.8880912046617
 10
150.5648710263386
 20
-86.8988682739772
 10
150.3158034374893
 20
-88.07924578884285
 10
149.5530052237182
 20
-89.08488874634206
 10
148.4430336118024
 20
-89.5574231494972
 10
148.4430336118024
 20
-89.5574231494972
 10
147.6996807300081
 20
-89.87388152245131
 10
147.6996807300081
 20
-89.87388152245131
 10
142.6922908314852
 20
-92.00561531786055
 10
137.0323883180679
 20
-92.0045489755162
 10
132.0258020248823
 20
-89.87092851742946
 10
132.0258020248823
 20
-89.87092851742946
 10
131.3975052949525
 20
-89.60317187083882
 10
131.3975052949525
 20
-89.60317187083882
 10
130.2832956630727
 20
-89.12833725779934
 10
129.5146307595686
 20
-88.11779063419218
 10
129.274646253685
 20
-86.93063502078186
 10
129.271453075022
 20
-86.91483900110872
 10
129.2681197599659
 20
-86.89902227531684
 10
129.2646451396165
 20
-86.88318565281203
 10
129.0291118230166
 20
-85.80967204702482
 10
128.1390186214882
 20
-84.9603631411999
 10
127.0551211911434
 20
-84.77850120034564
 10
126.7171784942917
 20
-84.72179941932234
 10
126.3885632613191
 20
-84.72710896982399
 10
126.078422224235
 20
-84.78473979704138
 10
124.8804383232769
 20
-85.00735078671745
 10
123.6476270023444
 20
-84.67862366624104
 10
122.7860396658325
 20
-83.81700406268415
 10
122.7860396658325
 20
-83.81700406268415
 10
106.2017676346759
 20
-67.2321109390293
 10
106.2017676346759
 20
-67.2321109390293
 10
105.0764593858424
 20
-66.10676054662224
 10
104.3939507967464
 20
-64.57977532753465
 10
104.4459043932637
 20
-62.98916758695619
 10
104.4510962002034
 20
-62.83021558260598
 10
104.4438527059261
 20
-62.66817146229782
 10
104.4232270509065
 20
-62.50397558300815
 10
104.2585077345738
 20
-61.19268471917319
 10
103.2206738673518
 20
-60.19208010649186
 10
101.9543482659121
 20
-59.94749988856962
 10
101.5125004134259
 20
-59.86216066465538
 10
101.1071592706008
 20
-59.64445204304498
 10
100.7889729967557
 20
-59.32622287559121
 10
100.7889729967557
 20
-59.32622287559121
 10
100.5112373013557
 20
-59.04844973958952
 10
100.5112373013557
 20
-59.04844973958952
 10
100.1931258071169
 20
-58.73029536182575
 10
99.97547065781197
 20
-58.32504418639053
 10
99.89017697974607
 20
-57.88329525391798
 10
99.64566022544557
 20
-56.61690579070537
 10
98.64503109230237
 20
-55.57901045916998
 10
97.333694877145
 20
-55.4142535567842
 10
97.1695314178788
 20
-55.39362798210342
 10
97.00751971383119
 20
-55.38637738559033
 10
96.84859892007566
 20
-55.39155610847467
 10
95.2580193410345
 20
-55.44338803476652
 10
93.73109612838499
 20
-54.76088371084121
 10
92.6058040549278
 20
-53.63556255879076
 10
92.6058040549278
 20
-53.63556255879076
 10
89.86190668330653
 20
-50.89159428231135
 10
89.86190668330653
 20
-50.89159428231135
 10
89.08084180929733
 20
-50.11050922485499
 10
87.81445975893747
 20
-50.11052307937275
 10
87.03341197561771
 20
-50.89162522670424
 10
87.03341197561771
 20
-50.89162522670424
 10
84.91216239962743
 20
-53.01302245005476
 10
84.91216239962743
 20
-53.01302245005476
 10
84.13117110280314
 20
-53.79406810695652
 10
84.13118060778663
 20
-55.06033859431854
 10
84.9121836300194
 20
-55.84137252645417
 10
84.9121836300194
 20
-55.84137252645417
 10
87.69274646862972
 20
-58.62204541191935
 10
87.69274646862972
 20
-58.62204541191935
 10
88.80514501176427
 20
-59.73448798065817
 10
89.48901988844705
 20
-61.23966632420378
 10
89.44858668797173
 20
-62.81234688420858
 10
89.44449809285688
 20
-62.97137594884693
 10
89.45293279447522
 20
-63.13350868375037
 10
89.47487091711893
 20
-63.29783791527271
 10
89.64857429902335
 20
-64.59897674659948
 10
90.68137202872391
 20
-65.58822082852049
 10
91.93918377170252
 20
-65.83198402968979
 10
92.38181400100012
 20
-65.91776551665102
 10
92.78824212460383
 20
-66.13485676222795
 10
93.10705115343347
 20
-66.45366828418094
 10
93.10705115343347
 20
-66.45366828418094
 10
93.39378254151241
 20
-66.74040191453662
 10
93.39378254151241
 20
-66.74040191453662
 10
93.7042630810078
 20
-67.05088488202867
 10
93.91877874761292
 20
-67.44427109066874
 10
94.00836921330597
 20
-67.8741215146122
 10
94.26441820756723
 20
-69.10263135533283
 10
95.29910490048962
 20
-70.19684067826724
 10
96.53914937583718
 20
-70.36260843931515
 10
96.67357269239602
 20
-70.3805779981984
 10
96.80653066194729
 20
-70.38951138312815
 10
96.93752538096908
 20
-70.3899452782188
 10
98.54855660869632
 20
-70.39528151271557
 10
100.0855916907601
 20
-71.062611297803
 10
101.2039139666089
 20
-72.22226873837457
 10
101.2039139666089
 20
-72.22226873837457
 10
123.9326710145465
 20
-95.7911207542247
 10
123.9326710145465
 20
-95.7911207542247
 10
125.1908700460748
 20
-97.09582504219297
 10
125.8939369786775
 20
-98.83770735886735
 10
125.8939369786775
 20
-100.6502520016197
 10
125.8939369786775
 20
-100.6502520016197
 10
125.8939369786775
 20
-107.684296983711
 10
125.8939369786775
 20
-107.684296983711
 10
125.8939369786775
 20
-108.2365955899418
 10
125.4462104960403
 20
-108.6843220731357
 10
124.8939118898063
 20
-108.6843220738236
 10
124.8939118898063
 20
-108.6843220738236
 10
124.3939424022122
 20
-108.6843220744448
 10
124.3939424022122
 20
-108.6843220744448
 10
123.8416913627158
 20
-108.6843220751327
 10
123.394003439806
 20
-108.2366341527795
 10
123.394003439806
 20
-107.6843831132831
 10
123.394003439806
 20
-107.6843831132831
 10
123.394003439806
 20
-107.3548597279321
 10
123.394003439806
 20
-107.3548597279321
 10
123.394003439806
 20
-106.8025611201843
 10
122.9462769555748
 20
-106.3548346359531
 10
122.3939783478225
 20
-106.3548346359531
 10
122.3939783478225
 20
-106.3548346359531
 10
121.8940088655282
 20
-106.3548346359531
 10
121.8940088655282
 20
-106.3548346359531
 10
121.3417578246207
 20
-106.3548346359531
 10
120.8940699009344
 20
-106.80252255964
 10
120.8940699009344
 20
-107.3547736005469
 10
120.8940699009344
 20
-107.3547736005469
 10
120.8940699009344
 20
-108.6843220756897
 10
120.8940699009344
 20
-108.6843220756897
 10
120.8940699009344
 20
-108.6843220756897
 10
120.8940699009344
 20
-112.9164496245448
 10
120.8940699009344
 20
-112.9164496245448
 10
120.8940699009344
 20
-112.9164496245448
 10
120.8940699009344
 20
-114.2433281506888
 10
120.8940699009344
 20
-114.2433281506888
 10
120.8940699009344
 20
-114.7955791915963
 10
121.3417578246207
 20
-115.2432671152826
 10
121.8940088655282
 20
-115.2432671152826
 10
121.8940088655282
 20
-115.2432671152826
 10
122.3940644752122
 20
-115.2432671152826
 10
122.3940644752122
 20
-115.2432671152826
 10
122.9463155161184
 20
-115.2432671152826
 10
123.394003439806
 20
-114.7955791915963
 10
123.394003439806
 20
-114.2433281506888
 10
123.394003439806
 20
-114.2433281506888
 10
123.394003439806
 20
-113.9163885891386
 10
123.394003439806
 20
-113.9163885891386
 10
123.394003439806
 20
-113.3641375482324
 10
123.8416913634923
 20
-112.9164496245448
 10
124.3939424043998
 20
-112.9164496245448
 10
124.3939424043998
 20
-112.9164496245448
 10
124.8938257593095
 20
-112.9164496245448
 10
124.8938257593095
 20
-112.9164496245448
 10
125.4461719339015
 20
-112.9164496245448
 10
125.8939369786775
 20
-113.3642146693209
 10
125.8939369786775
 20
-113.9165608439128
 10
125.8939369786775
 20
-113.9165608439128
 10
125.8939369786775
 20
-116.057604505246
 10
125.8939369786775
 20
-116.057604505246
 10
125.8939369786775
 20
-117.8697735474223
 10
125.191160686796
 20
-119.611325036617
 10
123.9334247871939
 20
-120.9159541196409
 10
123.9334247871939
 20
-120.9159541196409
 10
101.2688027882053
 20
-144.4255995268962
 10
101.2688027882053
 20
-144.4255995268962
 10
100.1390421724452
 20
-145.5974819202011
 10
98.582260192516
 20
-146.2624868462733
 10
96.95448449540437
 20
-146.2587892074424
 10
96.82436500609595
 20
-146.2584936293258
 10
96.69231620441307
 20
-146.2665350987559
 10
96.5588411442126
 20
-146.2834232195167
 10
95.30799164727735
 20
-146.4416887211375
 10
94.26408384696258
 20
-147.5384381779958
 10
94.00780387079244
 20
-148.7751057570102
 10
93.9188115349
 20
-149.2045342992795
 10
93.70370714238835
 20
-149.5972231049674
 10
93.39363259322603
 20
-149.9073557906484
 10
93.39363259322603
 20
-149.9073557906484
 10
93.1060202643598
 20
-150.1950220445503
 10
93.1060202643598
 20
-150.1950220445503
 10
92.78778650252956
 20
-150.5133154726918
 10
92.38235304422737
 20
-150.7309882088087
 10
91.94043370557817
 20
-150.8163739903972
 10
90.67480236287501
 20
-151.0609139142144
 10
89.63743873787608
 20
-152.0606837948703
 10
89.47209017689019
 20
-153.3711824644562
 10
89.4513833142681
 20
-153.5352982920012
 10
89.44405209907563
 20
-153.6972561212883
 10
89.4491488603335
 20
-153.8561214839026
 10
89.50012733007675
 20
-155.4451135281817
 10
88.81782946841852
 20
-156.9702136295259
 10
87.69383232471844
 20
-158.0945467394656
 10
87.69383232471844
 20
-158.0945467394656
 10
84.91171841814314
 20
-160.8774922285361
 10
84.91171841814314
 20
-160.8774922285361
 10
84.13079220460757
 20
-161.6586518633456
 10
84.13097495178293
 20
-162.9249706487377
 10
84.91212659689133
 20
-163.705904854278
 10
84.91212659689133
 20
-163.705904854278
 10
87.0339084260186
 20
-165.8270960691216
 10
87.0339084260186
 20
-165.8270960691216
 10
87.81507121787823
 20
-166.6080414183086
 10
89.08141200093604
 20
-166.6078588876752
 10
89.86234962907702
 20
-165.8266883769988
 10
89.86234962907702
 20
-165.8266883769988
 10
92.67395049243326
 20
-163.0142490692952
 10
92.67395049243326
 20
-163.0142490692952
 10
93.78730073631056
 20
-161.9005668144905
 10
95.29421678511983
 20
-161.216445726711
 10
96.86842673761774
 20
-161.2576762454304
 10
97.02750962473864
 20
-161.2618428243205
 10
97.18969462561046
 20
-161.2534814726139
 10
97.35406892077958
 20
-161.23161280803
 10
98.65593624277547
 20
-161.0584099373102
 10
99.64589947889999
 20
-160.0251390638604
 10
99.8897313493468
 20
-158.7666822986447
 10
99.97549418951189
 20
-158.324046041913
 10
100.1926525207186
 20
-157.9176362861428
 10
100.51148405034
 20
-157.5988439144527
 10
100.51148405034
 20
-157.5988439144527
 10
100.7880350408695
 20
-157.322326889081
 10
100.7880350408695
 20
-157.322326889081
 10
101.1067645216311
 20
-157.0036365537178
 10
101.5130341976466
 20
-156.7865051524836
 10
101.9555344886049
 20
-156.7007992351796
 10
103.2143516973248
 20
-156.4569845173237
 10
104.2478095440343
 20
-155.4665022023373
 10
104.4205691705909
 20
-154.1642000536731
 10
104.4424181471681
 20
-153.9994973988121
 10
104.450710967558
 20
-153.836994348817
 10
104.4464301711472
 20
-153.6776087668092
 10
104.4041455879954
 20
-152.1032398295864
 10
105.0882735179705
 20
-150.5958716561525
 10
106.2017460678213
 20
-149.4820474253237
 10
106.2017460678213
 20
-149.4820474253237
 10
121.4694019219801
 20
-134.2095694100203
 10
121.4694019219801
 20
-134.2095694100203
 10
122.511244978484
 20
-133.1673972961141
 10
124.0695071505178
 20
-132.9407424972837
 10
125.429707608009
 20
-133.5076766952497
 10
125.899921202543
 20
-133.7036626366034
 10
126.4363087900997
 20
-133.7727127933454
 10
126.996311869843
 20
-133.6719982040929
 10
128.0635318472657
 20
-133.4800624352392
 10
128.9339281309468
 20
-132.6391371397014
 10
129.1680883980711
 20
-131.5803799489932
 10
129.1705085455075
 20
-131.5694372364012
 10
129.1728614737838
 20
-131.5585039047715
 10
129.1751475602842
 20
-131.5475802240502
 10
129.4253934854613
 20
-130.3518220633479
 10
130.1931511271529
 20
-129.3307403434233
 10
131.3170203995656
 20
-128.8518056292099
 10
131.3170203995656
 20
-128.8518056292099
 10
132.0254092440516
 20
-128.5499270948356
 10
132.0254092440516
 20
-128.5499270948356
 10
137.0321286331567
 20
-126.4163233220224
 10
142.6921354920099
 20
-126.4152412740569
 10
147.6996702956211
 20
-128.5469305786326
 10
147.6996702956211
 20
-128.5469305786326
 10
148.317841093571
 20
-128.810083632992
 10
148.317841093571
 20
-128.810083632992
 10
149.446162182147
 20
-129.2904058056711
 10
150.2216779344661
 20
-130.3153803169297
 10
150.4624134966293
 20
-131.5178212749818
 10
150.4661103801099
 20
-131.5362866985102
 10
150.4699998915809
 20
-131.554781291173
 10
150.474083964889
 20
-131.5733037821508
 10
150.7107996502149
 20
-132.6468800405831
 10
151.5990011015699
 20
-133.4971789907167
 10
152.6833401442661
 20
-133.6783119221068
 10
153.2493406359246
 20
-133.7728592216006
 10
153.789964862638
 20
-133.6942857926607
 10
154.2612070943877
 20
-133.4870882689544
 10
155.6099142102163
 20
-132.8940837464913
 10
157.1733684385778
 20
-133.1055189447121
 10
158.215139911254
 20
-134.1473334419575
 10
158.215139911254
 20
-134.1473334419575
 10
173.5615660222358
 20
-149.4943933515829
 10
173.5615660222358
 20
-149.4943933515829
 10
174.6732915594242
 20
-150.6061648024005
 10
175.3573624159386
 20
-152.1102145917519
 10
175.3173996170465
 20
-153.6819564292
 10
175.3133535788158
 20
-153.841087614657
 10
175.3218460241066
 20
-154.0033276454618
 10
175.3438566080077
 20
-154.1677701880677
 10
175.5179275550796
 20
-155.4682658612424
 10
176.5502015328926
 20
-156.4569459793114
 10
177.8074049386005
 20
-156.7006951602237
 10
178.2500729622338
 20
-156.7865205467037
 10
178.6565536297316
 20
-157.0035853358108
 10
178.9753857653255
 20
-157.3224380375765
 10
178.9753857653255
 20
-157.3224380375765
 10
179.2527896890229
 20
-157.5998598551364
 10
179.2527896890229
 20
-157.5998598551364
 10
179.5715575948295
 20
-157.9186483229733
 10
179.7886196822515
 20
-158.3250363163022
 10
179.874405814773
 20
-158.7676194208882
 10
180.1181594840851
 20
-160.025179967527
 10
181.107313540366
 20
-161.0576497875829
 10
182.4082304492466
 20
-161.2313964158495
 10
182.5716925985921
 20
-161.253227938757
 10
182.7329649147473
 20
-161.26170380734
 10
182.8911613791262
 20
-161.2577881163508
 10
184.4635307230443
 20
-161.2188687100632
 10
185.9682102994874
 20
-161.9015465455155
 10
187.0803552150063
 20
-163.0137487576917
 10
187.0803552150063
 20
-163.0137487576917
 10
189.8977310270739
 20
-165.831269718303
 10
189.8977310270739
 20
-165.831269718303
 10
190.6787929750773
 20
-166.6123719058902
 10
191.9451890476879
 20
-166.6123661805743
 10
192.7262439330169
 20
-165.8312569307363
 10
192.7262439330169
 20
-165.8312569307363
 10
194.8474752144314
 20
-163.7098780032393
 10
194.8474752144314
 20
-163.7098780032393
 10
195.6284665443744
 20
-162.928832313211
 10
195.6284569526852
 20
-161.6625617454121
 10
194.8474537903708
 20
-160.8815278871103
 10
194.8474537903708
 20
-160.8815278871103
 10
192.0705502597189
 20
-158.104515215039
 10
192.0705502597189
 20
-158.104515215039
 10
190.9446300014779
 20
-156.9785507044372
 10
190.2621472998244
 20
-155.450525209784
 10
190.3147008200781
 20
-153.8590697015904
 10
190.3199510136765
 20
-153.7000803612611
 10
190.3127671680393
 20
-153.5379978259473
 10
190.2922052421246
 20
-153.3737643594021
 97
        0
 97
        0
 92
        1
 93
        1
 72
     4
 94
        3
 73
     0
 74
     1
 95
       17
 96
       13
 40
0.0
 40
0.0
 40
0.0
 40
0.0
 40
1.0
 40
1.0
 40
1.0
 40
2.0
 40
2.0
 40
2.0
 40
3.0
 40
3.0
 40
3.0
 40
4.0
 40
4.0
 40
4.0
 40
4.0
 10
191.3161279887977
 20
-53.1401204295807
 10
192.0065251240418
 20
-53.1401204295807
 10
192.5661808856206
 20
-53.69969006377433
 10
192.5661808856206
 20
-54.3900871990184
 10
192.5661808856206
 20
-55.0803982068734
 10
192.0065251240418
 20
-55.64005396845224
 10
191.3161279887977
 20
-55.64005396845224
 10
190.6259031083279
 20
-55.64005396845224
 10
190.066247346749
 20
-55.0803982068734
 10
190.066247346749
 20
-54.3900871990184
 10
190.066247346749
 20
-53.69969006377433
 10
190.6259031083279
 20
-53.1401204295807
 10
191.3161279887977
 20
-53.1401204295807
 97
        0
 97
        0
 92
        1
 93
        1
 72
     4
 94
        3
 73
     0
 74
     1
 95
       17
 96
       13
 40
0.0
 40
0.0
 40
0.0
 40
0.0
 40
1.0
 40
1.0
 40
1.0
 40
2.0
 40
2.0
 40
2.0
 40
3.0
 40
3.0
 40
3.0
 40
4.0
 40
4.0
 40
4.0
 40
4.0
 10
187.3528901425663
 20
-61.88997394301823
 10
187.9051389488518
 20
-61.88997394301823
 10
188.35282910716
 20
-62.33766410132645
 10
188.35282910716
 20
-62.889912907612
 10
188.35282910716
 20
-63.4422478412866
 10
187.9051389488518
 20
-63.88993799959482
 10
187.3528901425663
 20
-63.88993799959482
 10
186.8006413362807
 20
-63.88993799959482
 10
186.3527789231982
 20
-63.4422478412866
 10
186.3527789231982
 20
-62.889912907612
 10
186.3527789231982
 20
-62.33766410132645
 10
186.8006413362807
 20
-61.88997394301823
 10
187.3528901425663
 20
-61.88997394301823
 97
        0
 97
        0
 92
        1
 93
        1
 72
     4
 94
        3
 73
     0
 74
     1
 95
       17
 96
       13
 40
0.0
 40
0.0
 40
0.0
 40
0.0
 40
1.0
 40
1.0
 40
1.0
 40
2.0
 40
2.0
 40
2.0
 40
3.0
 40
3.0
 40
3.0
 40
4.0
 40
4.0
 40
4.0
 40
4.0
 10
182.8529064197329
 20
-68.39000784981336
 10
182.3006576134474
 20
-68.39000784981336
 10
181.8529674551392
 20
-67.94231769150515
 10
181.8529674551392
 20
-67.38998275783439
 10
181.8529674551392
 20
-66.83773395154884
 10
182.3006576134474
 20
-66.38995766585157
 10
182.8529064197329
 20
-66.38995766585157
 10
183.4051552260185
 20
-66.38995766585157
 10
183.8528453843267
 20
-66.83764782415979
 10
183.8528453843267
 20
-67.38998275783439
 10
183.8528453843267
 20
-67.94231769150515
 10
183.4051552260185
 20
-68.39000784981336
 10
182.8529064197329
 20
-68.39000784981336
 97
        0
 97
        0
 92
        1
 93
        1
 72
     4
 94
        3
 73
     0
 74
     1
 95
       17
 96
       13
 40
0.0
 40
0.0
 40
0.0
 40
0.0
 40
1.0
 40
1.0
 40
1.0
 40
2.0
 40
2.0
 40
2.0
 40
3.0
 40
3.0
 40
3.0
 40
4.0
 40
4.0
 40
4.0
 40
4.0
 10
182.8529064197329
 20
-57.3899902201849
 10
183.4051552260185
 20
-57.3899902201849
 10
183.8528453843267
 20
-57.83768037849311
 10
183.8528453843267
 20
-58.38992918477866
 10
183.8528453843267
 20
-58.94226411845327
 10
183.4051552260185
 20
-59.38995427676149
 10
182.8529064197329
 20
-59.39004040414669
 10
182.3004853586731
 20
-59.39004040414669
 10
181.8527952003649
 20
-58.94226411845327
 10
181.8527952003649
 20
-58.39001531216772
 10
181.8527952003649
 20
-57.83768037849311
 10
182.3004853586731
 20
-57.3899902201849
 10
182.8529064197329
 20
-57.3899902201849
 97
        0
 97
        0
 92
        1
 93
        1
 72
     4
 94
        3
 73
     0
 74
     1
 95
       17
 96
       13
 40
0.0
 40
0.0
 40
0.0
 40
0.0
 40
1.0
 40
1.0
 40
1.0
 40
2.0
 40
2.0
 40
2.0
 40
3.0
 40
3.0
 40
3.0
 40
4.0
 40
4.0
 40
4.0
 40
4.0
 10
181.085055671477
 20
-61.1222344141303
 10
182.0613957319968
 20
-60.1458943536105
 10
183.6442448526948
 20
-60.1458943536105
 10
184.6205849132146
 20
-61.1222344141303
 10
185.5969249737344
 20
-62.0984883472649
 10
185.5969249737344
 20
-63.68142359534815
 10
184.6205849132146
 20
-64.65776365586795
 10
183.6442448526948
 20
-65.63410371638776
 10
182.0613957319968
 20
-65.63410371638776
 10
181.085055671477
 20
-64.65776365586795
 10
180.1087156109572
 20
-63.68142359534815
 10
180.1087156109572
 20
-62.09857447465011
 10
181.085055671477
 20
-61.1222344141303
 97
        0
 97
        0
 92
        1
 93
        1
 72
     4
 94
        3
 73
     0
 74
     1
 95
       17
 96
       13
 40
0.0
 40
0.0
 40
0.0
 40
0.0
 40
1.0
 40
1.0
 40
1.0
 40
2.0
 40
2.0
 40
2.0
 40
3.0
 40
3.0
 40
3.0
 40
4.0
 40
4.0
 40
4.0
 40
4.0
 10
178.3529226968996
 20
-61.88997394301823
 10
178.9051715031851
 20
-61.88997394301823
 10
179.3528616614934
 20
-62.33775022871551
 10
179.3528616614934
 20
-62.88999903500105
 10
179.3528616614934
 20
-63.44233396867181
 10
178.9051715031851
 20
-63.89002412698002
 10
178.3529226968996
 20
-63.89002412698002
 10
177.8005016358398
 20
-63.89002412698002
 10
177.3528114775316
 20
-63.44233396867181
 10
177.3528114775316
 20
-62.88999903500105
 10
177.3528114775316
 20
-62.33775022871551
 10
177.8005016358398
 20
-61.88997394301823
 10
178.3529226968996
 20
-61.88997394301823
 97
        0
 97
        0
 92
        1
 93
        1
 72
     4
 94
        3
 73
     0
 74
     1
 95
       17
 96
       13
 40
0.0
 40
0.0
 40
0.0
 40
0.0
 40
1.0
 40
1.0
 40
1.0
 40
2.0
 40
2.0
 40
2.0
 40
3.0
 40
3.0
 40
3.0
 40
4.0
 40
4.0
 40
4.0
 40
4.0
 10
88.44764385652869
 20
-55.67708874491868
 10
87.75724672128462
 20
-55.67708874491868
 10
87.19759095970578
 20
-55.11743298333984
 10
87.19759095970578
 20
-54.42703584809577
 10
87.19759095970578
 20
-53.73672484024076
 10
87.75724672128462
 20
-53.17706907866192
 10
88.44764385652869
 20
-53.17706907866192
 10
89.13804099177275
 20
-53.17706907866192
 10
89.6976967533516
 20
-53.73672484024076
 10
89.6976967533516
 20
-54.42703584809577
 10
89.6976967533516
 20
-55.11743298333984
 10
89.13804099177275
 20
-55.67708874491868
 10
88.44764385652869
 20
-55.67708874491868
 97
        0
 97
        0
 92
        1
 93
        1
 72
     4
 94
        3
 73
     0
 74
     1
 95
       17
 96
       13
 40
0.0
 40
0.0
 40
0.0
 40
0.0
 40
1.0
 40
1.0
 40
1.0
 40
2.0
 40
2.0
 40
2.0
 40
3.0
 40
3.0
 40
3.0
 40
4.0
 40
4.0
 40
4.0
 40
4.0
 10
92.44757196967801
 20
-63.89002412698002
 10
91.89532316339246
 20
-63.89002412698002
 10
91.44763300508424
 20
-63.44233396867181
 10
91.44763300508424
 20
-62.88999903500105
 10
91.44763300508424
 20
-62.33775022871551
 10
91.89532316339246
 20
-61.88997394301823
 10
92.44757196967801
 20
-61.88997394301823
 10
92.99982077596356
 20
-61.88997394301823
 10
93.44751093427178
 20
-62.33775022871551
 10
93.44751093427178
 20
-62.88999903500105
 10
93.44751093427178
 20
-63.44233396867181
 10
92.99982077596356
 20
-63.89002412698002
 10
92.44757196967801
 20
-63.89002412698002
 97
        0
 97
        0
 92
        1
 93
        1
 72
     4
 94
        3
 73
     0
 74
     1
 95
       17
 96
       13
 40
0.0
 40
0.0
 40
0.0
 40
0.0
 40
1.0
 40
1.0
 40
1.0
 40
2.0
 40
2.0
 40
2.0
 40
3.0
 40
3.0
 40
3.0
 40
4.0
 40
4.0
 40
4.0
 40
4.0
 10
96.94755569251134
 20
-57.3899902201849
 10
97.49980449879689
 20
-57.3899902201849
 10
97.94749465710511
 20
-57.83768037849311
 10
97.94749465710511
 20
-58.38992918477866
 10
97.94749465710511
 20
-58.94226411845327
 10
97.49980449879689
 20
-59.38995427676149
 10
96.94755569251134
 20
-59.39004040414669
 10
96.3953068862258
 20
-59.39004040414669
 10
95.94761672791758
 20
-58.94226411845327
 10
95.94761672791758
 20
-58.39001531216772
 10
95.94761672791758
 20
-57.83768037849311
 10
96.3953068862258
 20
-57.3899902201849
 10
96.94755569251134
 20
-57.3899902201849
 97
        0
 97
        0
 92
        1
 93
        1
 72
     4
 94
        3
 73
     0
 74
     1
 95
       17
 96
       13
 40
0.0
 40
0.0
 40
0.0
 40
0.0
 40
1.0
 40
1.0
 40
1.0
 40
2.0
 40
2.0
 40
2.0
 40
3.0
 40
3.0
 40
3.0
 40
4.0
 40
4.0
 40
4.0
 40
4.0
 10
96.94772794728561
 20
-68.39000784981336
 10
96.3953068862258
 20
-68.39000784981336
 10
95.94761672791758
 20
-67.94231769150515
 10
95.94761672791758
 20
-67.38998275783439
 10
95.94761672791758
 20
-66.83773395154884
 10
96.3953068862258
 20
-66.38995766585157
 10
96.94755569251134
 20
-66.38995766585157
 10
97.49997675357116
 20
-66.38995766585157
 10
97.94766691187937
 20
-66.83764782415979
 10
97.94766691187937
 20
-67.38998275783439
 10
97.94766691187937
 20
-67.94231769150515
 10
97.49997675357116
 20
-68.39000784981336
 10
96.94772794728561
 20
-68.39000784981336
 97
        0
 97
        0
 92
        1
 93
        1
 72
     4
 94
        3
 73
     0
 74
     1
 95
       17
 96
       13
 40
0.0
 40
0.0
 40
0.0
 40
0.0
 40
1.0
 40
1.0
 40
1.0
 40
2.0
 40
2.0
 40
2.0
 40
3.0
 40
3.0
 40
3.0
 40
4.0
 40
4.0
 40
4.0
 40
4.0
 10
98.7154064407673
 20
-64.65776365586795
 10
97.7390663802475
 20
-65.63410371638776
 10
96.1560450047752
 20
-65.63410371638776
 10
95.17987719902965
 20
-64.65776365586795
 10
94.20353713850984
 20
-63.68142359534815
 10
94.20353713850984
 20
-62.09857447465011
 10
95.17970494425539
 20
-61.1222344141303
 10
96.1560450047752
 20
-60.1458943536105
 10
97.7390663802475
 20
-60.1458943536105
 10
98.7154064407673
 20
-61.1222344141303
 10
99.69157424651284
 20
-62.0984883472649
 10
99.69157424651284
 20
-63.68142359534815
 10
98.7154064407673
 20
-64.65776365586795
 97
        0
 97
        0
 92
        1
 93
        1
 72
     4
 94
        3
 73
     0
 74
     1
 95
       17
 96
       13
 40
0.0
 40
0.0
 40
0.0
 40
0.0
 40
1.0
 40
1.0
 40
1.0
 40
2.0
 40
2.0
 40
2.0
 40
3.0
 40
3.0
 40
3.0
 40
4.0
 40
4.0
 40
4.0
 40
4.0
 10
101.4475394153447
 20
-63.88993799959482
 10
100.8952906090591
 20
-63.88993799959482
 10
100.4476004507509
 20
-63.4422478412866
 10
100.4476004507509
 20
-62.889912907612
 10
100.4476004507509
 20
-62.33766410132645
 10
100.8952906090591
 20
-61.88997394301823
 10
101.4475394153447
 20
-61.88997394301823
 10
101.9997882216302
 20
-61.88997394301823
 10
102.4474783799384
 20
-62.33766410132645
 10
102.4474783799384
 20
-62.889912907612
 10
102.4474783799384
 20
-63.4422478412866
 10
101.9997882216302
 20
-63.88993799959482
 10
101.4475394153447
 20
-63.88993799959482
 97
        0
 97
        0
 92
        1
 93
        1
 72
     4
 94
        3
 73
     0
 74
     1
 95
       17
 96
       13
 40
0.0
 40
0.0
 40
0.0
 40
0.0
 40
1.0
 40
1.0
 40
1.0
 40
2.0
 40
2.0
 40
2.0
 40
3.0
 40
3.0
 40
3.0
 40
4.0
 40
4.0
 40
4.0
 40
4.0
 10
88.44764385652869
 20
-163.5411803790353
 10
87.75724672128462
 20
-163.5411803790353
 10
87.19759095970578
 20
-162.9815246174565
 10
87.19759095970578
 20
-162.2911274822124
 10
87.19759095970578
 20
-161.6008164743529
 10
87.75724672128462
 20
-161.0411607127741
 10
88.44764385652869
 20
-161.0411607127741
 10
89.13804099177275
 20
-161.0411607127741
 10
89.6976967533516
 20
-161.6008164743529
 10
89.6976967533516
 20
-162.2911274822124
 10
89.6976967533516
 20
-162.9815246174565
 10
89.13804099177275
 20
-163.5411803790353
 10
88.44764385652869
 20
-163.5411803790353
 97
        0
 97
        0
 92
        1
 93
        1
 72
     4
 94
        3
 73
     0
 74
     1
 95
       17
 96
       13
 40
0.0
 40
0.0
 40
0.0
 40
0.0
 40
1.0
 40
1.0
 40
1.0
 40
2.0
 40
2.0
 40
2.0
 40
3.0
 40
3.0
 40
3.0
 40
4.0
 40
4.0
 40
4.0
 40
4.0
 10
92.44757196967801
 20
-154.7587707132622
 10
91.89532316339246
 20
-154.7587707132622
 10
91.44763300508424
 20
-154.3110805549539
 10
91.44763300508424
 20
-153.7588317486684
 10
91.44763300508424
 20
-153.2064968149931
 10
91.89532316339246
 20
-152.7588066566849
 10
92.44757196967801
 20
-152.7588066566849
 10
92.99982077596356
 20
-152.7588066566849
 10
93.44751093427178
 20
-153.2064968149931
 10
93.44751093427178
 20
-153.7587456212787
 10
93.44751093427178
 20
-154.3110805549539
 10
92.99982077596356
 20
-154.7587707132622
 10
92.44757196967801
 20
-154.7587707132622
 97
        0
 97
        0
 92
        1
 93
        1
 72
     4
 94
        3
 73
     0
 74
     1
 95
       17
 96
       13
 40
0.0
 40
0.0
 40
0.0
 40
0.0
 40
1.0
 40
1.0
 40
1.0
 40
2.0
 40
2.0
 40
2.0
 40
3.0
 40
3.0
 40
3.0
 40
4.0
 40
4.0
 40
4.0
 40
4.0
 10
96.94755569251134
 20
-148.258736806467
 10
97.49980449879689
 20
-148.258736806467
 10
97.94749465710511
 20
-148.7065130921598
 10
97.94749465710511
 20
-149.2587618984454
 10
97.94749465710511
 20
-149.8110107047309
 10
97.49980449879689
 20
-150.2587869904288
 10
96.94755569251134
 20
-150.2587869904288
 10
96.3953068862258
 20
-150.2587869904288
 10
95.94761672791758
 20
-149.8110107047309
 10
95.94761672791758
 20
-149.2587618984454
 10
95.94761672791758
 20
-148.7065130921598
 10
96.3953068862258
 20
-148.2588229338516
 10
96.94755569251134
 20
-148.258736806467
 97
        0
 97
        0
 92
        1
 93
        1
 72
     4
 94
        3
 73
     0
 74
     1
 95
       17
 96
       13
 40
0.0
 40
0.0
 40
0.0
 40
0.0
 40
1.0
 40
1.0
 40
1.0
 40
2.0
 40
2.0
 40
2.0
 40
3.0
 40
3.0
 40
3.0
 40
4.0
 40
4.0
 40
4.0
 40
4.0
 10
96.94772794728561
 20
-159.2587544360955
 10
96.3953068862258
 20
-159.2587544360955
 10
95.94761672791758
 20
-158.8110642777873
 10
95.94761672791758
 20
-158.258729344112
 10
95.94761672791758
 20
-157.7064805378265
 10
96.3953068862258
 20
-157.2587903795183
 10
96.94755569251134
 20
-157.2587903795183
 10
97.49997675357116
 20
-157.2587903795183
 10
97.94766691187937
 20
-157.7064805378265
 10
97.94766691187937
 20
-158.258729344112
 10
97.94766691187937
 20
-158.8110642777873
 10
97.49997675357116
 20
-159.2587544360955
 10
96.94772794728561
 20
-159.2587544360955
 97
        0
 97
        0
 92
        1
 93
        1
 72
     4
 94
        3
 73
     0
 74
     1
 95
       17
 96
       13
 40
0.0
 40
0.0
 40
0.0
 40
0.0
 40
1.0
 40
1.0
 40
1.0
 40
2.0
 40
2.0
 40
2.0
 40
3.0
 40
3.0
 40
3.0
 40
4.0
 40
4.0
 40
4.0
 40
4.0
 10
98.7154064407673
 20
-155.5265102421501
 10
97.7390663802475
 20
-156.5028503026699
 10
96.1560450047752
 20
-156.5028503026699
 10
95.17987719902965
 20
-155.5265963695346
 10
94.20353713850984
 20
-154.5502563090149
 10
94.20353713850984
 20
-152.9673210609322
 10
95.17970494425539
 20
-151.9909810004124
 10
96.1560450047752
 20
-151.0147270672772
 10
97.7390663802475
 20
-151.0147270672772
 10
98.7154064407673
 20
-151.9909810004124
 10
99.69157424651284
 20
-152.9673210609322
 10
99.69157424651284
 20
-154.5502563090149
 10
98.7154064407673
 20
-155.5265102421501
 97
        0
 97
        0
 92
        1
 93
        1
 72
     4
 94
        3
 73
     0
 74
     1
 95
       17
 96
       13
 40
0.0
 40
0.0
 40
0.0
 40
0.0
 40
1.0
 40
1.0
 40
1.0
 40
2.0
 40
2.0
 40
2.0
 40
3.0
 40
3.0
 40
3.0
 40
4.0
 40
4.0
 40
4.0
 40
4.0
 10
101.4475394153447
 20
-154.7586845858725
 10
100.8952906090591
 20
-154.7586845858725
 10
100.4476004507509
 20
-154.3109944275643
 10
100.4476004507509
 20
-153.7587456212787
 10
100.4476004507509
 20
-153.2064968149931
 10
100.8952906090591
 20
-152.7587205293004
 10
101.4475394153447
 20
-152.7587205293004
 10
101.9997882216302
 20
-152.7587205293004
 10
102.4474783799384
 20
-153.2064106876086
 10
102.4474783799384
 20
-153.7587456212787
 10
102.4474783799384
 20
-154.3109944275643
 10
101.9997882216302
 20
-154.7586845858725
 10
101.4475394153447
 20
-154.7586845858725
 97
        0
 97
        0
 92
        1
 93
        1
 72
     4
 94
        3
 73
     0
 74
     1
 95
       17
 96
       13
 40
0.0
 40
0.0
 40
0.0
 40
0.0
 40
1.0
 40
1.0
 40
1.0
 40
2.0
 40
2.0
 40
2.0
 40
3.0
 40
3.0
 40
3.0
 40
4.0
 40
4.0
 40
4.0
 40
4.0
 10
153.2526460104663
 20
-85.98867524450417
 10
154.0810192198946
 20
-85.98867524450417
 10
154.7526405847441
 20
-86.66021048196457
 10
154.7526405847441
 20
-87.48866981878194
 10
154.7526405847441
 20
-88.31704302821026
 10
154.0810192198946
 20
-88.98866439305972
 10
153.2526460104663
 20
-88.98866439305972
 10
152.4241005462637
 20
-88.98866439305972
 10
151.7526514361886
 20
-88.31704302821026
 10
151.7526514361886
 20
-87.48866981878194
 10
151.7526514361886
 20
-86.66021048196457
 10
152.4241005462637
 20
-85.98867524450417
 10
153.2526460104663
 20
-85.98867524450417
 97
        0
 97
        0
 92
        1
 93
        1
 72
     4
 94
        3
 73
     0
 74
     1
 95
       29
 96
       25
 40
0.0
 40
0.0
 40
0.0
 40
0.0
 40
1.0
 40
1.0
 40
1.0
 40
2.0
 40
2.0
 40
2.0
 40
3.0
 40
3.0
 40
3.0
 40
4.0
 40
4.0
 40
4.0
 40
5.0
 40
5.0
 40
5.0
 40
6.0
 40
6.0
 40
6.0
 40
7.0
 40
7.0
 40
7.0
 40
8.0
 40
8.0
 40
8.0
 40
8.0
 10
135.96343431774
 20
-102.9460849080726
 10
135.96343431774
 20
-102.9460849080726
 10
139.2247339588518
 20
-99.68444075741236
 10
139.2247339588518
 20
-99.68444075741236
 10
139.5763059531215
 20
-99.33295489052782
 10
140.1461247463818
 20
-99.33295489052782
 10
140.4975244858773
 20
-99.68444075741236
 10
140.4975244858773
 20
-99.68444075741236
 10
143.7593408913119
 20
-102.9459987806836
 10
143.7593408913119
 20
-102.9459987806836
 10
144.1107406308074
 20
-103.2974846475681
 10
144.1107406308074
 20
-103.8673895682137
 10
143.7593408913119
 20
-104.2188754350982
 10
143.7593408913119
 20
-104.2188754350982
 10
140.4975244858773
 20
-107.4804334583694
 10
140.4975244858773
 20
-107.4804334583694
 10
140.1461247463818
 20
-107.831919325254
 10
139.5763059531215
 20
-107.8318331978649
 10
139.2247339588518
 20
-107.4804334583694
 10
139.2247339588518
 20
-107.4804334583694
 10
135.96343431774
 20
-104.2187893077091
 10
135.96343431774
 20
-104.2187893077091
 10
135.6118623234703
 20
-103.8673895682137
 10
135.6118623234703
 20
-103.2975707749533
 10
135.96343431774
 20
-102.9460849080726
 97
        0
 97
        0
 92
        1
 93
        1
 72
     4
 94
        3
 73
     0
 74
     1
 95
       17
 96
       13
 40
0.0
 40
0.0
 40
0.0
 40
0.0
 40
1.0
 40
1.0
 40
1.0
 40
2.0
 40
2.0
 40
2.0
 40
3.0
 40
3.0
 40
3.0
 40
4.0
 40
4.0
 40
4.0
 40
4.0
 10
129.861136684717
 20
-101.8613104671527
 10
130.6896821489196
 20
-101.8613104671527
 10
131.3611312589948
 20
-102.5329318320021
 10
131.3611312589948
 20
-103.3613050414305
 10
131.3611312589948
 20
-104.1897643782478
 10
130.6896821489196
 20
-104.8612996157082
 10
129.861136684717
 20
-104.8612996157082
 10
129.0327634752886
 20
-104.8612996157082
 10
128.3611421104392
 20
-104.1897643782478
 10
128.3611421104392
 20
-103.3613050414305
 10
128.3611421104392
 20
-102.5329318320021
 10
129.0327634752886
 20
-101.8613104671527
 10
129.861136684717
 20
-101.8613104671527
 97
        0
 97
        0
 92
        1
 93
        1
 72
     4
 94
        3
 73
     0
 74
     1
 95
       17
 96
       13
 40
0.0
 40
0.0
 40
0.0
 40
0.0
 40
1.0
 40
1.0
 40
1.0
 40
2.0
 40
2.0
 40
2.0
 40
3.0
 40
3.0
 40
3.0
 40
4.0
 40
4.0
 40
4.0
 40
4.0
 10
126.4858043830434
 20
-132.4680555224347
 10
125.6574311736151
 20
-132.4680555224347
 10
124.9858098087657
 20
-131.7964341575853
 10
124.9858098087657
 20
-130.9680609481569
 10
124.9858098087657
 20
-130.139601611344
 10
125.6574311736151
 20
-129.4679802464946
 10
126.4858043830434
 20
-129.4679802464946
 10
127.314349847246
 20
-129.4679802464946
 10
127.9857989573212
 20
-130.139601611344
 10
127.9857989573212
 20
-130.9680609481569
 10
127.9857989573212
 20
-131.7964341575853
 10
127.314349847246
 20
-132.4680555224347
 10
126.4858043830434
 20
-132.4680555224347
 97
        0
 97
        0
 92
        1
 93
        1
 72
     4
 94
        3
 73
     0
 74
     1
 95
       17
 96
       13
 40
0.0
 40
0.0
 40
0.0
 40
0.0
 40
1.0
 40
1.0
 40
1.0
 40
2.0
 40
2.0
 40
2.0
 40
3.0
 40
3.0
 40
3.0
 40
4.0
 40
4.0
 40
4.0
 40
4.0
 10
126.5810612732106
 20
-88.98866439305972
 10
125.7526880637823
 20
-88.98866439305972
 10
125.0810666989328
 20
-88.31704302821026
 10
125.0810666989328
 20
-87.48866981878194
 10
125.0810666989328
 20
-86.66021048196457
 10
125.7526880637823
 20
-85.98867524450417
 10
126.5810612732106
 20
-85.98867524450417
 10
127.4094344826389
 20
-85.98867524450417
 10
128.0810558474884
 20
-86.66021048196457
 10
128.0810558474884
 20
-87.48866981878194
 10
128.0810558474884
 20
-88.31704302821026
 10
127.4094344826389
 20
-88.98866439305972
 10
126.5810612732106
 20
-88.98866439305972
 97
        0
 97
        0
 92
        1
 93
        1
 72
     4
 94
        3
 73
     0
 74
     1
 95
       17
 96
       13
 40
0.0
 40
0.0
 40
0.0
 40
0.0
 40
1.0
 40
1.0
 40
1.0
 40
2.0
 40
2.0
 40
2.0
 40
3.0
 40
3.0
 40
3.0
 40
4.0
 40
4.0
 40
4.0
 40
4.0
 10
129.861136684717
 20
-124.8613708183928
 10
129.0327634752886
 20
-124.8613708183928
 10
128.3611421104392
 20
-124.1897494535433
 10
128.3611421104392
 20
-123.3612901167253
 10
128.3611421104392
 20
-122.532916907297
 10
129.0327634752886
 20
-121.8612955424475
 10
129.861136684717
 20
-121.8612955424475
 10
130.6896821489196
 20
-121.8612955424475
 10
131.3611312589948
 20
-122.532916907297
 10
131.3611312589948
 20
-123.3612901167253
 10
131.3611312589948
 20
-124.1897494535433
 10
130.6896821489196
 20
-124.8613708183928
 10
129.861136684717
 20
-124.8613708183928
 97
        0
 97
        0
 92
        1
 93
        1
 72
     4
 94
        3
 73
     0
 74
     1
 95
       29
 96
       25
 40
0.0
 40
0.0
 40
0.0
 40
0.0
 40
1.0
 40
1.0
 40
1.0
 40
2.0
 40
2.0
 40
2.0
 40
3.0
 40
3.0
 40
3.0
 40
4.0
 40
4.0
 40
4.0
 40
5.0
 40
5.0
 40
5.0
 40
6.0
 40
6.0
 40
6.0
 40
7.0
 40
7.0
 40
7.0
 40
8.0
 40
8.0
 40
8.0
 40
8.0
 10
133.0168441492058
 20
-115.6885457067511
 10
133.0168441492058
 20
-115.6885457067511
 10
129.7550277437713
 20
-112.4269876834805
 10
129.7550277437713
 20
-112.4269876834805
 10
129.4036280042758
 20
-112.0755018165953
 10
129.4036280042758
 20
-111.505683023335
 10
129.7550277437713
 20
-111.154197156455
 10
129.7550277437713
 20
-111.154197156455
 10
133.0168441492058
 20
-107.8925530057944
 10
133.0168441492058
 20
-107.8925530057944
 10
133.3682438887013
 20
-107.5410671389098
 10
133.9380626819616
 20
-107.5410671389098
 10
134.2896346762314
 20
-107.8925530057944
 10
134.2896346762314
 20
-107.8925530057944
 10
137.5511065721174
 20
-111.154197156455
 10
137.5511065721174
 20
-111.154197156455
 10
137.9025063116129
 20
-111.505683023335
 10
137.9025063116129
 20
-112.0755018165953
 10
137.5511065721174
 20
-112.4269876834805
 10
137.5511065721174
 20
-112.4269876834805
 10
134.2896346762314
 20
-115.6885457067511
 10
134.2896346762314
 20
-115.6885457067511
 10
133.9380626819616
 20
-116.0400315736363
 10
133.3682438887013
 20
-116.0400315736363
 10
133.0168441492058
 20
-115.6885457067511
 97
        0
 97
        0
 92
        1
 93
        1
 72
     4
 94
        3
 73
     0
 74
     1
 95
       29
 96
       25
 40
0.0
 40
0.0
 40
0.0
 40
0.0
 40
1.0
 40
1.0
 40
1.0
 40
2.0
 40
2.0
 40
2.0
 40
3.0
 40
3.0
 40
3.0
 40
4.0
 40
4.0
 40
4.0
 40
5.0
 40
5.0
 40
5.0
 40
6.0
 40
6.0
 40
6.0
 40
7.0
 40
7.0
 40
7.0
 40
8.0
 40
8.0
 40
8.0
 40
8.0
 10
143.7593408913119
 20
-120.6350138044728
 10
143.7593408913119
 20
-120.6350138044728
 10
140.4975244858773
 20
-123.8966579551331
 10
140.4975244858773
 20
-123.8966579551331
 10
140.1461247463818
 20
-124.2481438220183
 10
139.5763059531215
 20
-124.2481438220183
 10
139.2247339588518
 20
-123.8966579551331
 10
139.2247339588518
 20
-123.8966579551331
 10
135.96343431774
 20
-120.6350138044728
 10
135.96343431774
 20
-120.6350138044728
 10
135.6118623234703
 20
-120.2835279375928
 10
135.6118623234703
 20
-119.7137091443324
 10
135.96343431774
 20
-119.3622232774473
 10
135.96343431774
 20
-119.3622232774473
 10
139.2247339588518
 20
-116.1006652541767
 10
139.2247339588518
 20
-116.1006652541767
 10
139.5763059531215
 20
-115.7491793872915
 10
140.1461247463818
 20
-115.7491793872915
 10
140.4975244858773
 20
-116.1006652541767
 10
140.4975244858773
 20
-116.1006652541767
 10
143.7593408913119
 20
-119.3622232774473
 10
143.7593408913119
 20
-119.3622232774473
 10
144.1107406308074
 20
-119.7137091443324
 10
144.1107406308074
 20
-120.2836140649773
 10
143.7593408913119
 20
-120.6350138044728
 97
        0
 97
        0
 92
        1
 93
        1
 72
     4
 94
        3
 73
     0
 74
     1
 95
       29
 96
       25
 40
0.0
 40
0.0
 40
0.0
 40
0.0
 40
1.0
 40
1.0
 40
1.0
 40
2.0
 40
2.0
 40
2.0
 40
3.0
 40
3.0
 40
3.0
 40
4.0
 40
4.0
 40
4.0
 40
5.0
 40
5.0
 40
5.0
 40
6.0
 40
6.0
 40
6.0
 40
7.0
 40
7.0
 40
7.0
 40
8.0
 40
8.0
 40
8.0
 40
8.0
 10
146.7055865502975
 20
-115.6885457067511
 10
146.354186810802
 20
-116.0400315736363
 10
145.7843680175417
 20
-116.0400315736363
 10
145.432796023272
 20
-115.6885457067511
 10
145.432796023272
 20
-115.6885457067511
 10
142.1714963821602
 20
-112.4269876834805
 10
142.1714963821602
 20
-112.4269876834805
 10
141.8199243878905
 20
-112.0755018165953
 10
141.8199243878905
 20
-111.505683023335
 10
142.1714963821602
 20
-111.154197156455
 10
142.1714963821602
 20
-111.154197156455
 10
145.432796023272
 20
-107.8925530057944
 10
145.432796023272
 20
-107.8925530057944
 10
145.7843680175417
 20
-107.5410671389098
 10
146.354186810802
 20
-107.5410671389098
 10
146.7055865502975
 20
-107.8925530057944
 10
146.7055865502975
 20
-107.8925530057944
 10
149.9674029557321
 20
-111.154197156455
 10
149.9674029557321
 20
-111.154197156455
 10
150.3188026952276
 20
-111.505683023335
 10
150.3188026952276
 20
-112.0755018165953
 10
149.9674029557321
 20
-112.4269876834805
 10
149.9674029557321
 20
-112.4269876834805
 10
146.7055865502975
 20
-115.6885457067511
 10
146.7055865502975
 20
-115.6885457067511
 97
        0
 97
        0
 92
        1
 93
        1
 72
     4
 94
        3
 73
     0
 74
     1
 95
       17
 96
       13
 40
0.0
 40
0.0
 40
0.0
 40
0.0
 40
1.0
 40
1.0
 40
1.0
 40
2.0
 40
2.0
 40
2.0
 40
3.0
 40
3.0
 40
3.0
 40
4.0
 40
4.0
 40
4.0
 40
4.0
 10
149.8612940147864
 20
-124.8613708183928
 10
149.0327485505838
 20
-124.8613708183928
 10
148.3612994405086
 20
-124.1897494535433
 10
148.3612994405086
 20
-123.3612901167253
 10
148.3612994405086
 20
-122.532916907297
 10
149.0327485505838
 20
-121.8612955424475
 10
149.8612940147864
 20
-121.8612955424475
 10
150.6896672242147
 20
-121.8612955424475
 10
151.3612885890642
 20
-122.532916907297
 10
151.3612885890642
 20
-123.3612901167253
 10
151.3612885890642
 20
-124.1897494535433
 10
150.6896672242147
 20
-124.8613708183928
 10
149.8612940147864
 20
-124.8613708183928
 97
        0
 97
        0
 92
        1
 93
        1
 72
     4
 94
        3
 73
     0
 74
     1
 95
       17
 96
       13
 40
0.0
 40
0.0
 40
0.0
 40
0.0
 40
1.0
 40
1.0
 40
1.0
 40
2.0
 40
2.0
 40
2.0
 40
3.0
 40
3.0
 40
3.0
 40
4.0
 40
4.0
 40
4.0
 40
4.0
 10
149.8612940147864
 20
-104.8612996157082
 10
149.0327485505838
 20
-104.8612996157082
 10
148.3612994405086
 20
-104.1897643782478
 10
148.3612994405086
 20
-103.3613050414305
 10
148.3612994405086
 20
-102.5329318320021
 10
149.0327485505838
 20
-101.8613104671527
 10
149.8612940147864
 20
-101.8613104671527
 10
150.6896672242147
 20
-101.8613104671527
 10
151.3612885890642
 20
-102.5329318320021
 10
151.3612885890642
 20
-103.3613050414305
 10
151.3612885890642
 20
-104.1897643782478
 10
150.6896672242147
 20
-104.8612996157082
 10
149.8612940147864
 20
-104.8612996157082
 97
        0
 97
        0
 92
        1
 93
        1
 72
     4
 94
        3
 73
     0
 74
     1
 95
       17
 96
       13
 40
0.0
 40
0.0
 40
0.0
 40
0.0
 40
1.0
 40
1.0
 40
1.0
 40
2.0
 40
2.0
 40
2.0
 40
3.0
 40
3.0
 40
3.0
 40
4.0
 40
4.0
 40
4.0
 40
4.0
 10
153.1573891202992
 20
-132.4680555224347
 10
152.3290159108709
 20
-132.4680555224347
 10
151.6573945460214
 20
-131.7964341575853
 10
151.6573945460214
 20
-130.9680609481569
 10
151.6573945460214
 20
-130.139601611344
 10
152.3290159108709
 20
-129.4679802464946
 10
153.1573891202992
 20
-129.4679802464946
 10
153.9857623297275
 20
-129.4679802464946
 10
154.6573836945769
 20
-130.139601611344
 10
154.6573836945769
 20
-130.9680609481569
 10
154.6573836945769
 20
-131.7964341575853
 10
153.9857623297275
 20
-132.4680555224347
 10
153.1573891202992
 20
-132.4680555224347
 97
        0
 97
        0
 92
        1
 93
        1
 72
     4
 94
        3
 73
     0
 74
     1
 95
       17
 96
       13
 40
0.0
 40
0.0
 40
0.0
 40
0.0
 40
1.0
 40
1.0
 40
1.0
 40
2.0
 40
2.0
 40
2.0
 40
3.0
 40
3.0
 40
3.0
 40
4.0
 40
4.0
 40
4.0
 40
4.0
 10
178.316404684756
 20
-154.7587707132622
 10
177.7641558784704
 20
-154.7587707132622
 10
177.3162934653879
 20
-154.3110805549539
 10
177.3162934653879
 20
-153.7587456212787
 10
177.3162934653879
 20
-153.2064968149931
 10
177.7639836236961
 20
-152.7588066566849
 10
178.316404684756
 20
-152.7588066566849
 10
178.8686534910415
 20
-152.7588066566849
 10
179.3163436493497
 20
-153.2064968149931
 10
179.3163436493497
 20
-153.7587456212787
 10
179.3163436493497
 20
-154.3110805549539
 10
178.8686534910415
 20
-154.7587707132622
 10
178.316404684756
 20
-154.7587707132622
 97
        0
 97
        0
 92
        1
 93
        1
 72
     4
 94
        3
 73
     0
 74
     1
 95
       17
 96
       13
 40
0.0
 40
0.0
 40
0.0
 40
0.0
 40
1.0
 40
1.0
 40
1.0
 40
2.0
 40
2.0
 40
2.0
 40
3.0
 40
3.0
 40
3.0
 40
4.0
 40
4.0
 40
4.0
 40
4.0
 10
182.8163884075893
 20
-148.258736806467
 10
183.3686372138748
 20
-148.258736806467
 10
183.8163273721831
 20
-148.7065130921598
 10
183.8163273721831
 20
-149.2587618984454
 10
183.8163273721831
 20
-149.8110107047309
 10
183.3686372138748
 20
-150.2587869904288
 10
182.8163884075893
 20
-150.2587869904288
 10
182.2641396013037
 20
-150.2587869904288
 10
181.8162771882212
 20
-149.8110107047309
 10
181.8162771882212
 20
-149.2587618984454
 10
181.8162771882212
 20
-148.7065130921598
 10
182.2641396013037
 20
-148.258736806467
 10
182.8163884075893
 20
-148.258736806467
 97
        0
 97
        0
 92
        1
 93
        1
 72
     4
 94
        3
 73
     0
 74
     1
 95
       17
 96
       13
 40
0.0
 40
0.0
 40
0.0
 40
0.0
 40
1.0
 40
1.0
 40
1.0
 40
2.0
 40
2.0
 40
2.0
 40
3.0
 40
3.0
 40
3.0
 40
4.0
 40
4.0
 40
4.0
 40
4.0
 10
182.8163884075893
 20
-159.2587544360955
 10
182.2641396013037
 20
-159.2587544360955
 10
181.8164494429955
 20
-158.8110642777873
 10
181.8164494429955
 20
-158.258729344112
 10
181.8164494429955
 20
-157.7064805378265
 10
182.2641396013037
 20
-157.2587903795183
 10
182.8163884075893
 20
-157.2587903795183
 10
183.3686372138748
 20
-157.2587903795183
 10
183.8164996269573
 20
-157.7064805378265
 10
183.8164996269573
 20
-158.258729344112
 10
183.8164996269573
 20
-158.8110642777873
 10
183.3686372138748
 20
-159.2587544360955
 10
182.8163884075893
 20
-159.2587544360955
 97
        0
 97
        0
 92
        1
 93
        1
 72
     4
 94
        3
 73
     0
 74
     1
 95
       17
 96
       13
 40
0.0
 40
0.0
 40
0.0
 40
0.0
 40
1.0
 40
1.0
 40
1.0
 40
2.0
 40
2.0
 40
2.0
 40
3.0
 40
3.0
 40
3.0
 40
4.0
 40
4.0
 40
4.0
 40
4.0
 10
184.584066901071
 20
-155.5265102421501
 10
183.6077268405512
 20
-156.5028503026699
 10
182.0248777198531
 20
-156.5028503026699
 10
181.0485376593333
 20
-155.5265102421501
 10
180.0721975988135
 20
-154.5502563090149
 10
180.0721975988135
 20
-152.9673210609322
 10
181.0485376593333
 20
-151.9909810004124
 10
182.0248777198531
 20
-151.0147270672772
 10
183.6077268405512
 20
-151.0147270672772
 10
184.584066901071
 20
-151.9909810004124
 10
185.5604069615908
 20
-152.9672349335426
 10
185.5604069615908
 20
-154.5501701816303
 10
184.584066901071
 20
-155.5265102421501
 97
        0
 97
        0
 92
        1
 93
        1
 72
     4
 94
        3
 73
     0
 74
     1
 95
       17
 96
       13
 40
0.0
 40
0.0
 40
0.0
 40
0.0
 40
1.0
 40
1.0
 40
1.0
 40
2.0
 40
2.0
 40
2.0
 40
3.0
 40
3.0
 40
3.0
 40
4.0
 40
4.0
 40
4.0
 40
4.0
 10
187.3163721304226
 20
-154.7586845858725
 10
186.7641233241371
 20
-154.7586845858725
 10
186.3162609110546
 20
-154.3109944275643
 10
186.3162609110546
 20
-153.7587456212787
 10
186.3162609110546
 20
-153.2064968149931
 10
186.7641233241371
 20
-152.7587205293004
 10
187.3163721304226
 20
-152.7587205293004
 10
187.8686209367082
 20
-152.7587205293004
 10
188.3163110950164
 20
-153.2064106876086
 10
188.3163110950164
 20
-153.7587456212787
 10
188.3163110950164
 20
-154.3109944275643
 10
187.8686209367082
 20
-154.7586845858725
 10
187.3163721304226
 20
-154.7586845858725
 97
        0
 97
        0
 92
        1
 93
        1
 72
     4
 94
        3
 73
     0
 74
     1
 95
       17
 96
       13
 40
0.0
 40
0.0
 40
0.0
 40
0.0
 40
1.0
 40
1.0
 40
1.0
 40
2.0
 40
2.0
 40
2.0
 40
3.0
 40
3.0
 40
3.0
 40
4.0
 40
4.0
 40
4.0
 40
4.0
 10
191.3119938742154
 20
-161.0456393369049
 10
192.0022187546852
 20
-161.0456393369049
 10
192.561874516264
 20
-161.6052950984837
 10
192.561874516264
 20
-162.2956061063432
 10
192.561874516264
 20
-162.9859171141976
 10
192.0022187546852
 20
-163.5455728757764
 10
191.3119938742154
 20
-163.5455728757764
 10
190.6215967389713
 20
-163.5455728757764
 10
190.0619409773925
 20
-162.9859171141976
 10
190.0619409773925
 20
-162.2956061063432
 10
190.0619409773925
 20
-161.6052950984837
 10
190.6215967389713
 20
-161.0456393369049
 10
191.3119938742154
 20
-161.0456393369049
 97
        0
 97
        0
 75
     2
 76
     1
 98
        0
  0
ENDSEC
  0
SECTION
  2
OBJECTS
  0
DICTIONARY
  5
C
330
0
100
AcDbDictionary
281
     1
  3
ACAD_GROUP
350
D
  3
ACAD_LAYOUT
350
1A
  3
ACAD_MATERIAL
350
3B
  3
ACAD_MLEADERSTYLE
350
68
  3
ACAD_MLINESTYLE
350
17
  3
ACAD_PLOTSETTINGS
350
19
  3
ACAD_PLOTSTYLENAME
350
E
  3
ACAD_TABLESTYLE
350
67
  3
ACAD_VISUALSTYLE
350
2A
  0
SUN
  5
3F
330
29
100
AcDbSun
 90
        1
290
     0
 63
     7
421
 16777215
 40
1.0
291
     1
 91
  2455826
 92
 54000000
292
     0
 70
     2
 71
   256
280
     1
  0
DICTIONARY
  5
D
102
{ACAD_REACTORS
330
C
102
}
330
C
100
AcDbDictionary
281
     1
  0
DICTIONARY
  5
1A
102
{ACAD_REACTORS
330
C
102
}
330
C
100
AcDbDictionary
281
     1
  3
Layout1
350
1E
  3
Layout2
350
26
  3
Model
350
22
  0
DICTIONARY
  5
3B
102
{ACAD_REACTORS
330
C
102
}
330
C
100
AcDbDictionary
281
     1
  3
ByBlock
350
3D
  3
ByLayer
350
3C
  3
Global
350
3E
  0
DICTIONARY
  5
68
102
{ACAD_REACTORS
330
C
102
}
330
C
100
AcDbDictionary
281
     1
  0
DICTIONARY
  5
17
102
{ACAD_REACTORS
330
C
102
}
330
C
100
AcDbDictionary
281
     1
  3
Standard
350
18
  0
DICTIONARY
  5
19
102
{ACAD_REACTORS
330
C
102
}
330
C
100
AcDbDictionary
281
     1
  0
ACDBDICTIONARYWDFLT
  5
E
102
{ACAD_REACTORS
330
C
102
}
330
C
100
AcDbDictionary
281
     1
  3
Normal
350
F
100
AcDbDictionaryWithDefault
340
F
  0
DICTIONARY
  5
67
102
{ACAD_REACTORS
330
C
102
}
330
C
100
AcDbDictionary
281
     1
  0
DICTIONARY
  5
2A
102
{ACAD_REACTORS
330
C
102
}
330
C
100
AcDbDictionary
281
     1
  3
2dWireframe
350
2F
  3
3D Hidden
350
31
  3
3dWireframe
350
30
  3
Basic
350
32
  3
Brighten
350
36
  3
ColorChange
350
3A
  3
Conceptual
350
34
  3
Dim
350
35
  3
Facepattern
350
39
  3
Flat
350
2B
  3
FlatWithEdges
350
2C
  3
Gouraud
350
2D
  3
GouraudWithEdges
350
2E
  3
Linepattern
350
38
  3
Realistic
350
33
  3
Thicken
350
37
  0
LAYOUT
  5
1E
102
{ACAD_REACTORS
330
1A
102
}
330
1A
100
AcDbPlotSettings
  1

  2
none_device
  4

  6

 40
0.0
 41
0.0
 42
0.0
 43
0.0
 44
0.0
 45
0.0
 46
0.0
 47
0.0
 48
0.0
 49
0.0
140
0.0
141
0.0
142
1.0
143
1.0
 70
   688
 72
     0
 73
     0
 74
     5
  7

 75
    16
 76
     0
 77
     2
 78
   300
147
1.0
148
0.0
149
0.0
100
AcDbLayout
  1
Layout1
 70
     1
 71
     1
 10
0.0
 20
0.0
 11
12.0
 21
9.0
 12
0.0
 22
0.0
 32
0.0
 14
1.000000000000000E+20
 24
1.000000000000000E+20
 34
1.000000000000000E+20
 15
-1.000000000000000E+20
 25
-1.000000000000000E+20
 35
-1.000000000000000E+20
146
0.0
 13
0.0
 23
0.0
 33
0.0
 16
1.0
 26
0.0
 36
0.0
 17
0.0
 27
1.0
 37
0.0
 76
     0
330
1B
  0
LAYOUT
  5
26
102
{ACAD_REACTORS
330
1A
102
}
330
1A
100
AcDbPlotSettings
  1

  2
none_device
  4

  6

 40
0.0
 41
0.0
 42
0.0
 43
0.0
 44
0.0
 45
0.0
 46
0.0
 47
0.0
 48
0.0
 49
0.0
140
0.0
141
0.0
142
1.0
143
1.0
 70
   688
 72
     0
 73
     0
 74
     5
  7

 75
    16
 76
     0
 77
     2
 78
   300
147
1.0
148
0.0
149
0.0
100
AcDbLayout
  1
Layout2
 70
     1
 71
     2
 10
0.0
 20
0.0
 11
0.0
 21
0.0
 12
0.0
 22
0.0
 32
0.0
 14
0.0
 24
0.0
 34
0.0
 15
0.0
 25
0.0
 35
0.0
146
0.0
 13
0.0
 23
0.0
 33
0.0
 16
1.0
 26
0.0
 36
0.0
 17
0.0
 27
1.0
 37
0.0
 76
     0
330
23
  0
LAYOUT
  5
22
102
{ACAD_REACTORS
330
1A
102
}
330
1A
100
AcDbPlotSettings
  1

  2
none_device
  4

  6

 40
0.0
 41
0.0
 42
0.0
 43
0.0
 44
0.0
 45
0.0
 46
0.0
 47
0.0
 48
0.0
 49
0.0
140
0.0
141
0.0
142
1.0
143
1.0
 70
  1712
 72
     0
 73
     0
 74
     0
  7

 75
     0
 76
     0
 77
     2
 78
   300
147
1.0
148
0.0
149
0.0
100
AcDbLayout
  1
Model
 70
     1
 71
     0
 10
0.0
 20
0.0
 11
12.0
 21
9.0
 12
0.0
 22
0.0
 32
0.0
 14
1.000000000000000E+20
 24
1.000000000000000E+20
 34
1.000000000000000E+20
 15
-1.000000000000000E+20
 25
-1.000000000000000E+20
 35
-1.000000000000000E+20
146
0.0
 13
0.0
 23
0.0
 33
0.0
 16
1.0
 26
0.0
 36
0.0
 17
0.0
 27
1.0
 37
0.0
 76
     0
330
1F
331
29
  0
MATERIAL
  5
3D
102
{ACAD_REACTORS
330
3B
102
}
330
3B
100
AcDbMaterial
  1
ByBlock
 72
     1
 94
      127
  0
MATERIAL
  5
3C
102
{ACAD_REACTORS
330
3B
102
}
330
3B
100
AcDbMaterial
  1
ByLayer
 72
     1
 94
      127
  0
MATERIAL
  5
3E
102
{ACAD_REACTORS
330
3B
102
}
330
3B
100
AcDbMaterial
  1
Global
 72
     1
 94
      127
  0
MLINESTYLE
  5
18
102
{ACAD_REACTORS
330
17
102
}
330
17
100
AcDbMlineStyle
  2
Standard
 70
     0
  3

 62
   256
 51
90.0
 52
90.0
 71
     2
 49
0.5
 62
   256
  6
BYLAYER
 49
-0.5
 62
   256
  6
BYLAYER
  0
ACDBPLACEHOLDER
  5
F
102
{ACAD_REACTORS
330
E
102
}
330
E
  0
VISUALSTYLE
  5
2F
102
{ACAD_REACTORS
330
2A
102
}
330
2A
100
AcDbVisualStyle
  2
2dWireframe
 70
     4
177
     2
291
     0
 71
     0
176
     1
 72
     2
176
     1
 73
     0
176
     1
 90
        0
176
     1
 40
-0.6
176
     1
 41
-30.0
176
     1
 62
     5
 63
     7
421
 16777215
176
     1
 74
     1
176
     1
 91
        4
176
     1
 64
     7
176
     1
 65
   257
176
     1
 75
     1
176
     1
175
     1
176
     1
 42
1.0
176
     1
 92
        0
176
     1
 66
   257
176
     1
 43
1.0
176
     1
 76
     1
176
     1
 77
     6
176
     1
 78
     2
176
     1
 67
     7
176
     1
 79
     5
176
     1
170
     0
176
     1
171
     0
176
     1
290
     0
176
     1
 93
        1
176
     1
 44
0.0
176
     1
173
     0
176
     1
  0
VISUALSTYLE
  5
31
102
{ACAD_REACTORS
330
2A
102
}
330
2A
100
AcDbVisualStyle
  2
3D Hidden
 70
     6
177
     2
291
     0
 71
     1
176
     1
 72
     2
176
     1
 73
     2
176
     1
 90
        0
176
     1
 40
-0.6
176
     1
 41
-30.0
176
     1
 62
     5
 63
     7
421
 16777215
176
     1
 74
     2
176
     1
 91
        2
176
     1
 64
     7
176
     1
 65
   257
176
     1
 75
     2
176
     1
175
     1
176
     1
 42
40.0
176
     1
 92
        0
176
     1
 66
   257
176
     1
 43
1.0
176
     1
 76
     1
176
     1
 77
     6
176
     1
 78
     2
176
     1
 67
     7
176
     1
 79
     3
176
     1
170
     0
176
     1
171
     0
176
     1
290
     0
176
     1
 93
        1
176
     1
 44
0.0
176
     1
173
     0
176
     1
  0
VISUALSTYLE
  5
30
102
{ACAD_REACTORS
330
2A
102
}
330
2A
100
AcDbVisualStyle
  2
3dWireframe
 70
     5
177
     2
291
     0
 71
     0
176
     1
 72
     2
176
     1
 73
     0
176
     1
 90
        0
176
     1
 40
-0.6
176
     1
 41
-30.0
176
     1
 62
     5
 63
     7
421
 16777215
176
     1
 74
     1
176
     1
 91
        4
176
     1
 64
     7
176
     1
 65
   257
176
     1
 75
     1
176
     1
175
     1
176
     1
 42
1.0
176
     1
 92
        0
176
     1
 66
   257
176
     1
 43
1.0
176
     1
 76
     1
176
     1
 77
     6
176
     1
 78
     2
176
     1
 67
     7
176
     1
 79
     5
176
     1
170
     0
176
     1
171
     0
176
     1
290
     0
176
     1
 93
        1
176
     1
 44
0.0
176
     1
173
     0
176
     1
  0
VISUALSTYLE
  5
32
102
{ACAD_REACTORS
330
2A
102
}
330
2A
100
AcDbVisualStyle
  2
Basic
 70
     7
177
     2
291
     1
 71
     1
176
     1
 72
     0
176
     1
 73
     1
176
     1
 90
        0
176
     1
 40
-0.6
176
     1
 41
-30.0
176
     1
 62
     5
 63
     7
421
 16777215
176
     1
 74
     0
176
     1
 91
        4
176
     1
 64
     7
176
     1
 65
   257
176
     1
 75
     1
176
     1
175
     1
176
     1
 42
1.0
176
     1
 92
        8
176
     1
 66
     7
176
     1
 43
1.0
176
     1
 76
     1
176
     1
 77
     6
176
     1
 78
     2
176
     1
 67
     7
176
     1
 79
     5
176
     1
170
     0
176
     1
171
     0
176
     1
290
     0
176
     1
 93
        1
176
     1
 44
0.0
176
     1
173
     0
176
     1
  0
VISUALSTYLE
  5
36
102
{ACAD_REACTORS
330
2A
102
}
330
2A
100
AcDbVisualStyle
  2
Brighten
 70
    12
177
     2
291
     1
 71
     2
176
     1
 72
     2
176
     1
 73
     0
176
     1
 90
        0
176
     1
 40
-0.6
176
     1
 41
-30.0
176
     1
 62
     5
 63
     7
421
 16777215
176
     1
 74
     1
176
     1
 91
        4
176
     1
 64
     7
176
     1
 65
   257
176
     1
 75
     1
176
     1
175
     1
176
     1
 42
1.0
176
     1
 92
        8
176
     1
 66
     7
176
     1
 43
1.0
176
     1
 76
     1
176
     1
 77
     6
176
     1
 78
     2
176
     1
 67
     7
176
     1
 79
     5
176
     1
170
     0
176
     1
171
     0
176
     1
290
     0
176
     1
 93
        1
176
     1
 44
50.0
176
     1
173
     0
176
     1
  0
VISUALSTYLE
  5
3A
102
{ACAD_REACTORS
330
2A
102
}
330
2A
100
AcDbVisualStyle
  2
ColorChange
 70
    16
177
     2
291
     1
 71
     2
176
     1
 72
     2
176
     1
 73
     3
176
     1
 90
        0
176
     1
 40
-0.6
176
     1
 41
-30.0
176
     1
 62
     5
 63
     8
421
  8421504
176
     1
 74
     1
176
     1
 91
        4
176
     1
 64
     7
176
     1
 65
   257
176
     1
 75
     1
176
     1
175
     1
176
     1
 42
1.0
176
     1
 92
        8
176
     1
 66
     8
424
  8421504
176
     1
 43
1.0
176
     1
 76
     1
176
     1
 77
     6
176
     1
 78
     2
176
     1
 67
     7
176
     1
 79
     5
176
     1
170
     0
176
     1
171
     0
176
     1
290
     0
176
     1
 93
        1
176
     1
 44
0.0
176
     1
173
     0
176
     1
  0
VISUALSTYLE
  5
34
102
{ACAD_REACTORS
330
2A
102
}
330
2A
100
AcDbVisualStyle
  2
Conceptual
 70
     9
177
     2
291
     0
 71
     3
176
     1
 72
     2
176
     1
 73
     0
176
     1
 90
        0
176
     1
 40
-0.6
176
     1
 41
-30.0
176
     1
 62
     5
 63
     7
421
 16777215
176
     1
 74
     2
176
     1
 91
        2
176
     1
 64
     7
176
     1
 65
   257
176
     1
 75
     1
176
     1
175
     1
176
     1
 42
40.0
176
     1
 92
        8
176
     1
 66
     7
176
     1
 43
1.0
176
     1
 76
     1
176
     1
 77
     6
176
     1
 78
     2
176
     1
 67
     7
176
     1
 79
     3
176
     1
170
     0
176
     1
171
     0
176
     1
290
     0
176
     1
 93
        1
176
     1
 44
0.0
176
     1
173
     0
176
     1
  0
VISUALSTYLE
  5
35
102
{ACAD_REACTORS
330
2A
102
}
330
2A
100
AcDbVisualStyle
  2
Dim
 70
    11
177
     2
291
     1
 71
     2
176
     1
 72
     2
176
     1
 73
     0
176
     1
 90
        0
176
     1
 40
-0.6
176
     1
 41
-30.0
176
     1
 62
     5
 63
     7
421
 16777215
176
     1
 74
     1
176
     1
 91
        4
176
     1
 64
     7
176
     1
 65
   257
176
     1
 75
     1
176
     1
175
     1
176
     1
 42
1.0
176
     1
 92
        8
176
     1
 66
     7
176
     1
 43
1.0
176
     1
 76
     1
176
     1
 77
     6
176
     1
 78
     2
176
     1
 67
     7
176
     1
 79
     5
176
     1
170
     0
176
     1
171
     0
176
     1
290
     0
176
     1
 93
        1
176
     1
 44
-50.0
176
     1
173
     0
176
     1
  0
VISUALSTYLE
  5
39
102
{ACAD_REACTORS
330
2A
102
}
330
2A
100
AcDbVisualStyle
  2
Facepattern
 70
    15
177
     2
291
     1
 71
     2
176
     1
 72
     2
176
     1
 73
     0
176
     1
 90
        0
176
     1
 40
-0.6
176
     1
 41
-30.0
176
     1
 62
     5
 63
     7
421
 16777215
176
     1
 74
     1
176
     1
 91
        4
176
     1
 64
     7
176
     1
 65
   257
176
     1
 75
     1
176
     1
175
     1
176
     1
 42
1.0
176
     1
 92
        8
176
     1
 66
     7
176
     1
 43
1.0
176
     1
 76
     1
176
     1
 77
     6
176
     1
 78
     2
176
     1
 67
     7
176
     1
 79
     5
176
     1
170
     0
176
     1
171
     0
176
     1
290
     0
176
     1
 93
        1
176
     1
 44
0.0
176
     1
173
     0
176
     1
  0
VISUALSTYLE
  5
2B
102
{ACAD_REACTORS
330
2A
102
}
330
2A
100
AcDbVisualStyle
  2
Flat
 70
     0
177
     2
291
     1
 71
     2
176
     1
 72
     1
176
     1
 73
     1
176
     1
 90
        2
176
     1
 40
-0.6
176
     1
 41
30.0
176
     1
 62
     5
 63
     7
421
 16777215
176
     1
 74
     0
176
     1
 91
        4
176
     1
 64
     7
176
     1
 65
   257
176
     1
 75
     1
176
     1
175
     1
176
     1
 42
1.0
176
     1
 92
        8
176
     1
 66
     7
176
     1
 43
1.0
176
     1
 76
     1
176
     1
 77
     6
176
     1
 78
     2
176
     1
 67
     7
176
     1
 79
     5
176
     1
170
     0
176
     1
171
     0
176
     1
290
     0
176
     1
 93
       13
176
     1
 44
0.0
176
     1
173
     0
176
     1
  0
VISUALSTYLE
  5
2C
102
{ACAD_REACTORS
330
2A
102
}
330
2A
100
AcDbVisualStyle
  2
FlatWithEdges
 70
     1
177
     2
291
     1
 71
     2
176
     1
 72
     1
176
     1
 73
     1
176
     1
 90
        2
176
     1
 40
-0.6
176
     1
 41
30.0
176
     1
 62
     5
 63
     7
421
 16777215
176
     1
 74
     1
176
     1
 91
        4
176
     1
 64
     7
176
     1
 65
   257
176
     1
 75
     1
176
     1
175
     1
176
     1
 42
1.0
176
     1
 92
        0
176
     1
 66
   257
176
     1
 43
1.0
176
     1
 76
     1
176
     1
 77
     6
176
     1
 78
     2
176
     1
 67
     7
176
     1
 79
     5
176
     1
170
     0
176
     1
171
     0
176
     1
290
     0
176
     1
 93
       13
176
     1
 44
0.0
176
     1
173
     0
176
     1
  0
VISUALSTYLE
  5
2D
102
{ACAD_REACTORS
330
2A
102
}
330
2A
100
AcDbVisualStyle
  2
Gouraud
 70
     2
177
     2
291
     1
 71
     2
176
     1
 72
     2
176
     1
 73
     1
176
     1
 90
        2
176
     1
 40
-0.6
176
     1
 41
30.0
176
     1
 62
     5
 63
     7
421
 16777215
176
     1
 74
     0
176
     1
 91
        4
176
     1
 64
     7
176
     1
 65
   257
176
     1
 75
     1
176
     1
175
     1
176
     1
 42
1.0
176
     1
 92
        0
176
     1
 66
     7
176
     1
 43
1.0
176
     1
 76
     1
176
     1
 77
     6
176
     1
 78
     2
176
     1
 67
     7
176
     1
 79
     5
176
     1
170
     0
176
     1
171
     0
176
     1
290
     0
176
     1
 93
       13
176
     1
 44
0.0
176
     1
173
     0
176
     1
  0
VISUALSTYLE
  5
2E
102
{ACAD_REACTORS
330
2A
102
}
330
2A
100
AcDbVisualStyle
  2
GouraudWithEdges
 70
     3
177
     2
291
     1
 71
     2
176
     1
 72
     2
176
     1
 73
     1
176
     1
 90
        2
176
     1
 40
-0.6
176
     1
 41
30.0
176
     1
 62
     5
 63
     7
421
 16777215
176
     1
 74
     1
176
     1
 91
        4
176
     1
 64
     7
176
     1
 65
   257
176
     1
 75
     1
176
     1
175
     1
176
     1
 42
1.0
176
     1
 92
        0
176
     1
 66
   257
176
     1
 43
1.0
176
     1
 76
     1
176
     1
 77
     6
176
     1
 78
     2
176
     1
 67
     7
176
     1
 79
     5
176
     1
170
     0
176
     1
171
     0
176
     1
290
     0
176
     1
 93
       13
176
     1
 44
0.0
176
     1
173
     0
176
     1
  0
VISUALSTYLE
  5
38
102
{ACAD_REACTORS
330
2A
102
}
330
2A
100
AcDbVisualStyle
  2
Linepattern
 70
    14
177
     2
291
     1
 71
     2
176
     1
 72
     2
176
     1
 73
     0
176
     1
 90
        0
176
     1
 40
-0.6
176
     1
 41
-30.0
176
     1
 62
     5
 63
     7
421
 16777215
176
     1
 74
     1
176
     1
 91
        4
176
     1
 64
     7
176
     1
 65
   257
176
     1
 75
     7
176
     1
175
     7
176
     1
 42
1.0
176
     1
 92
        8
176
     1
 66
     7
176
     1
 43
1.0
176
     1
 76
     1
176
     1
 77
     6
176
     1
 78
     2
176
     1
 67
     7
176
     1
 79
     5
176
     1
170
     0
176
     1
171
     0
176
     1
290
     0
176
     1
 93
        1
176
     1
 44
0.0
176
     1
173
     0
176
     1
  0
VISUALSTYLE
  5
33
102
{ACAD_REACTORS
330
2A
102
}
330
2A
100
AcDbVisualStyle
  2
Realistic
 70
     8
177
     2
291
     0
 71
     2
176
     1
 72
     2
176
     1
 73
     0
176
     1
 90
        0
176
     1
 40
-0.6
176
     1
 41
-30.0
176
     1
 62
     5
 63
     7
421
 16777215
176
     1
 74
     1
176
     1
 91
        0
176
     1
 64
     7
176
     1
 65
   257
176
     1
 75
     1
176
     1
175
     1
176
     1
 42
1.0
176
     1
 92
        8
176
     1
 66
     8
424
  7895160
176
     1
 43
1.0
176
     1
 76
     1
176
     1
 77
     6
176
     1
 78
     2
176
     1
 67
     7
176
     1
 79
     5
176
     1
170
     0
176
     1
171
     0
176
     1
290
     0
176
     1
 93
       13
176
     1
 44
0.0
176
     1
173
     0
176
     1
  0
VISUALSTYLE
  5
37
102
{ACAD_REACTORS
330
2A
102
}
330
2A
100
AcDbVisualStyle
  2
Thicken
 70
    13
177
     2
291
     1
 71
     2
176
     1
 72
     2
176
     1
 73
     0
176
     1
 90
        0
176
     1
 40
-0.6
176
     1
 41
-30.0
176
     1
 62
     5
 63
     7
421
 16777215
176
     1
 74
     1
176
     1
 91
        4
176
     1
 64
     7
176
     1
 65
   257
176
     1
 75
     1
176
     1
175
     1
176
     1
 42
1.0
176
     1
 92
       12
176
     1
 66
     7
176
     1
 43
1.0
176
     1
 76
     1
176
     1
 77
     6
176
     1
 78
     2
176
     1
 67
     7
176
     1
 79
     5
176
     1
170
     0
176
     1
171
     0
176
     1
290
     0
176
     1
 93
        1
176
     1
 44
0.0
176
     1
173
     0
176
     1
  0
ENDSEC
  0
EOF
