  0
SECTION
  2
HEADER
  9
$ACADVER
  1
AC1024
  9
$ACADMAINTVER
 70
     6
  9
$DWGCODEPAGE
  3
UNDEFINED
  9
$INSBASE
 10
0.0
 20
0.0
 30
0.0
  9
$EXTMIN
 10
1.000000000000000E+20
 20
1.000000000000000E+20
 30
1.000000000000000E+20
  9
$EXTMAX
 10
-1.000000000000000E+20
 20
-1.000000000000000E+20
 30
-1.000000000000000E+20
  9
$LIMMIN
 10
0.0
 20
0.0
  9
$LIMMAX
 10
12.0
 20
9.0
  9
$ORTHOMODE
 70
     0
  9
$REGENMODE
 70
     1
  9
$FILLMODE
 70
     1
  9
$QTEXTMODE
 70
     0
  9
$MIRRTEXT
 70
     1
  9
$LTSCALE
 40
1.0
  9
$ATTMODE
 70
     1
  9
$TEXTSIZE
 40
0.2
  9
$TRACEWID
 40
0.05
  9
$TEXTSTYLE
  7
Standard
  9
$CLAYER
  8
0
  9
$CELTYPE
  6
ByLayer
  9
$CECOLOR
 62
   256
  9
$CELTSCALE
 40
1.0
  9
$DISPSILH
 70
     0
  9
$DIMSCALE
 40
1.0
  9
$DIMASZ
 40
0.18
  9
$DIMEXO
 40
0.0625
  9
$DIMDLI
 40
0.38
  9
$DIMRND
 40
0.0
  9
$DIMDLE
 40
0.0
  9
$DIMEXE
 40
0.18
  9
$DIMTP
 40
0.0
  9
$DIMTM
 40
0.0
  9
$DIMTXT
 40
0.18
  9
$DIMCEN
 40
0.09
  9
$DIMTSZ
 40
0.0
  9
$DIMTOL
 70
     0
  9
$DIMLIM
 70
     0
  9
$DIMTIH
 70
     1
  9
$DIMTOH
 70
     1
  9
$DIMSE1
 70
     0
  9
$DIMSE2
 70
     0
  9
$DIMTAD
 70
     0
  9
$DIMZIN
 70
     0
  9
$DIMBLK
  1

  9
$DIMASO
 70
     1
  9
$DIMSHO
 70
     1
  9
$DIMPOST
  1

  9
$DIMAPOST
  1

  9
$DIMALT
 70
     0
  9
$DIMALTD
 70
     2
  9
$DIMALTF
 40
25.4
  9
$DIMLFAC
 40
1.0
  9
$DIMTOFL
 70
     0
  9
$DIMTVP
 40
0.0
  9
$DIMTIX
 70
     0
  9
$DIMSOXD
 70
     0
  9
$DIMSAH
 70
     0
  9
$DIMBLK1
  1

  9
$DIMBLK2
  1

  9
$DIMSTYLE
  2
Standard
  9
$DIMCLRD
 70
     0
  9
$DIMCLRE
 70
     0
  9
$DIMCLRT
 70
     0
  9
$DIMTFAC
 40
1.0
  9
$DIMGAP
 40
0.09
  9
$DIMJUST
 70
     0
  9
$DIMSD1
 70
     0
  9
$DIMSD2
 70
     0
  9
$DIMTOLJ
 70
     1
  9
$DIMTZIN
 70
     0
  9
$DIMALTZ
 70
     0
  9
$DIMALTTZ
 70
     0
  9
$DIMUPT
 70
     0
  9
$DIMDEC
 70
     4
  9
$DIMTDEC
 70
     4
  9
$DIMALTU
 70
     2
  9
$DIMALTTD
 70
     2
  9
$DIMTXSTY
  7
Standard
  9
$DIMAUNIT
 70
     0
  9
$DIMADEC
 70
     0
  9
$DIMALTRND
 40
0.0
  9
$DIMAZIN
 70
     0
  9
$DIMDSEP
 70
    46
  9
$DIMATFIT
 70
     3
  9
$DIMFRAC
 70
     0
  9
$DIMLDRBLK
  1

  9
$DIMLUNIT
 70
     2
  9
$DIMLWD
 70
    -2
  9
$DIMLWE
 70
    -2
  9
$DIMTMOVE
 70
     0
  9
$DIMFXL
 40
1.0
  9
$DIMFXLON
 70
     0
  9
$DIMJOGANG
 40
0.7853981633974483
  9
$DIMTFILL
 70
     0
  9
$DIMTFILLCLR
 70
     0
  9
$DIMARCSYM
 70
     0
  9
$DIMLTYPE
  6

  9
$DIMLTEX1
  6

  9
$DIMLTEX2
  6

  9
$DIMTXTDIRECTION
 70
     0
  9
$LUNITS
 70
     2
  9
$LUPREC
 70
     4
  9
$SKETCHINC
 40
0.1
  9
$FILLETRAD
 40
0.5
  9
$AUNITS
 70
     0
  9
$AUPREC
 70
     0
  9
$MENU
  1
.
  9
$ELEVATION
 40
0.0
  9
$PELEVATION
 40
0.0
  9
$THICKNESS
 40
0.0
  9
$LIMCHECK
 70
     0
  9
$CHAMFERA
 40
0.5
  9
$CHAMFERB
 40
0.5
  9
$CHAMFERC
 40
1.0
  9
$CHAMFERD
 40
0.0
  9
$SKPOLY
 70
     0
  9
$TDCREATE
 40
2458133.000162037
  9
$TDUCREATE
 40
2458133.208495371
  9
$TDUPDATE
 40
2458133.000162037
  9
$TDUUPDATE
 40
2458133.208495371
  9
$TDINDWG
 40
0.0000000116
  9
$TDUSRTIMER
 40
0.0000000116
  9
$USRTIMER
 70
     1
  9
$ANGBASE
 50
0.0
  9
$ANGDIR
 70
     0
  9
$PDMODE
 70
     0
  9
$PDSIZE
 40
0.0
  9
$PLINEWID
 40
0.0
  9
$SPLFRAME
 70
     0
  9
$SPLINETYPE
 70
     6
  9
$SPLINESEGS
 70
     8
  9
$HANDSEED
  5
4D
  9
$SURFTAB1
 70
     6
  9
$SURFTAB2
 70
     6
  9
$SURFTYPE
 70
     6
  9
$SURFU
 70
     6
  9
$SURFV
 70
     6
  9
$UCSBASE
  2

  9
$UCSNAME
  2

  9
$UCSORG
 10
0.0
 20
0.0
 30
0.0
  9
$UCSXDIR
 10
1.0
 20
0.0
 30
0.0
  9
$UCSYDIR
 10
0.0
 20
1.0
 30
0.0
  9
$UCSORTHOREF
  2

  9
$UCSORTHOVIEW
 70
     0
  9
$UCSORGTOP
 10
0.0
 20
0.0
 30
0.0
  9
$UCSORGBOTTOM
 10
0.0
 20
0.0
 30
0.0
  9
$UCSORGLEFT
 10
0.0
 20
0.0
 30
0.0
  9
$UCSORGRIGHT
 10
0.0
 20
0.0
 30
0.0
  9
$UCSORGFRONT
 10
0.0
 20
0.0
 30
0.0
  9
$UCSORGBACK
 10
0.0
 20
0.0
 30
0.0
  9
$PUCSBASE
  2

  9
$PUCSNAME
  2

  9
$PUCSORG
 10
0.0
 20
0.0
 30
0.0
  9
$PUCSXDIR
 10
1.0
 20
0.0
 30
0.0
  9
$PUCSYDIR
 10
0.0
 20
1.0
 30
0.0
  9
$PUCSORTHOREF
  2

  9
$PUCSORTHOVIEW
 70
     0
  9
$PUCSORGTOP
 10
0.0
 20
0.0
 30
0.0
  9
$PUCSORGBOTTOM
 10
0.0
 20
0.0
 30
0.0
  9
$PUCSORGLEFT
 10
0.0
 20
0.0
 30
0.0
  9
$PUCSORGRIGHT
 10
0.0
 20
0.0
 30
0.0
  9
$PUCSORGFRONT
 10
0.0
 20
0.0
 30
0.0
  9
$PUCSORGBACK
 10
0.0
 20
0.0
 30
0.0
  9
$USERI1
 70
     0
  9
$USERI2
 70
     0
  9
$USERI3
 70
     0
  9
$USERI4
 70
     0
  9
$USERI5
 70
     0
  9
$USERR1
 40
0.0
  9
$USERR2
 40
0.0
  9
$USERR3
 40
0.0
  9
$USERR4
 40
0.0
  9
$USERR5
 40
0.0
  9
$WORLDVIEW
 70
     1
  9
$SHADEDGE
 70
     3
  9
$SHADEDIF
 70
    70
  9
$TILEMODE
 70
     1
  9
$MAXACTVP
 70
    64
  9
$PINSBASE
 10
0.0
 20
0.0
 30
0.0
  9
$PLIMCHECK
 70
     0
  9
$PEXTMIN
 10
1.000000000000000E+20
 20
1.000000000000000E+20
 30
1.000000000000000E+20
  9
$PEXTMAX
 10
-1.000000000000000E+20
 20
-1.000000000000000E+20
 30
-1.000000000000000E+20
  9
$PLIMMIN
 10
0.0
 20
0.0
  9
$PLIMMAX
 10
12.0
 20
9.0
  9
$UNITMODE
 70
     0
  9
$VISRETAIN
 70
     1
  9
$PLINEGEN
 70
     0
  9
$PSLTSCALE
 70
     1
  9
$TREEDEPTH
 70
  3020
  9
$CMLSTYLE
  2
Standard
  9
$CMLJUST
 70
     0
  9
$CMLSCALE
 40
1.0
  9
$PROXYGRAPHICS
 70
     1
  9
$MEASUREMENT
 70
     0
  9
$CELWEIGHT
370
    -1
  9
$ENDCAPS
280
     0
  9
$JOINSTYLE
280
     0
  9
$LWDISPLAY
290
     1
  9
$INSUNITS
 70
     1
  9
$HYPERLINKBASE
  1

  9
$STYLESHEET
  1

  9
$XEDIT
290
     1
  9
$CEPSNTYPE
380
     0
  9
$PSTYLEMODE
290
     1
  9
$FINGERPRINTGUID
  2
{5D87F66F-CF1E-2848-F89C-4580EF5A40EE}
  9
$VERSIONGUID
  2
{FAEB1C32-E019-11D5-929B-00C0DF256EC4}
  9
$EXTNAMES
290
     1
  9
$PSVPSCALE
 40
0.0
  9
$OLESTARTUP
290
     0
  9
$SORTENTS
280
   127
  9
$INDEXCTL
280
     0
  9
$HIDETEXT
280
     1
  9
$XCLIPFRAME
280
     2
  9
$HALOGAP
280
     0
  9
$OBSCOLOR
 70
   257
  9
$OBSLTYPE
280
     0
  9
$INTERSECTIONDISPLAY
280
     0
  9
$INTERSECTIONCOLOR
 70
   257
  9
$DIMASSOC
280
     2
  9
$PROJECTNAME
  1

  9
$CAMERADISPLAY
290
     0
  9
$LENSLENGTH
 40
50.0
  9
$CAMERAHEIGHT
 40
0.0
  9
$STEPSPERSEC
 40
2.0
  9
$STEPSIZE
 40
6.0
  9
$3DDWFPREC
 40
2.0
  9
$PSOLWIDTH
 40
0.25
  9
$PSOLHEIGHT
 40
4.0
  9
$LOFTANG1
 40
1.570796326794897
  9
$LOFTANG2
 40
1.570796326794897
  9
$LOFTMAG1
 40
0.0
  9
$LOFTMAG2
 40
0.0
  9
$LOFTPARAM
 70
     7
  9
$LOFTNORMALS
280
     1
  9
$LATITUDE
 40
37.795
  9
$LONGITUDE
 40
-122.394
  9
$NORTHDIRECTION
 40
0.0
  9
$TIMEZONE
 70
 -8000
  9
$LIGHTGLYPHDISPLAY
280
     1
  9
$TILEMODELIGHTSYNCH
280
     1
  9
$CMATERIAL
347
3C
  9
$SOLIDHIST
280
     1
  9
$SHOWHIST
280
     1
  9
$DWFFRAME
280
     2
  9
$DGNFRAME
280
     2
  9
$REALWORLDSCALE
290
     1
  9
$INTERFERECOLOR
 62
   256
  9
$CSHADOW
280
     0
  9
$SHADOWPLANELOCATION
 40
0.0
  0
ENDSEC
  0
SECTION
  2
CLASSES
  0
CLASS
  1
ACDBDICTIONARYWDFLT
  2
AcDbDictionaryWithDefault
  3
ObjectDBX Classes
 90
        0
 91
        4
280
     0
281
     0
  0
CLASS
  1
VISUALSTYLE
  2
AcDbVisualStyle
  3
ObjectDBX Classes
 90
     4095
 91
        4
280
     0
281
     0
  0
CLASS
  1
MATERIAL
  2
AcDbMaterial
  3
ObjectDBX Classes
 90
     1153
 91
        4
280
     0
281
     0
  0
CLASS
  1
SUN
  2
AcDbSun
  3
SCENEOE
 90
     1024
 91
        4
280
     0
281
     0
  0
ENDSEC
  0
SECTION
  2
TABLES
  0
TABLE
  2
VPORT
  5
8
330
0
100
AcDbSymbolTable
 70
     1
  0
VPORT
  5
29
330
8
100
AcDbSymbolTableRecord
100
AcDbViewportTableRecord
  2
*Active
 70
     0
 10
0.0
 20
0.0
 11
1.0
 21
1.0
 12
0.0
 22
0.0
 13
0.0
 23
0.0
 14
0.5
 24
0.5
 15
0.5
 25
0.5
 16
0.0
 26
0.0
 36
1.0
 17
139.699999965075
 27
-107.9499999730125
 37
0.0
 40
215.899999946025
 41
1.294117647058823
 42
50.0
 43
0.0
 44
0.0
 50
0.0
 51
0.0
 71
     0
 72
   100
 73
     1
 74
     3
 75
     0
 76
     0
 77
     0
 78
     0
281
     0
 65
     1
110
0.0
120
0.0
130
0.0
111
1.0
121
0.0
131
0.0
112
0.0
122
1.0
132
0.0
 79
     0
146
0.0
 60
     3
 61
     5
292
     1
282
     1
141
0.0
142
0.0
 63
   250
361
3F
  0
ENDTAB
  0
TABLE
  2
LTYPE
  5
5
330
0
100
AcDbSymbolTable
 70
     1
  0
LTYPE
  5
14
330
5
100
AcDbSymbolTableRecord
100
AcDbLinetypeTableRecord
  2
ByBlock
 70
     0
  3

 72
    65
 73
     0
 40
0.0
  0
LTYPE
  5
15
330
5
100
AcDbSymbolTableRecord
100
AcDbLinetypeTableRecord
  2
ByLayer
 70
     0
  3

 72
    65
 73
     0
 40
0.0
  0
LTYPE
  5
16
330
5
100
AcDbSymbolTableRecord
100
AcDbLinetypeTableRecord
  2
Continuous
 70
     0
  3
Solid line
 72
    65
 73
     0
 40
0.0
  0
ENDTAB
  0
TABLE
  2
LAYER
  5
2
330
0
100
AcDbSymbolTable
 70
     2
  0
LAYER
  5
10
330
2
100
AcDbSymbolTableRecord
100
AcDbLayerTableRecord
  2
0
 70
     0
 62
     7
  6
Continuous
370
    -3
390
F
347
3E
  0
LAYER
  5
40
330
2
100
AcDbSymbolTableRecord
100
AcDbLayerTableRecord
  2
Layer 1
 70
     0
 62
     7
  6
Continuous
370
    -3
390
F
347
3E
  0
ENDTAB
  0
TABLE
  2
STYLE
  5
3
330
0
100
AcDbSymbolTable
 70
     1
  0
STYLE
  5
11
330
3
100
AcDbSymbolTableRecord
100
AcDbTextStyleTableRecord
  2
Standard
 70
     0
 40
0.0
 41
1.0
 50
0.0
 71
     0
 42
0.2
  3
txt
  4

  0
ENDTAB
  0
TABLE
  2
VIEW
  5
6
330
0
100
AcDbSymbolTable
 70
     0
  0
ENDTAB
  0
TABLE
  2
UCS
  5
7
330
0
100
AcDbSymbolTable
 70
     0
  0
ENDTAB
  0
TABLE
  2
APPID
  5
9
330
0
100
AcDbSymbolTable
 70
     1
  0
APPID
  5
12
330
9
100
AcDbSymbolTableRecord
100
AcDbRegAppTableRecord
  2
ACAD
 70
     0
  0
ENDTAB
  0
TABLE
  2
DIMSTYLE
  5
A
330
0
100
AcDbSymbolTable
 70
     1
100
AcDbDimStyleTable
  0
DIMSTYLE
105
27
330
A
100
AcDbSymbolTableRecord
100
AcDbDimStyleTableRecord
  2
Standard
 70
     0
178
     0
340
11
  0
ENDTAB
  0
TABLE
  2
BLOCK_RECORD
  5
1
330
0
100
AcDbSymbolTable
 70
     1
  0
BLOCK_RECORD
  5
1F
330
1
100
AcDbSymbolTableRecord
100
AcDbBlockTableRecord
  2
*Model_Space
340
22
 70
     0
280
     1
281
     0
  0
BLOCK_RECORD
  5
1B
330
1
100
AcDbSymbolTableRecord
100
AcDbBlockTableRecord
  2
*Paper_Space
340
1E
 70
     0
280
     1
281
     0
  0
BLOCK_RECORD
  5
23
330
1
100
AcDbSymbolTableRecord
100
AcDbBlockTableRecord
  2
*Paper_Space0
340
26
 70
     0
280
     1
281
     0
  0
ENDTAB
  0
ENDSEC
  0
SECTION
  2
BLOCKS
  0
BLOCK
  5
20
330
1F
100
AcDbEntity
  8
0
100
AcDbBlockBegin
  2
*Model_Space
 70
     0
 10
0.0
 20
0.0
 30
0.0
  3
*Model_Space
  1

  0
ENDBLK
  5
21
330
1F
100
AcDbEntity
  8
0
100
AcDbBlockEnd
  0
BLOCK
  5
1C
330
1B
100
AcDbEntity
 67
     1
  8
0
100
AcDbBlockBegin
  2
*Paper_Space
 70
     0
 10
0.0
 20
0.0
 30
0.0
  3
*Paper_Space
  1

  0
ENDBLK
  5
1D
330
1B
100
AcDbEntity
 67
     1
  8
0
100
AcDbBlockEnd
  0
BLOCK
  5
24
330
23
100
AcDbEntity
  8
0
100
AcDbBlockBegin
  2
*Paper_Space0
 70
     0
 10
0.0
 20
0.0
 30
0.0
  3
*Paper_Space0
  1

  0
ENDBLK
  5
25
330
23
100
AcDbEntity
  8
0
100
AcDbBlockEnd
  0
ENDSEC
  0
SECTION
  2
ENTITIES
  0
SPLINE
  5
41
330
1F
100
AcDbEntity
  8
Layer 1
370
     0
100
AcDbSpline
210
0.0
220
0.0
230
1.0
 70
    11
 71
     3
 72
    95
 73
    91
 74
     0
 42
0.0000000001
 43
0.0000000001
 12
1.0
 22
0.0
 32
0.0
 13
1.0
 23
0.0
 33
0.0
 40
0.0
 40
0.0
 40
0.0
 40
0.0
 40
1.0
 40
1.0
 40
1.0
 40
2.0
 40
2.0
 40
2.0
 40
3.0
 40
3.0
 40
3.0
 40
4.0
 40
4.0
 40
4.0
 40
5.0
 40
5.0
 40
5.0
 40
6.0
 40
6.0
 40
6.0
 40
7.0
 40
7.0
 40
7.0
 40
8.0
 40
8.0
 40
8.0
 40
9.0
 40
9.0
 40
9.0
 40
10.0
 40
10.0
 40
10.0
 40
11.0
 40
11.0
 40
11.0
 40
12.0
 40
12.0
 40
12.0
 40
13.0
 40
13.0
 40
13.0
 40
14.0
 40
14.0
 40
14.0
 40
15.0
 40
15.0
 40
15.0
 40
16.0
 40
16.0
 40
16.0
 40
17.0
 40
17.0
 40
17.0
 40
18.0
 40
18.0
 40
18.0
 40
19.0
 40
19.0
 40
19.0
 40
20.0
 40
20.0
 40
20.0
 40
21.0
 40
21.0
 40
21.0
 40
22.0
 40
22.0
 40
22.0
 40
23.0
 40
23.0
 40
23.0
 40
24.0
 40
24.0
 40
24.0
 40
25.0
 40
25.0
 40
25.0
 40
26.0
 40
26.0
 40
26.0
 40
27.0
 40
27.0
 40
27.0
 40
28.0
 40
28.0
 40
28.0
 40
29.0
 40
29.0
 40
29.0
 40
30.0
 40
30.0
 40
30.0
 40
30.0
 10
153.1584226489447
 20
-123.1411485152178
 30
0.0
 10
152.0789019786417
 20
-120.6390617916706
 30
0.0
 10
151.5220022934511
 20
-117.9427578101398
 30
0.0
 10
151.5220022934511
 20
-115.2177734086917
 30
0.0
 10
151.5220022934511
 20
-115.2177734086917
 30
0.0
 10
151.5220022934511
 20
-102.0049241554307
 30
0.0
 10
151.5220022934511
 20
-102.0049241554307
 30
0.0
 10
151.5220022934511
 20
-99.26262814917179
 30
0.0
 10
152.0859644243865
 20
-96.54952932714849
 30
0.0
 10
153.178920967082
 20
-94.03443736814184
 30
0.0
 10
153.178920967082
 20
-94.03443736814184
 30
0.0
 10
155.7947819690322
 20
-88.01413300766775
 30
0.0
 10
155.7947819690322
 20
-88.01413300766775
 30
0.0
 10
156.4105927870206
 20
-86.59690685242502
 30
0.0
 10
155.8542098661527
 20
-84.88693370832127
 30
0.0
 10
154.4555010991413
 20
-84.23012625405839
 30
0.0
 10
153.0080442310136
 20
-83.55049504220379
 30
0.0
 10
151.29686530349
 20
-84.20290999972491
 30
0.0
 10
150.6643457723981
 20
-85.65837671485392
 30
0.0
 10
150.6643457723981
 20
-85.65837671485392
 30
0.0
 10
150.0132227256859
 20
-87.15707937832664
 30
0.0
 10
150.0132227256859
 20
-87.15707937832664
 30
0.0
 10
149.0609983335628
 20
-89.34841848910501
 30
0.0
 10
146.8993731713428
 20
-90.76598915390011
 30
0.0
 10
144.5101994523221
 20
-90.76598915390011
 30
0.0
 10
144.5101994523221
 20
-90.76598915390011
 30
0.0
 10
135.3188569524498
 20
-90.76598915390011
 30
0.0
 10
135.3188569524498
 20
-90.76598915390011
 30
0.0
 10
132.9239988258784
 20
-90.76598915390011
 30
0.0
 10
130.7585840586246
 20
-89.34187280768303
 30
0.0
 10
129.8098047619868
 20
-87.14286835944807
 30
0.0
 10
129.8098047619868
 20
-87.14286835944807
 30
0.0
 10
129.1955442369667
 20
-85.71926877755763
 30
0.0
 10
129.1955442369667
 20
-85.71926877755763
 30
0.0
 10
128.6333046537739
 20
-84.41590302809855
 30
0.0
 10
127.2054848299121
 20
-83.64618256930854
 30
0.0
 10
125.8362316292996
 20
-84.02109508548892
 30
0.0
 10
124.1405556314596
 20
-84.48532170212634
 30
0.0
 10
123.3037419380924
 20
-86.31148069147207
 30
0.0
 10
123.9745020290706
 20
-87.86633841135053
 30
0.0
 10
123.9745020290706
 20
-87.86633841135053
 30
0.0
 10
126.6275700622615
 20
-94.01557547036202
 30
0.0
 10
126.6275700622615
 20
-94.01557547036202
 30
0.0
 10
127.7069184777903
 20
-96.51748993913566
 30
0.0
 10
128.2636459082066
 20
-99.21353553850697
 30
0.0
 10
128.2636459082066
 20
-101.9383476851763
 30
0.0
 10
128.2636459082066
 20
-101.9383476851763
 30
0.0
 10
128.2636459082066
 20
-114.9329501394513
 30
0.0
 10
128.2636459082066
 20
-114.9329501394513
 30
0.0
 10
128.2636459082066
 20
-117.675504527869
 30
0.0
 10
127.6996837772712
 20
-120.3886894772775
 30
0.0
 10
126.6065549798015
 20
-122.9040398184481
 30
0.0
 10
126.6065549798015
 20
-122.9040398184481
 30
0.0
 10
123.8976763997495
 20
-129.1376817168437
 30
0.0
 10
123.8976763997495
 20
-129.1376817168437
 30
0.0
 10
123.276525683759
 20
-130.5673963432224
 30
0.0
 10
123.9317828450535
 20
-132.2296549148554
 30
0.0
 10
125.3611529618836
 20
-132.850805630846
 30
0.0
 10
125.7273666119657
 20
-133.0099690422645
 30
0.0
 10
126.1090831917314
 20
-133.0854166333915
 30
0.0
 10
126.4845985996236
 20
-133.0854166333915
 30
0.0
 10
127.5742823016081
 20
-133.0854166333915
 30
0.0
 10
128.6122895713139
 20
-132.4504855354599
 30
0.0
 10
129.0742768758859
 20
-131.3873290687118
 30
0.0
 10
129.0742768758859
 20
-131.3873290687118
 30
0.0
 10
129.6912934772942
 20
-129.9676913466301
 30
0.0
 10
129.6912934772942
 20
-129.9676913466301
 30
0.0
 10
130.6629826589089
 20
-127.731565994539
 30
0.0
 10
132.8687050433401
 20
-126.2851426550568
 30
0.0
 10
135.3067991182514
 20
-126.2851426550568
 30
0.0
 10
135.3067991182514
 20
-126.2851426550568
 30
0.0
 10
144.4216604983511
 20
-126.2851426550568
 30
0.0
 10
144.4216604983511
 20
-126.2851426550568
 30
0.0
 10
146.8165186249226
 20
-126.2851426550568
 30
0.0
 10
148.9819333921764
 20
-127.7092590012745
 30
0.0
 10
149.9307126888142
 20
-129.9081773221198
 30
0.0
 10
149.9307126888142
 20
-129.9081773221198
 30
0.0
 10
150.5809744616551
 20
-131.4152343421424
 30
0.0
 10
150.5809744616551
 20
-131.4152343421424
 30
0.0
 10
151.0412392184845
 20
-132.4821804139242
 30
0.0
 10
152.0813135454814
 20
-133.1202120977925
 30
0.0
 10
153.1737533238541
 20
-133.1202120977925
 30
0.0
 10
153.6391857239114
 20
-133.1202120977925
 30
0.0
 10
154.1144366461016
 20
-133.0043707621035
 30
0.0
 10
154.5578204350532
 20
-132.7565822693244
 30
0.0
 10
155.8335392932412
 20
-132.0437058860416
 30
0.0
 10
156.3050006103977
 20
-130.4337266383947
 30
0.0
 10
155.7260523141015
 20
-129.0919480742795
 30
0.0
 10
155.7260523141015
 20
-129.0919480742795
 30
0.0
 10
153.1584226489447
 20
-123.1411485152178
 30
0.0
 10
153.1584226489447
 20
-123.1411485152178
 30
0.0
  0
SPLINE
  5
42
330
1F
100
AcDbEntity
  8
Layer 1
370
     0
100
AcDbSpline
210
0.0
220
0.0
230
1.0
 70
    11
 71
     3
 72
    17
 73
    13
 74
     0
 42
0.0000000001
 43
0.0000000001
 12
1.0
 22
0.0
 32
0.0
 13
1.0
 23
0.0
 33
0.0
 40
0.0
 40
0.0
 40
0.0
 40
0.0
 40
1.0
 40
1.0
 40
1.0
 40
2.0
 40
2.0
 40
2.0
 40
3.0
 40
3.0
 40
3.0
 40
4.0
 40
4.0
 40
4.0
 40
4.0
 10
153.2526460104663
 20
-85.283119689125
 30
0.0
 10
154.0810192198946
 20
-85.283119689125
 30
0.0
 10
154.7526405847441
 20
-85.95465492658539
 30
0.0
 10
154.7526405847441
 20
-86.78311426340278
 30
0.0
 10
154.7526405847441
 20
-87.6114874728311
 30
0.0
 10
154.0810192198946
 20
-88.28310883768056
 30
0.0
 10
153.2526460104663
 20
-88.28310883768056
 30
0.0
 10
152.4241005462637
 20
-88.28310883768056
 30
0.0
 10
151.7526514361886
 20
-87.6114874728311
 30
0.0
 10
151.7526514361886
 20
-86.78311426340278
 30
0.0
 10
151.7526514361886
 20
-85.95465492658539
 30
0.0
 10
152.4241005462637
 20
-85.283119689125
 30
0.0
 10
153.2526460104663
 20
-85.283119689125
 30
0.0
  0
SPLINE
  5
43
330
1F
100
AcDbEntity
  8
Layer 1
370
     0
100
AcDbSpline
210
0.0
220
0.0
230
1.0
 70
    11
 71
     3
 72
    17
 73
    13
 74
     0
 42
0.0000000001
 43
0.0000000001
 12
1.0
 22
0.0
 32
0.0
 13
1.0
 23
0.0
 33
0.0
 40
0.0
 40
0.0
 40
0.0
 40
0.0
 40
1.0
 40
1.0
 40
1.0
 40
2.0
 40
2.0
 40
2.0
 40
3.0
 40
3.0
 40
3.0
 40
4.0
 40
4.0
 40
4.0
 40
4.0
 10
126.5810612732106
 20
-88.28310883768056
 30
0.0
 10
125.7526880637823
 20
-88.28310883768056
 30
0.0
 10
125.0810666989328
 20
-87.6114874728311
 30
0.0
 10
125.0810666989328
 20
-86.78311426340278
 30
0.0
 10
125.0810666989328
 20
-85.95465492658539
 30
0.0
 10
125.7526880637823
 20
-85.283119689125
 30
0.0
 10
126.5810612732106
 20
-85.283119689125
 30
0.0
 10
127.4094344826389
 20
-85.283119689125
 30
0.0
 10
128.0810558474884
 20
-85.95465492658539
 30
0.0
 10
128.0810558474884
 20
-86.78311426340278
 30
0.0
 10
128.0810558474884
 20
-87.6114874728311
 30
0.0
 10
127.4094344826389
 20
-88.28310883768056
 30
0.0
 10
126.5810612732106
 20
-88.28310883768056
 30
0.0
  0
SPLINE
  5
44
330
1F
100
AcDbEntity
  8
Layer 1
370
     0
100
AcDbSpline
210
0.0
220
0.0
230
1.0
 70
    11
 71
     3
 72
    17
 73
    13
 74
     0
 42
0.0000000001
 43
0.0000000001
 12
1.0
 22
0.0
 32
0.0
 13
1.0
 23
0.0
 33
0.0
 40
0.0
 40
0.0
 40
0.0
 40
0.0
 40
1.0
 40
1.0
 40
1.0
 40
2.0
 40
2.0
 40
2.0
 40
3.0
 40
3.0
 40
3.0
 40
4.0
 40
4.0
 40
4.0
 40
4.0
 10
126.4858043830434
 20
-131.7624999670555
 30
0.0
 10
125.6574311736151
 20
-131.7624999670555
 30
0.0
 10
124.9858098087657
 20
-131.0908786022061
 30
0.0
 10
124.9858098087657
 20
-130.2625053927777
 30
0.0
 10
124.9858098087657
 20
-129.4340460559649
 30
0.0
 10
125.6574311736151
 20
-128.7624246911154
 30
0.0
 10
126.4858043830434
 20
-128.7624246911154
 30
0.0
 10
127.314349847246
 20
-128.7624246911154
 30
0.0
 10
127.9857989573212
 20
-129.4340460559649
 30
0.0
 10
127.9857989573212
 20
-130.2625053927777
 30
0.0
 10
127.9857989573212
 20
-131.0908786022061
 30
0.0
 10
127.314349847246
 20
-131.7624999670555
 30
0.0
 10
126.4858043830434
 20
-131.7624999670555
 30
0.0
  0
SPLINE
  5
45
330
1F
100
AcDbEntity
  8
Layer 1
370
     0
100
AcDbSpline
210
0.0
220
0.0
230
1.0
 70
    11
 71
     3
 72
    23
 73
    19
 74
     0
 42
0.0000000001
 43
0.0000000001
 12
1.0
 22
0.0
 32
0.0
 13
1.0
 23
0.0
 33
0.0
 40
0.0
 40
0.0
 40
0.0
 40
0.0
 40
1.0
 40
1.0
 40
1.0
 40
2.0
 40
2.0
 40
2.0
 40
3.0
 40
3.0
 40
3.0
 40
4.0
 40
4.0
 40
4.0
 40
5.0
 40
5.0
 40
5.0
 40
6.0
 40
6.0
 40
6.0
 40
6.0
 10
135.4384017657879
 20
-100.2270432963392
 30
0.0
 10
135.4384017657879
 20
-100.2270432963392
 30
0.0
 10
144.2638751251267
 20
-100.2272155511135
 30
0.0
 10
144.2638751251267
 20
-100.2272155511135
 30
0.0
 10
145.1547768176123
 20
-100.2272155511135
 30
0.0
 10
145.6010889377264
 20
-101.3043246545768
 30
0.0
 10
144.9709809734742
 20
-101.9342603640548
 30
0.0
 10
144.9709809734742
 20
-101.9342603640548
 30
0.0
 10
140.559019440289
 20
-106.3460496424657
 30
0.0
 10
140.559019440289
 20
-106.3460496424657
 30
0.0
 10
140.168517867036
 20
-106.7365512157188
 30
0.0
 10
139.5354815716213
 20
-106.7365512157188
 30
0.0
 10
139.1449799983682
 20
-106.3461357698509
 30
0.0
 10
139.1449799983682
 20
-106.3461357698509
 30
0.0
 10
134.7314681722147
 20
-101.93434649144
 30
0.0
 10
134.7314681722147
 20
-101.93434649144
 30
0.0
 10
134.1013602079625
 20
-101.304410781962
 30
0.0
 10
134.5475000733023
 20
-100.2270432963392
 30
0.0
 10
135.4384017657879
 20
-100.2270432963392
 30
0.0
  0
SPLINE
  5
46
330
1F
100
AcDbEntity
  8
Layer 1
370
     0
100
AcDbSpline
210
0.0
220
0.0
230
1.0
 70
    11
 71
     3
 72
    23
 73
    19
 74
     0
 42
0.0000000001
 43
0.0000000001
 12
1.0
 22
0.0
 32
0.0
 13
1.0
 23
0.0
 33
0.0
 40
0.0
 40
0.0
 40
0.0
 40
0.0
 40
1.0
 40
1.0
 40
1.0
 40
2.0
 40
2.0
 40
2.0
 40
3.0
 40
3.0
 40
3.0
 40
4.0
 40
4.0
 40
4.0
 40
5.0
 40
5.0
 40
5.0
 40
6.0
 40
6.0
 40
6.0
 40
6.0
 10
131.6563759420807
 20
-114.9968566607026
 30
0.0
 10
131.6563759420807
 20
-114.9968566607026
 30
0.0
 10
131.6565481968549
 20
-107.0539306372955
 30
0.0
 10
131.6565481968549
 20
-107.0539306372955
 30
0.0
 10
131.6565481968549
 20
-106.2521707904927
 30
0.0
 10
132.62582581163
 20
-105.8505587842977
 30
0.0
 10
133.1928885285021
 20
-106.4175353737846
 30
0.0
 10
133.1928885285021
 20
-106.4175353737846
 30
0.0
 10
137.1633610752525
 20
-110.3884385574685
 30
0.0
 10
137.1633610752525
 20
-110.3884385574685
 30
0.0
 10
137.5149330695223
 20
-110.7397521695794
 30
0.0
 10
137.5149330695223
 20
-111.30948483545
 30
0.0
 10
137.1635333300268
 20
-111.6610568297198
 30
0.0
 10
137.1635333300268
 20
-111.6610568297198
 30
0.0
 10
133.1928885285021
 20
-115.6332519242128
 30
0.0
 10
133.1928885285021
 20
-115.6332519242128
 30
0.0
 10
132.6259980664042
 20
-116.200314641085
 30
0.0
 10
131.6563759420807
 20
-115.7987887622791
 30
0.0
 10
131.6563759420807
 20
-114.9968566607026
 30
0.0
  0
SPLINE
  5
47
330
1F
100
AcDbEntity
  8
Layer 1
370
     0
100
AcDbSpline
210
0.0
220
0.0
230
1.0
 70
    11
 71
     3
 72
    23
 73
    19
 74
     0
 42
0.0000000001
 43
0.0000000001
 12
1.0
 22
0.0
 32
0.0
 13
1.0
 23
0.0
 33
0.0
 40
0.0
 40
0.0
 40
0.0
 40
0.0
 40
1.0
 40
1.0
 40
1.0
 40
2.0
 40
2.0
 40
2.0
 40
3.0
 40
3.0
 40
3.0
 40
4.0
 40
4.0
 40
4.0
 40
5.0
 40
5.0
 40
5.0
 40
6.0
 40
6.0
 40
6.0
 40
6.0
 10
144.4070188425388
 20
-121.8192653775274
 30
0.0
 10
144.4070188425388
 20
-121.8192653775274
 30
0.0
 10
135.2999089272809
 20
-121.8192653775274
 30
0.0
 10
135.2999089272809
 20
-121.8192653775274
 30
0.0
 10
134.4090072347953
 20
-121.8192653775274
 30
0.0
 10
133.9626951146812
 20
-120.7421562740641
 30
0.0
 10
134.5928030789334
 20
-120.1120483098119
 30
0.0
 10
134.5928030789334
 20
-120.1120483098119
 30
0.0
 10
139.145496762691
 20
-115.5595268808285
 30
0.0
 10
139.145496762691
 20
-115.5595268808285
 30
0.0
 10
139.5359983359441
 20
-115.1690253075754
 30
0.0
 10
140.1690346313588
 20
-115.1690253075754
 30
0.0
 10
140.5595362046118
 20
-115.5593546260542
 30
0.0
 10
140.5595362046118
 20
-115.5593546260542
 30
0.0
 10
145.1139524361121
 20
-120.1120483098119
 30
0.0
 10
145.1139524361121
 20
-120.1120483098119
 30
0.0
 10
145.7442326551386
 20
-120.7419840192898
 30
0.0
 10
145.2980927897987
 20
-121.8192653775274
 30
0.0
 10
144.4070188425388
 20
-121.8192653775274
 30
0.0
  0
SPLINE
  5
48
330
1F
100
AcDbEntity
  8
Layer 1
370
     0
100
AcDbSpline
210
0.0
220
0.0
230
1.0
 70
    11
 71
     3
 72
    23
 73
    19
 74
     0
 42
0.0000000001
 43
0.0000000001
 12
1.0
 22
0.0
 32
0.0
 13
1.0
 23
0.0
 33
0.0
 40
0.0
 40
0.0
 40
0.0
 40
0.0
 40
1.0
 40
1.0
 40
1.0
 40
2.0
 40
2.0
 40
2.0
 40
3.0
 40
3.0
 40
3.0
 40
4.0
 40
4.0
 40
4.0
 40
5.0
 40
5.0
 40
5.0
 40
6.0
 40
6.0
 40
6.0
 40
6.0
 10
148.1003334575009
 20
-115.1213968624944
 30
0.0
 10
148.1003334575009
 20
-115.9231567092966
 30
0.0
 10
147.1308835879516
 20
-116.3247687154922
 30
0.0
 10
146.5638208710795
 20
-115.7577921260046
 30
0.0
 10
146.5638208710795
 20
-115.7577921260046
 30
0.0
 10
142.4665688104719
 20
-111.6602816832382
 30
0.0
 10
142.4665688104719
 20
-111.6602816832382
 30
0.0
 10
142.1149968162021
 20
-111.308795816353
 30
0.0
 10
142.1149968162021
 20
-110.7390631504824
 30
0.0
 10
142.4663965556976
 20
-110.3876634109869
 30
0.0
 10
142.4663965556976
 20
-110.3876634109869
 30
0.0
 10
146.5638208710795
 20
-106.2886888026363
 30
0.0
 10
146.5638208710795
 20
-106.2886888026363
 30
0.0
 10
147.1307113331774
 20
-105.7215399583751
 30
0.0
 10
148.1003334575009
 20
-106.123065837181
 30
0.0
 10
148.1003334575009
 20
-106.9249118113729
 30
0.0
 10
148.1003334575009
 20
-106.9249118113729
 30
0.0
 10
148.1003334575009
 20
-115.1213968624944
 30
0.0
 10
148.1003334575009
 20
-115.1213968624944
 30
0.0
  0
SPLINE
  5
49
330
1F
100
AcDbEntity
  8
Layer 1
370
     0
100
AcDbSpline
210
0.0
220
0.0
230
1.0
 70
    11
 71
     3
 72
    17
 73
    13
 74
     0
 42
0.0000000001
 43
0.0000000001
 12
1.0
 22
0.0
 32
0.0
 13
1.0
 23
0.0
 33
0.0
 40
0.0
 40
0.0
 40
0.0
 40
0.0
 40
1.0
 40
1.0
 40
1.0
 40
2.0
 40
2.0
 40
2.0
 40
3.0
 40
3.0
 40
3.0
 40
4.0
 40
4.0
 40
4.0
 40
4.0
 10
153.1573891202992
 20
-131.7624999670555
 30
0.0
 10
152.3290159108709
 20
-131.7624999670555
 30
0.0
 10
151.6573945460214
 20
-131.0908786022061
 30
0.0
 10
151.6573945460214
 20
-130.2625053927777
 30
0.0
 10
151.6573945460214
 20
-129.4340460559649
 30
0.0
 10
152.3290159108709
 20
-128.7624246911154
 30
0.0
 10
153.1573891202992
 20
-128.7624246911154
 30
0.0
 10
153.9857623297275
 20
-128.7624246911154
 30
0.0
 10
154.6573836945769
 20
-129.4340460559649
 30
0.0
 10
154.6573836945769
 20
-130.2625053927777
 30
0.0
 10
154.6573836945769
 20
-131.0908786022061
 30
0.0
 10
153.9857623297275
 20
-131.7624999670555
 30
0.0
 10
153.1573891202992
 20
-131.7624999670555
 30
0.0
  0
HATCH
  5
4A
330
1F
100
AcDbEntity
  8
Layer 1
 62
   116
420
    28224
100
AcDbHatch
 10
0.0
 20
0.0
 30
0.0
210
0.0
220
0.0
230
1.0
  2
SOLID
 70
     1
 71
     0
 91
        9
 92
        1
 93
        1
 72
     4
 94
        3
 73
     0
 74
     1
 95
       95
 96
       91
 40
0.0
 40
0.0
 40
0.0
 40
0.0
 40
1.0
 40
1.0
 40
1.0
 40
2.0
 40
2.0
 40
2.0
 40
3.0
 40
3.0
 40
3.0
 40
4.0
 40
4.0
 40
4.0
 40
5.0
 40
5.0
 40
5.0
 40
6.0
 40
6.0
 40
6.0
 40
7.0
 40
7.0
 40
7.0
 40
8.0
 40
8.0
 40
8.0
 40
9.0
 40
9.0
 40
9.0
 40
10.0
 40
10.0
 40
10.0
 40
11.0
 40
11.0
 40
11.0
 40
12.0
 40
12.0
 40
12.0
 40
13.0
 40
13.0
 40
13.0
 40
14.0
 40
14.0
 40
14.0
 40
15.0
 40
15.0
 40
15.0
 40
16.0
 40
16.0
 40
16.0
 40
17.0
 40
17.0
 40
17.0
 40
18.0
 40
18.0
 40
18.0
 40
19.0
 40
19.0
 40
19.0
 40
20.0
 40
20.0
 40
20.0
 40
21.0
 40
21.0
 40
21.0
 40
22.0
 40
22.0
 40
22.0
 40
23.0
 40
23.0
 40
23.0
 40
24.0
 40
24.0
 40
24.0
 40
25.0
 40
25.0
 40
25.0
 40
26.0
 40
26.0
 40
26.0
 40
27.0
 40
27.0
 40
27.0
 40
28.0
 40
28.0
 40
28.0
 40
29.0
 40
29.0
 40
29.0
 40
30.0
 40
30.0
 40
30.0
 40
30.0
 10
153.1584226489447
 20
-123.1411485152178
 10
152.0789019786417
 20
-120.6390617916706
 10
151.5220022934511
 20
-117.9427578101398
 10
151.5220022934511
 20
-115.2177734086917
 10
151.5220022934511
 20
-115.2177734086917
 10
151.5220022934511
 20
-102.0049241554307
 10
151.5220022934511
 20
-102.0049241554307
 10
151.5220022934511
 20
-99.26262814917179
 10
152.0859644243865
 20
-96.54952932714849
 10
153.178920967082
 20
-94.03443736814184
 10
153.178920967082
 20
-94.03443736814184
 10
155.7947819690322
 20
-88.01413300766775
 10
155.7947819690322
 20
-88.01413300766775
 10
156.4105927870206
 20
-86.59690685242502
 10
155.8542098661527
 20
-84.88693370832127
 10
154.4555010991413
 20
-84.23012625405839
 10
153.0080442310136
 20
-83.55049504220379
 10
151.29686530349
 20
-84.20290999972491
 10
150.6643457723981
 20
-85.65837671485392
 10
150.6643457723981
 20
-85.65837671485392
 10
150.0132227256859
 20
-87.15707937832664
 10
150.0132227256859
 20
-87.15707937832664
 10
149.0609983335628
 20
-89.34841848910501
 10
146.8993731713428
 20
-90.76598915390011
 10
144.5101994523221
 20
-90.76598915390011
 10
144.5101994523221
 20
-90.76598915390011
 10
135.3188569524498
 20
-90.76598915390011
 10
135.3188569524498
 20
-90.76598915390011
 10
132.9239988258784
 20
-90.76598915390011
 10
130.7585840586246
 20
-89.34187280768303
 10
129.8098047619868
 20
-87.14286835944807
 10
129.8098047619868
 20
-87.14286835944807
 10
129.1955442369667
 20
-85.71926877755763
 10
129.1955442369667
 20
-85.71926877755763
 10
128.6333046537739
 20
-84.41590302809855
 10
127.2054848299121
 20
-83.64618256930854
 10
125.8362316292996
 20
-84.02109508548892
 10
124.1405556314596
 20
-84.48532170212634
 10
123.3037419380924
 20
-86.31148069147207
 10
123.9745020290706
 20
-87.86633841135053
 10
123.9745020290706
 20
-87.86633841135053
 10
126.6275700622615
 20
-94.01557547036202
 10
126.6275700622615
 20
-94.01557547036202
 10
127.7069184777903
 20
-96.51748993913566
 10
128.2636459082066
 20
-99.21353553850697
 10
128.2636459082066
 20
-101.9383476851763
 10
128.2636459082066
 20
-101.9383476851763
 10
128.2636459082066
 20
-114.9329501394513
 10
128.2636459082066
 20
-114.9329501394513
 10
128.2636459082066
 20
-117.675504527869
 10
127.6996837772712
 20
-120.3886894772775
 10
126.6065549798015
 20
-122.9040398184481
 10
126.6065549798015
 20
-122.9040398184481
 10
123.8976763997495
 20
-129.1376817168437
 10
123.8976763997495
 20
-129.1376817168437
 10
123.276525683759
 20
-130.5673963432224
 10
123.9317828450535
 20
-132.2296549148554
 10
125.3611529618836
 20
-132.850805630846
 10
125.7273666119657
 20
-133.0099690422645
 10
126.1090831917314
 20
-133.0854166333915
 10
126.4845985996236
 20
-133.0854166333915
 10
127.5742823016081
 20
-133.0854166333915
 10
128.6122895713139
 20
-132.4504855354599
 10
129.0742768758859
 20
-131.3873290687118
 10
129.0742768758859
 20
-131.3873290687118
 10
129.6912934772942
 20
-129.9676913466301
 10
129.6912934772942
 20
-129.9676913466301
 10
130.6629826589089
 20
-127.731565994539
 10
132.8687050433401
 20
-126.2851426550568
 10
135.3067991182514
 20
-126.2851426550568
 10
135.3067991182514
 20
-126.2851426550568
 10
144.4216604983511
 20
-126.2851426550568
 10
144.4216604983511
 20
-126.2851426550568
 10
146.8165186249226
 20
-126.2851426550568
 10
148.9819333921764
 20
-127.7092590012745
 10
149.9307126888142
 20
-129.9081773221198
 10
149.9307126888142
 20
-129.9081773221198
 10
150.5809744616551
 20
-131.4152343421424
 10
150.5809744616551
 20
-131.4152343421424
 10
151.0412392184845
 20
-132.4821804139242
 10
152.0813135454814
 20
-133.1202120977925
 10
153.1737533238541
 20
-133.1202120977925
 10
153.6391857239114
 20
-133.1202120977925
 10
154.1144366461016
 20
-133.0043707621035
 10
154.5578204350532
 20
-132.7565822693244
 10
155.8335392932412
 20
-132.0437058860416
 10
156.3050006103977
 20
-130.4337266383947
 10
155.7260523141015
 20
-129.0919480742795
 10
155.7260523141015
 20
-129.0919480742795
 10
153.1584226489447
 20
-123.1411485152178
 10
153.1584226489447
 20
-123.1411485152178
 97
        0
 97
        0
 92
        1
 93
        1
 72
     4
 94
        3
 73
     0
 74
     1
 95
       17
 96
       13
 40
0.0
 40
0.0
 40
0.0
 40
0.0
 40
1.0
 40
1.0
 40
1.0
 40
2.0
 40
2.0
 40
2.0
 40
3.0
 40
3.0
 40
3.0
 40
4.0
 40
4.0
 40
4.0
 40
4.0
 10
153.2526460104663
 20
-85.283119689125
 10
154.0810192198946
 20
-85.283119689125
 10
154.7526405847441
 20
-85.95465492658539
 10
154.7526405847441
 20
-86.78311426340278
 10
154.7526405847441
 20
-87.6114874728311
 10
154.0810192198946
 20
-88.28310883768056
 10
153.2526460104663
 20
-88.28310883768056
 10
152.4241005462637
 20
-88.28310883768056
 10
151.7526514361886
 20
-87.6114874728311
 10
151.7526514361886
 20
-86.78311426340278
 10
151.7526514361886
 20
-85.95465492658539
 10
152.4241005462637
 20
-85.283119689125
 10
153.2526460104663
 20
-85.283119689125
 97
        0
 97
        0
 92
        1
 93
        1
 72
     4
 94
        3
 73
     0
 74
     1
 95
       17
 96
       13
 40
0.0
 40
0.0
 40
0.0
 40
0.0
 40
1.0
 40
1.0
 40
1.0
 40
2.0
 40
2.0
 40
2.0
 40
3.0
 40
3.0
 40
3.0
 40
4.0
 40
4.0
 40
4.0
 40
4.0
 10
126.5810612732106
 20
-88.28310883768056
 10
125.7526880637823
 20
-88.28310883768056
 10
125.0810666989328
 20
-87.6114874728311
 10
125.0810666989328
 20
-86.78311426340278
 10
125.0810666989328
 20
-85.95465492658539
 10
125.7526880637823
 20
-85.283119689125
 10
126.5810612732106
 20
-85.283119689125
 10
127.4094344826389
 20
-85.283119689125
 10
128.0810558474884
 20
-85.95465492658539
 10
128.0810558474884
 20
-86.78311426340278
 10
128.0810558474884
 20
-87.6114874728311
 10
127.4094344826389
 20
-88.28310883768056
 10
126.5810612732106
 20
-88.28310883768056
 97
        0
 97
        0
 92
        1
 93
        1
 72
     4
 94
        3
 73
     0
 74
     1
 95
       17
 96
       13
 40
0.0
 40
0.0
 40
0.0
 40
0.0
 40
1.0
 40
1.0
 40
1.0
 40
2.0
 40
2.0
 40
2.0
 40
3.0
 40
3.0
 40
3.0
 40
4.0
 40
4.0
 40
4.0
 40
4.0
 10
126.4858043830434
 20
-131.7624999670555
 10
125.6574311736151
 20
-131.7624999670555
 10
124.9858098087657
 20
-131.0908786022061
 10
124.9858098087657
 20
-130.2625053927777
 10
124.9858098087657
 20
-129.4340460559649
 10
125.6574311736151
 20
-128.7624246911154
 10
126.4858043830434
 20
-128.7624246911154
 10
127.314349847246
 20
-128.7624246911154
 10
127.9857989573212
 20
-129.4340460559649
 10
127.9857989573212
 20
-130.2625053927777
 10
127.9857989573212
 20
-131.0908786022061
 10
127.314349847246
 20
-131.7624999670555
 10
126.4858043830434
 20
-131.7624999670555
 97
        0
 97
        0
 92
        1
 93
        1
 72
     4
 94
        3
 73
     0
 74
     1
 95
       23
 96
       19
 40
0.0
 40
0.0
 40
0.0
 40
0.0
 40
1.0
 40
1.0
 40
1.0
 40
2.0
 40
2.0
 40
2.0
 40
3.0
 40
3.0
 40
3.0
 40
4.0
 40
4.0
 40
4.0
 40
5.0
 40
5.0
 40
5.0
 40
6.0
 40
6.0
 40
6.0
 40
6.0
 10
135.4384017657879
 20
-100.2270432963392
 10
135.4384017657879
 20
-100.2270432963392
 10
144.2638751251267
 20
-100.2272155511135
 10
144.2638751251267
 20
-100.2272155511135
 10
145.1547768176123
 20
-100.2272155511135
 10
145.6010889377264
 20
-101.3043246545768
 10
144.9709809734742
 20
-101.9342603640548
 10
144.9709809734742
 20
-101.9342603640548
 10
140.559019440289
 20
-106.3460496424657
 10
140.559019440289
 20
-106.3460496424657
 10
140.168517867036
 20
-106.7365512157188
 10
139.5354815716213
 20
-106.7365512157188
 10
139.1449799983682
 20
-106.3461357698509
 10
139.1449799983682
 20
-106.3461357698509
 10
134.7314681722147
 20
-101.93434649144
 10
134.7314681722147
 20
-101.93434649144
 10
134.1013602079625
 20
-101.304410781962
 10
134.5475000733023
 20
-100.2270432963392
 10
135.4384017657879
 20
-100.2270432963392
 97
        0
 97
        0
 92
        1
 93
        1
 72
     4
 94
        3
 73
     0
 74
     1
 95
       23
 96
       19
 40
0.0
 40
0.0
 40
0.0
 40
0.0
 40
1.0
 40
1.0
 40
1.0
 40
2.0
 40
2.0
 40
2.0
 40
3.0
 40
3.0
 40
3.0
 40
4.0
 40
4.0
 40
4.0
 40
5.0
 40
5.0
 40
5.0
 40
6.0
 40
6.0
 40
6.0
 40
6.0
 10
131.6563759420807
 20
-114.9968566607026
 10
131.6563759420807
 20
-114.9968566607026
 10
131.6565481968549
 20
-107.0539306372955
 10
131.6565481968549
 20
-107.0539306372955
 10
131.6565481968549
 20
-106.2521707904927
 10
132.62582581163
 20
-105.8505587842977
 10
133.1928885285021
 20
-106.4175353737846
 10
133.1928885285021
 20
-106.4175353737846
 10
137.1633610752525
 20
-110.3884385574685
 10
137.1633610752525
 20
-110.3884385574685
 10
137.5149330695223
 20
-110.7397521695794
 10
137.5149330695223
 20
-111.30948483545
 10
137.1635333300268
 20
-111.6610568297198
 10
137.1635333300268
 20
-111.6610568297198
 10
133.1928885285021
 20
-115.6332519242128
 10
133.1928885285021
 20
-115.6332519242128
 10
132.6259980664042
 20
-116.200314641085
 10
131.6563759420807
 20
-115.7987887622791
 10
131.6563759420807
 20
-114.9968566607026
 97
        0
 97
        0
 92
        1
 93
        1
 72
     4
 94
        3
 73
     0
 74
     1
 95
       23
 96
       19
 40
0.0
 40
0.0
 40
0.0
 40
0.0
 40
1.0
 40
1.0
 40
1.0
 40
2.0
 40
2.0
 40
2.0
 40
3.0
 40
3.0
 40
3.0
 40
4.0
 40
4.0
 40
4.0
 40
5.0
 40
5.0
 40
5.0
 40
6.0
 40
6.0
 40
6.0
 40
6.0
 10
144.4070188425388
 20
-121.8192653775274
 10
144.4070188425388
 20
-121.8192653775274
 10
135.2999089272809
 20
-121.8192653775274
 10
135.2999089272809
 20
-121.8192653775274
 10
134.4090072347953
 20
-121.8192653775274
 10
133.9626951146812
 20
-120.7421562740641
 10
134.5928030789334
 20
-120.1120483098119
 10
134.5928030789334
 20
-120.1120483098119
 10
139.145496762691
 20
-115.5595268808285
 10
139.145496762691
 20
-115.5595268808285
 10
139.5359983359441
 20
-115.1690253075754
 10
140.1690346313588
 20
-115.1690253075754
 10
140.5595362046118
 20
-115.5593546260542
 10
140.5595362046118
 20
-115.5593546260542
 10
145.1139524361121
 20
-120.1120483098119
 10
145.1139524361121
 20
-120.1120483098119
 10
145.7442326551386
 20
-120.7419840192898
 10
145.2980927897987
 20
-121.8192653775274
 10
144.4070188425388
 20
-121.8192653775274
 97
        0
 97
        0
 92
        1
 93
        1
 72
     4
 94
        3
 73
     0
 74
     1
 95
       23
 96
       19
 40
0.0
 40
0.0
 40
0.0
 40
0.0
 40
1.0
 40
1.0
 40
1.0
 40
2.0
 40
2.0
 40
2.0
 40
3.0
 40
3.0
 40
3.0
 40
4.0
 40
4.0
 40
4.0
 40
5.0
 40
5.0
 40
5.0
 40
6.0
 40
6.0
 40
6.0
 40
6.0
 10
148.1003334575009
 20
-115.1213968624944
 10
148.1003334575009
 20
-115.9231567092966
 10
147.1308835879516
 20
-116.3247687154922
 10
146.5638208710795
 20
-115.7577921260046
 10
146.5638208710795
 20
-115.7577921260046
 10
142.4665688104719
 20
-111.6602816832382
 10
142.4665688104719
 20
-111.6602816832382
 10
142.1149968162021
 20
-111.308795816353
 10
142.1149968162021
 20
-110.7390631504824
 10
142.4663965556976
 20
-110.3876634109869
 10
142.4663965556976
 20
-110.3876634109869
 10
146.5638208710795
 20
-106.2886888026363
 10
146.5638208710795
 20
-106.2886888026363
 10
147.1307113331774
 20
-105.7215399583751
 10
148.1003334575009
 20
-106.123065837181
 10
148.1003334575009
 20
-106.9249118113729
 10
148.1003334575009
 20
-106.9249118113729
 10
148.1003334575009
 20
-115.1213968624944
 10
148.1003334575009
 20
-115.1213968624944
 97
        0
 97
        0
 92
        1
 93
        1
 72
     4
 94
        3
 73
     0
 74
     1
 95
       17
 96
       13
 40
0.0
 40
0.0
 40
0.0
 40
0.0
 40
1.0
 40
1.0
 40
1.0
 40
2.0
 40
2.0
 40
2.0
 40
3.0
 40
3.0
 40
3.0
 40
4.0
 40
4.0
 40
4.0
 40
4.0
 10
153.1573891202992
 20
-131.7624999670555
 10
152.3290159108709
 20
-131.7624999670555
 10
151.6573945460214
 20
-131.0908786022061
 10
151.6573945460214
 20
-130.2625053927777
 10
151.6573945460214
 20
-129.4340460559649
 10
152.3290159108709
 20
-128.7624246911154
 10
153.1573891202992
 20
-128.7624246911154
 10
153.9857623297275
 20
-128.7624246911154
 10
154.6573836945769
 20
-129.4340460559649
 10
154.6573836945769
 20
-130.2625053927777
 10
154.6573836945769
 20
-131.0908786022061
 10
153.9857623297275
 20
-131.7624999670555
 10
153.1573891202992
 20
-131.7624999670555
 97
        0
 97
        0
 75
     2
 76
     1
 98
        0
  0
ENDSEC
  0
SECTION
  2
OBJECTS
  0
DICTIONARY
  5
C
330
0
100
AcDbDictionary
281
     1
  3
ACAD_GROUP
350
D
  3
ACAD_LAYOUT
350
1A
  3
ACAD_MATERIAL
350
3B
  3
ACAD_MLEADERSTYLE
350
4C
  3
ACAD_MLINESTYLE
350
17
  3
ACAD_PLOTSETTINGS
350
19
  3
ACAD_PLOTSTYLENAME
350
E
  3
ACAD_TABLESTYLE
350
4B
  3
ACAD_VISUALSTYLE
350
2A
  0
SUN
  5
3F
330
29
100
AcDbSun
 90
        1
290
     0
 63
     7
421
 16777215
 40
1.0
291
     1
 91
  2455826
 92
 54000000
292
     0
 70
     2
 71
   256
280
     1
  0
DICTIONARY
  5
D
102
{ACAD_REACTORS
330
C
102
}
330
C
100
AcDbDictionary
281
     1
  0
DICTIONARY
  5
1A
102
{ACAD_REACTORS
330
C
102
}
330
C
100
AcDbDictionary
281
     1
  3
Layout1
350
1E
  3
Layout2
350
26
  3
Model
350
22
  0
DICTIONARY
  5
3B
102
{ACAD_REACTORS
330
C
102
}
330
C
100
AcDbDictionary
281
     1
  3
ByBlock
350
3D
  3
ByLayer
350
3C
  3
Global
350
3E
  0
DICTIONARY
  5
4C
102
{ACAD_REACTORS
330
C
102
}
330
C
100
AcDbDictionary
281
     1
  0
DICTIONARY
  5
17
102
{ACAD_REACTORS
330
C
102
}
330
C
100
AcDbDictionary
281
     1
  3
Standard
350
18
  0
DICTIONARY
  5
19
102
{ACAD_REACTORS
330
C
102
}
330
C
100
AcDbDictionary
281
     1
  0
ACDBDICTIONARYWDFLT
  5
E
102
{ACAD_REACTORS
330
C
102
}
330
C
100
AcDbDictionary
281
     1
  3
Normal
350
F
100
AcDbDictionaryWithDefault
340
F
  0
DICTIONARY
  5
4B
102
{ACAD_REACTORS
330
C
102
}
330
C
100
AcDbDictionary
281
     1
  0
DICTIONARY
  5
2A
102
{ACAD_REACTORS
330
C
102
}
330
C
100
AcDbDictionary
281
     1
  3
2dWireframe
350
2F
  3
3D Hidden
350
31
  3
3dWireframe
350
30
  3
Basic
350
32
  3
Brighten
350
36
  3
ColorChange
350
3A
  3
Conceptual
350
34
  3
Dim
350
35
  3
Facepattern
350
39
  3
Flat
350
2B
  3
FlatWithEdges
350
2C
  3
Gouraud
350
2D
  3
GouraudWithEdges
350
2E
  3
Linepattern
350
38
  3
Realistic
350
33
  3
Thicken
350
37
  0
LAYOUT
  5
1E
102
{ACAD_REACTORS
330
1A
102
}
330
1A
100
AcDbPlotSettings
  1

  2
none_device
  4

  6

 40
0.0
 41
0.0
 42
0.0
 43
0.0
 44
0.0
 45
0.0
 46
0.0
 47
0.0
 48
0.0
 49
0.0
140
0.0
141
0.0
142
1.0
143
1.0
 70
   688
 72
     0
 73
     0
 74
     5
  7

 75
    16
 76
     0
 77
     2
 78
   300
147
1.0
148
0.0
149
0.0
100
AcDbLayout
  1
Layout1
 70
     1
 71
     1
 10
0.0
 20
0.0
 11
12.0
 21
9.0
 12
0.0
 22
0.0
 32
0.0
 14
1.000000000000000E+20
 24
1.000000000000000E+20
 34
1.000000000000000E+20
 15
-1.000000000000000E+20
 25
-1.000000000000000E+20
 35
-1.000000000000000E+20
146
0.0
 13
0.0
 23
0.0
 33
0.0
 16
1.0
 26
0.0
 36
0.0
 17
0.0
 27
1.0
 37
0.0
 76
     0
330
1B
  0
LAYOUT
  5
26
102
{ACAD_REACTORS
330
1A
102
}
330
1A
100
AcDbPlotSettings
  1

  2
none_device
  4

  6

 40
0.0
 41
0.0
 42
0.0
 43
0.0
 44
0.0
 45
0.0
 46
0.0
 47
0.0
 48
0.0
 49
0.0
140
0.0
141
0.0
142
1.0
143
1.0
 70
   688
 72
     0
 73
     0
 74
     5
  7

 75
    16
 76
     0
 77
     2
 78
   300
147
1.0
148
0.0
149
0.0
100
AcDbLayout
  1
Layout2
 70
     1
 71
     2
 10
0.0
 20
0.0
 11
0.0
 21
0.0
 12
0.0
 22
0.0
 32
0.0
 14
0.0
 24
0.0
 34
0.0
 15
0.0
 25
0.0
 35
0.0
146
0.0
 13
0.0
 23
0.0
 33
0.0
 16
1.0
 26
0.0
 36
0.0
 17
0.0
 27
1.0
 37
0.0
 76
     0
330
23
  0
LAYOUT
  5
22
102
{ACAD_REACTORS
330
1A
102
}
330
1A
100
AcDbPlotSettings
  1

  2
none_device
  4

  6

 40
0.0
 41
0.0
 42
0.0
 43
0.0
 44
0.0
 45
0.0
 46
0.0
 47
0.0
 48
0.0
 49
0.0
140
0.0
141
0.0
142
1.0
143
1.0
 70
  1712
 72
     0
 73
     0
 74
     0
  7

 75
     0
 76
     0
 77
     2
 78
   300
147
1.0
148
0.0
149
0.0
100
AcDbLayout
  1
Model
 70
     1
 71
     0
 10
0.0
 20
0.0
 11
12.0
 21
9.0
 12
0.0
 22
0.0
 32
0.0
 14
1.000000000000000E+20
 24
1.000000000000000E+20
 34
1.000000000000000E+20
 15
-1.000000000000000E+20
 25
-1.000000000000000E+20
 35
-1.000000000000000E+20
146
0.0
 13
0.0
 23
0.0
 33
0.0
 16
1.0
 26
0.0
 36
0.0
 17
0.0
 27
1.0
 37
0.0
 76
     0
330
1F
331
29
  0
MATERIAL
  5
3D
102
{ACAD_REACTORS
330
3B
102
}
330
3B
100
AcDbMaterial
  1
ByBlock
 72
     1
 94
      127
  0
MATERIAL
  5
3C
102
{ACAD_REACTORS
330
3B
102
}
330
3B
100
AcDbMaterial
  1
ByLayer
 72
     1
 94
      127
  0
MATERIAL
  5
3E
102
{ACAD_REACTORS
330
3B
102
}
330
3B
100
AcDbMaterial
  1
Global
 72
     1
 94
      127
  0
MLINESTYLE
  5
18
102
{ACAD_REACTORS
330
17
102
}
330
17
100
AcDbMlineStyle
  2
Standard
 70
     0
  3

 62
   256
 51
90.0
 52
90.0
 71
     2
 49
0.5
 62
   256
  6
BYLAYER
 49
-0.5
 62
   256
  6
BYLAYER
  0
ACDBPLACEHOLDER
  5
F
102
{ACAD_REACTORS
330
E
102
}
330
E
  0
VISUALSTYLE
  5
2F
102
{ACAD_REACTORS
330
2A
102
}
330
2A
100
AcDbVisualStyle
  2
2dWireframe
 70
     4
177
     2
291
     0
 71
     0
176
     1
 72
     2
176
     1
 73
     0
176
     1
 90
        0
176
     1
 40
-0.6
176
     1
 41
-30.0
176
     1
 62
     5
 63
     7
421
 16777215
176
     1
 74
     1
176
     1
 91
        4
176
     1
 64
     7
176
     1
 65
   257
176
     1
 75
     1
176
     1
175
     1
176
     1
 42
1.0
176
     1
 92
        0
176
     1
 66
   257
176
     1
 43
1.0
176
     1
 76
     1
176
     1
 77
     6
176
     1
 78
     2
176
     1
 67
     7
176
     1
 79
     5
176
     1
170
     0
176
     1
171
     0
176
     1
290
     0
176
     1
 93
        1
176
     1
 44
0.0
176
     1
173
     0
176
     1
  0
VISUALSTYLE
  5
31
102
{ACAD_REACTORS
330
2A
102
}
330
2A
100
AcDbVisualStyle
  2
3D Hidden
 70
     6
177
     2
291
     0
 71
     1
176
     1
 72
     2
176
     1
 73
     2
176
     1
 90
        0
176
     1
 40
-0.6
176
     1
 41
-30.0
176
     1
 62
     5
 63
     7
421
 16777215
176
     1
 74
     2
176
     1
 91
        2
176
     1
 64
     7
176
     1
 65
   257
176
     1
 75
     2
176
     1
175
     1
176
     1
 42
40.0
176
     1
 92
        0
176
     1
 66
   257
176
     1
 43
1.0
176
     1
 76
     1
176
     1
 77
     6
176
     1
 78
     2
176
     1
 67
     7
176
     1
 79
     3
176
     1
170
     0
176
     1
171
     0
176
     1
290
     0
176
     1
 93
        1
176
     1
 44
0.0
176
     1
173
     0
176
     1
  0
VISUALSTYLE
  5
30
102
{ACAD_REACTORS
330
2A
102
}
330
2A
100
AcDbVisualStyle
  2
3dWireframe
 70
     5
177
     2
291
     0
 71
     0
176
     1
 72
     2
176
     1
 73
     0
176
     1
 90
        0
176
     1
 40
-0.6
176
     1
 41
-30.0
176
     1
 62
     5
 63
     7
421
 16777215
176
     1
 74
     1
176
     1
 91
        4
176
     1
 64
     7
176
     1
 65
   257
176
     1
 75
     1
176
     1
175
     1
176
     1
 42
1.0
176
     1
 92
        0
176
     1
 66
   257
176
     1
 43
1.0
176
     1
 76
     1
176
     1
 77
     6
176
     1
 78
     2
176
     1
 67
     7
176
     1
 79
     5
176
     1
170
     0
176
     1
171
     0
176
     1
290
     0
176
     1
 93
        1
176
     1
 44
0.0
176
     1
173
     0
176
     1
  0
VISUALSTYLE
  5
32
102
{ACAD_REACTORS
330
2A
102
}
330
2A
100
AcDbVisualStyle
  2
Basic
 70
     7
177
     2
291
     1
 71
     1
176
     1
 72
     0
176
     1
 73
     1
176
     1
 90
        0
176
     1
 40
-0.6
176
     1
 41
-30.0
176
     1
 62
     5
 63
     7
421
 16777215
176
     1
 74
     0
176
     1
 91
        4
176
     1
 64
     7
176
     1
 65
   257
176
     1
 75
     1
176
     1
175
     1
176
     1
 42
1.0
176
     1
 92
        8
176
     1
 66
     7
176
     1
 43
1.0
176
     1
 76
     1
176
     1
 77
     6
176
     1
 78
     2
176
     1
 67
     7
176
     1
 79
     5
176
     1
170
     0
176
     1
171
     0
176
     1
290
     0
176
     1
 93
        1
176
     1
 44
0.0
176
     1
173
     0
176
     1
  0
VISUALSTYLE
  5
36
102
{ACAD_REACTORS
330
2A
102
}
330
2A
100
AcDbVisualStyle
  2
Brighten
 70
    12
177
     2
291
     1
 71
     2
176
     1
 72
     2
176
     1
 73
     0
176
     1
 90
        0
176
     1
 40
-0.6
176
     1
 41
-30.0
176
     1
 62
     5
 63
     7
421
 16777215
176
     1
 74
     1
176
     1
 91
        4
176
     1
 64
     7
176
     1
 65
   257
176
     1
 75
     1
176
     1
175
     1
176
     1
 42
1.0
176
     1
 92
        8
176
     1
 66
     7
176
     1
 43
1.0
176
     1
 76
     1
176
     1
 77
     6
176
     1
 78
     2
176
     1
 67
     7
176
     1
 79
     5
176
     1
170
     0
176
     1
171
     0
176
     1
290
     0
176
     1
 93
        1
176
     1
 44
50.0
176
     1
173
     0
176
     1
  0
VISUALSTYLE
  5
3A
102
{ACAD_REACTORS
330
2A
102
}
330
2A
100
AcDbVisualStyle
  2
ColorChange
 70
    16
177
     2
291
     1
 71
     2
176
     1
 72
     2
176
     1
 73
     3
176
     1
 90
        0
176
     1
 40
-0.6
176
     1
 41
-30.0
176
     1
 62
     5
 63
     8
421
  8421504
176
     1
 74
     1
176
     1
 91
        4
176
     1
 64
     7
176
     1
 65
   257
176
     1
 75
     1
176
     1
175
     1
176
     1
 42
1.0
176
     1
 92
        8
176
     1
 66
     8
424
  8421504
176
     1
 43
1.0
176
     1
 76
     1
176
     1
 77
     6
176
     1
 78
     2
176
     1
 67
     7
176
     1
 79
     5
176
     1
170
     0
176
     1
171
     0
176
     1
290
     0
176
     1
 93
        1
176
     1
 44
0.0
176
     1
173
     0
176
     1
  0
VISUALSTYLE
  5
34
102
{ACAD_REACTORS
330
2A
102
}
330
2A
100
AcDbVisualStyle
  2
Conceptual
 70
     9
177
     2
291
     0
 71
     3
176
     1
 72
     2
176
     1
 73
     0
176
     1
 90
        0
176
     1
 40
-0.6
176
     1
 41
-30.0
176
     1
 62
     5
 63
     7
421
 16777215
176
     1
 74
     2
176
     1
 91
        2
176
     1
 64
     7
176
     1
 65
   257
176
     1
 75
     1
176
     1
175
     1
176
     1
 42
40.0
176
     1
 92
        8
176
     1
 66
     7
176
     1
 43
1.0
176
     1
 76
     1
176
     1
 77
     6
176
     1
 78
     2
176
     1
 67
     7
176
     1
 79
     3
176
     1
170
     0
176
     1
171
     0
176
     1
290
     0
176
     1
 93
        1
176
     1
 44
0.0
176
     1
173
     0
176
     1
  0
VISUALSTYLE
  5
35
102
{ACAD_REACTORS
330
2A
102
}
330
2A
100
AcDbVisualStyle
  2
Dim
 70
    11
177
     2
291
     1
 71
     2
176
     1
 72
     2
176
     1
 73
     0
176
     1
 90
        0
176
     1
 40
-0.6
176
     1
 41
-30.0
176
     1
 62
     5
 63
     7
421
 16777215
176
     1
 74
     1
176
     1
 91
        4
176
     1
 64
     7
176
     1
 65
   257
176
     1
 75
     1
176
     1
175
     1
176
     1
 42
1.0
176
     1
 92
        8
176
     1
 66
     7
176
     1
 43
1.0
176
     1
 76
     1
176
     1
 77
     6
176
     1
 78
     2
176
     1
 67
     7
176
     1
 79
     5
176
     1
170
     0
176
     1
171
     0
176
     1
290
     0
176
     1
 93
        1
176
     1
 44
-50.0
176
     1
173
     0
176
     1
  0
VISUALSTYLE
  5
39
102
{ACAD_REACTORS
330
2A
102
}
330
2A
100
AcDbVisualStyle
  2
Facepattern
 70
    15
177
     2
291
     1
 71
     2
176
     1
 72
     2
176
     1
 73
     0
176
     1
 90
        0
176
     1
 40
-0.6
176
     1
 41
-30.0
176
     1
 62
     5
 63
     7
421
 16777215
176
     1
 74
     1
176
     1
 91
        4
176
     1
 64
     7
176
     1
 65
   257
176
     1
 75
     1
176
     1
175
     1
176
     1
 42
1.0
176
     1
 92
        8
176
     1
 66
     7
176
     1
 43
1.0
176
     1
 76
     1
176
     1
 77
     6
176
     1
 78
     2
176
     1
 67
     7
176
     1
 79
     5
176
     1
170
     0
176
     1
171
     0
176
     1
290
     0
176
     1
 93
        1
176
     1
 44
0.0
176
     1
173
     0
176
     1
  0
VISUALSTYLE
  5
2B
102
{ACAD_REACTORS
330
2A
102
}
330
2A
100
AcDbVisualStyle
  2
Flat
 70
     0
177
     2
291
     1
 71
     2
176
     1
 72
     1
176
     1
 73
     1
176
     1
 90
        2
176
     1
 40
-0.6
176
     1
 41
30.0
176
     1
 62
     5
 63
     7
421
 16777215
176
     1
 74
     0
176
     1
 91
        4
176
     1
 64
     7
176
     1
 65
   257
176
     1
 75
     1
176
     1
175
     1
176
     1
 42
1.0
176
     1
 92
        8
176
     1
 66
     7
176
     1
 43
1.0
176
     1
 76
     1
176
     1
 77
     6
176
     1
 78
     2
176
     1
 67
     7
176
     1
 79
     5
176
     1
170
     0
176
     1
171
     0
176
     1
290
     0
176
     1
 93
       13
176
     1
 44
0.0
176
     1
173
     0
176
     1
  0
VISUALSTYLE
  5
2C
102
{ACAD_REACTORS
330
2A
102
}
330
2A
100
AcDbVisualStyle
  2
FlatWithEdges
 70
     1
177
     2
291
     1
 71
     2
176
     1
 72
     1
176
     1
 73
     1
176
     1
 90
        2
176
     1
 40
-0.6
176
     1
 41
30.0
176
     1
 62
     5
 63
     7
421
 16777215
176
     1
 74
     1
176
     1
 91
        4
176
     1
 64
     7
176
     1
 65
   257
176
     1
 75
     1
176
     1
175
     1
176
     1
 42
1.0
176
     1
 92
        0
176
     1
 66
   257
176
     1
 43
1.0
176
     1
 76
     1
176
     1
 77
     6
176
     1
 78
     2
176
     1
 67
     7
176
     1
 79
     5
176
     1
170
     0
176
     1
171
     0
176
     1
290
     0
176
     1
 93
       13
176
     1
 44
0.0
176
     1
173
     0
176
     1
  0
VISUALSTYLE
  5
2D
102
{ACAD_REACTORS
330
2A
102
}
330
2A
100
AcDbVisualStyle
  2
Gouraud
 70
     2
177
     2
291
     1
 71
     2
176
     1
 72
     2
176
     1
 73
     1
176
     1
 90
        2
176
     1
 40
-0.6
176
     1
 41
30.0
176
     1
 62
     5
 63
     7
421
 16777215
176
     1
 74
     0
176
     1
 91
        4
176
     1
 64
     7
176
     1
 65
   257
176
     1
 75
     1
176
     1
175
     1
176
     1
 42
1.0
176
     1
 92
        0
176
     1
 66
     7
176
     1
 43
1.0
176
     1
 76
     1
176
     1
 77
     6
176
     1
 78
     2
176
     1
 67
     7
176
     1
 79
     5
176
     1
170
     0
176
     1
171
     0
176
     1
290
     0
176
     1
 93
       13
176
     1
 44
0.0
176
     1
173
     0
176
     1
  0
VISUALSTYLE
  5
2E
102
{ACAD_REACTORS
330
2A
102
}
330
2A
100
AcDbVisualStyle
  2
GouraudWithEdges
 70
     3
177
     2
291
     1
 71
     2
176
     1
 72
     2
176
     1
 73
     1
176
     1
 90
        2
176
     1
 40
-0.6
176
     1
 41
30.0
176
     1
 62
     5
 63
     7
421
 16777215
176
     1
 74
     1
176
     1
 91
        4
176
     1
 64
     7
176
     1
 65
   257
176
     1
 75
     1
176
     1
175
     1
176
     1
 42
1.0
176
     1
 92
        0
176
     1
 66
   257
176
     1
 43
1.0
176
     1
 76
     1
176
     1
 77
     6
176
     1
 78
     2
176
     1
 67
     7
176
     1
 79
     5
176
     1
170
     0
176
     1
171
     0
176
     1
290
     0
176
     1
 93
       13
176
     1
 44
0.0
176
     1
173
     0
176
     1
  0
VISUALSTYLE
  5
38
102
{ACAD_REACTORS
330
2A
102
}
330
2A
100
AcDbVisualStyle
  2
Linepattern
 70
    14
177
     2
291
     1
 71
     2
176
     1
 72
     2
176
     1
 73
     0
176
     1
 90
        0
176
     1
 40
-0.6
176
     1
 41
-30.0
176
     1
 62
     5
 63
     7
421
 16777215
176
     1
 74
     1
176
     1
 91
        4
176
     1
 64
     7
176
     1
 65
   257
176
     1
 75
     7
176
     1
175
     7
176
     1
 42
1.0
176
     1
 92
        8
176
     1
 66
     7
176
     1
 43
1.0
176
     1
 76
     1
176
     1
 77
     6
176
     1
 78
     2
176
     1
 67
     7
176
     1
 79
     5
176
     1
170
     0
176
     1
171
     0
176
     1
290
     0
176
     1
 93
        1
176
     1
 44
0.0
176
     1
173
     0
176
     1
  0
VISUALSTYLE
  5
33
102
{ACAD_REACTORS
330
2A
102
}
330
2A
100
AcDbVisualStyle
  2
Realistic
 70
     8
177
     2
291
     0
 71
     2
176
     1
 72
     2
176
     1
 73
     0
176
     1
 90
        0
176
     1
 40
-0.6
176
     1
 41
-30.0
176
     1
 62
     5
 63
     7
421
 16777215
176
     1
 74
     1
176
     1
 91
        0
176
     1
 64
     7
176
     1
 65
   257
176
     1
 75
     1
176
     1
175
     1
176
     1
 42
1.0
176
     1
 92
        8
176
     1
 66
     8
424
  7895160
176
     1
 43
1.0
176
     1
 76
     1
176
     1
 77
     6
176
     1
 78
     2
176
     1
 67
     7
176
     1
 79
     5
176
     1
170
     0
176
     1
171
     0
176
     1
290
     0
176
     1
 93
       13
176
     1
 44
0.0
176
     1
173
     0
176
     1
  0
VISUALSTYLE
  5
37
102
{ACAD_REACTORS
330
2A
102
}
330
2A
100
AcDbVisualStyle
  2
Thicken
 70
    13
177
     2
291
     1
 71
     2
176
     1
 72
     2
176
     1
 73
     0
176
     1
 90
        0
176
     1
 40
-0.6
176
     1
 41
-30.0
176
     1
 62
     5
 63
     7
421
 16777215
176
     1
 74
     1
176
     1
 91
        4
176
     1
 64
     7
176
     1
 65
   257
176
     1
 75
     1
176
     1
175
     1
176
     1
 42
1.0
176
     1
 92
       12
176
     1
 66
     7
176
     1
 43
1.0
176
     1
 76
     1
176
     1
 77
     6
176
     1
 78
     2
176
     1
 67
     7
176
     1
 79
     5
176
     1
170
     0
176
     1
171
     0
176
     1
290
     0
176
     1
 93
        1
176
     1
 44
0.0
176
     1
173
     0
176
     1
  0
ENDSEC
  0
EOF
