  0
SECTION
  2
HEADER
  9
$ACADVER
  1
AC1024
  9
$ACADMAINTVER
 70
     6
  9
$DWGCODEPAGE
  3
UNDEFINED
  9
$INSBASE
 10
0.0
 20
0.0
 30
0.0
  9
$EXTMIN
 10
1.000000000000000E+20
 20
1.000000000000000E+20
 30
1.000000000000000E+20
  9
$EXTMAX
 10
-1.000000000000000E+20
 20
-1.000000000000000E+20
 30
-1.000000000000000E+20
  9
$LIMMIN
 10
0.0
 20
0.0
  9
$LIMMAX
 10
12.0
 20
9.0
  9
$ORTHOMODE
 70
     0
  9
$REGENMODE
 70
     1
  9
$FILLMODE
 70
     1
  9
$QTEXTMODE
 70
     0
  9
$MIRRTEXT
 70
     1
  9
$LTSCALE
 40
1.0
  9
$ATTMODE
 70
     1
  9
$TEXTSIZE
 40
0.2
  9
$TRACEWID
 40
0.05
  9
$TEXTSTYLE
  7
Standard
  9
$CLAYER
  8
0
  9
$CELTYPE
  6
ByLayer
  9
$CECOLOR
 62
   256
  9
$CELTSCALE
 40
1.0
  9
$DISPSILH
 70
     0
  9
$DIMSCALE
 40
1.0
  9
$DIMASZ
 40
0.18
  9
$DIMEXO
 40
0.0625
  9
$DIMDLI
 40
0.38
  9
$DIMRND
 40
0.0
  9
$DIMDLE
 40
0.0
  9
$DIMEXE
 40
0.18
  9
$DIMTP
 40
0.0
  9
$DIMTM
 40
0.0
  9
$DIMTXT
 40
0.18
  9
$DIMCEN
 40
0.09
  9
$DIMTSZ
 40
0.0
  9
$DIMTOL
 70
     0
  9
$DIMLIM
 70
     0
  9
$DIMTIH
 70
     1
  9
$DIMTOH
 70
     1
  9
$DIMSE1
 70
     0
  9
$DIMSE2
 70
     0
  9
$DIMTAD
 70
     0
  9
$DIMZIN
 70
     0
  9
$DIMBLK
  1

  9
$DIMASO
 70
     1
  9
$DIMSHO
 70
     1
  9
$DIMPOST
  1

  9
$DIMAPOST
  1

  9
$DIMALT
 70
     0
  9
$DIMALTD
 70
     2
  9
$DIMALTF
 40
25.4
  9
$DIMLFAC
 40
1.0
  9
$DIMTOFL
 70
     0
  9
$DIMTVP
 40
0.0
  9
$DIMTIX
 70
     0
  9
$DIMSOXD
 70
     0
  9
$DIMSAH
 70
     0
  9
$DIMBLK1
  1

  9
$DIMBLK2
  1

  9
$DIMSTYLE
  2
Standard
  9
$DIMCLRD
 70
     0
  9
$DIMCLRE
 70
     0
  9
$DIMCLRT
 70
     0
  9
$DIMTFAC
 40
1.0
  9
$DIMGAP
 40
0.09
  9
$DIMJUST
 70
     0
  9
$DIMSD1
 70
     0
  9
$DIMSD2
 70
     0
  9
$DIMTOLJ
 70
     1
  9
$DIMTZIN
 70
     0
  9
$DIMALTZ
 70
     0
  9
$DIMALTTZ
 70
     0
  9
$DIMUPT
 70
     0
  9
$DIMDEC
 70
     4
  9
$DIMTDEC
 70
     4
  9
$DIMALTU
 70
     2
  9
$DIMALTTD
 70
     2
  9
$DIMTXSTY
  7
Standard
  9
$DIMAUNIT
 70
     0
  9
$DIMADEC
 70
     0
  9
$DIMALTRND
 40
0.0
  9
$DIMAZIN
 70
     0
  9
$DIMDSEP
 70
    46
  9
$DIMATFIT
 70
     3
  9
$DIMFRAC
 70
     0
  9
$DIMLDRBLK
  1

  9
$DIMLUNIT
 70
     2
  9
$DIMLWD
 70
    -2
  9
$DIMLWE
 70
    -2
  9
$DIMTMOVE
 70
     0
  9
$DIMFXL
 40
1.0
  9
$DIMFXLON
 70
     0
  9
$DIMJOGANG
 40
0.7853981633974483
  9
$DIMTFILL
 70
     0
  9
$DIMTFILLCLR
 70
     0
  9
$DIMARCSYM
 70
     0
  9
$DIMLTYPE
  6

  9
$DIMLTEX1
  6

  9
$DIMLTEX2
  6

  9
$DIMTXTDIRECTION
 70
     0
  9
$LUNITS
 70
     2
  9
$LUPREC
 70
     4
  9
$SKETCHINC
 40
0.1
  9
$FILLETRAD
 40
0.5
  9
$AUNITS
 70
     0
  9
$AUPREC
 70
     0
  9
$MENU
  1
.
  9
$ELEVATION
 40
0.0
  9
$PELEVATION
 40
0.0
  9
$THICKNESS
 40
0.0
  9
$LIMCHECK
 70
     0
  9
$CHAMFERA
 40
0.5
  9
$CHAMFERB
 40
0.5
  9
$CHAMFERC
 40
1.0
  9
$CHAMFERD
 40
0.0
  9
$SKPOLY
 70
     0
  9
$TDCREATE
 40
2458133.001469896
  9
$TDUCREATE
 40
2458133.209803241
  9
$TDUPDATE
 40
2458133.001469896
  9
$TDUUPDATE
 40
2458133.209803241
  9
$TDINDWG
 40
0.0000000116
  9
$TDUSRTIMER
 40
0.0000000116
  9
$USRTIMER
 70
     1
  9
$ANGBASE
 50
0.0
  9
$ANGDIR
 70
     0
  9
$PDMODE
 70
     0
  9
$PDSIZE
 40
0.0
  9
$PLINEWID
 40
0.0
  9
$SPLFRAME
 70
     0
  9
$SPLINETYPE
 70
     6
  9
$SPLINESEGS
 70
     8
  9
$HANDSEED
  5
65
  9
$SURFTAB1
 70
     6
  9
$SURFTAB2
 70
     6
  9
$SURFTYPE
 70
     6
  9
$SURFU
 70
     6
  9
$SURFV
 70
     6
  9
$UCSBASE
  2

  9
$UCSNAME
  2

  9
$UCSORG
 10
0.0
 20
0.0
 30
0.0
  9
$UCSXDIR
 10
1.0
 20
0.0
 30
0.0
  9
$UCSYDIR
 10
0.0
 20
1.0
 30
0.0
  9
$UCSORTHOREF
  2

  9
$UCSORTHOVIEW
 70
     0
  9
$UCSORGTOP
 10
0.0
 20
0.0
 30
0.0
  9
$UCSORGBOTTOM
 10
0.0
 20
0.0
 30
0.0
  9
$UCSORGLEFT
 10
0.0
 20
0.0
 30
0.0
  9
$UCSORGRIGHT
 10
0.0
 20
0.0
 30
0.0
  9
$UCSORGFRONT
 10
0.0
 20
0.0
 30
0.0
  9
$UCSORGBACK
 10
0.0
 20
0.0
 30
0.0
  9
$PUCSBASE
  2

  9
$PUCSNAME
  2

  9
$PUCSORG
 10
0.0
 20
0.0
 30
0.0
  9
$PUCSXDIR
 10
1.0
 20
0.0
 30
0.0
  9
$PUCSYDIR
 10
0.0
 20
1.0
 30
0.0
  9
$PUCSORTHOREF
  2

  9
$PUCSORTHOVIEW
 70
     0
  9
$PUCSORGTOP
 10
0.0
 20
0.0
 30
0.0
  9
$PUCSORGBOTTOM
 10
0.0
 20
0.0
 30
0.0
  9
$PUCSORGLEFT
 10
0.0
 20
0.0
 30
0.0
  9
$PUCSORGRIGHT
 10
0.0
 20
0.0
 30
0.0
  9
$PUCSORGFRONT
 10
0.0
 20
0.0
 30
0.0
  9
$PUCSORGBACK
 10
0.0
 20
0.0
 30
0.0
  9
$USERI1
 70
     0
  9
$USERI2
 70
     0
  9
$USERI3
 70
     0
  9
$USERI4
 70
     0
  9
$USERI5
 70
     0
  9
$USERR1
 40
0.0
  9
$USERR2
 40
0.0
  9
$USERR3
 40
0.0
  9
$USERR4
 40
0.0
  9
$USERR5
 40
0.0
  9
$WORLDVIEW
 70
     1
  9
$SHADEDGE
 70
     3
  9
$SHADEDIF
 70
    70
  9
$TILEMODE
 70
     1
  9
$MAXACTVP
 70
    64
  9
$PINSBASE
 10
0.0
 20
0.0
 30
0.0
  9
$PLIMCHECK
 70
     0
  9
$PEXTMIN
 10
1.000000000000000E+20
 20
1.000000000000000E+20
 30
1.000000000000000E+20
  9
$PEXTMAX
 10
-1.000000000000000E+20
 20
-1.000000000000000E+20
 30
-1.000000000000000E+20
  9
$PLIMMIN
 10
0.0
 20
0.0
  9
$PLIMMAX
 10
12.0
 20
9.0
  9
$UNITMODE
 70
     0
  9
$VISRETAIN
 70
     1
  9
$PLINEGEN
 70
     0
  9
$PSLTSCALE
 70
     1
  9
$TREEDEPTH
 70
  3020
  9
$CMLSTYLE
  2
Standard
  9
$CMLJUST
 70
     0
  9
$CMLSCALE
 40
1.0
  9
$PROXYGRAPHICS
 70
     1
  9
$MEASUREMENT
 70
     0
  9
$CELWEIGHT
370
    -1
  9
$ENDCAPS
280
     0
  9
$JOINSTYLE
280
     0
  9
$LWDISPLAY
290
     1
  9
$INSUNITS
 70
     1
  9
$HYPERLINKBASE
  1

  9
$STYLESHEET
  1

  9
$XEDIT
290
     1
  9
$CEPSNTYPE
380
     0
  9
$PSTYLEMODE
290
     1
  9
$FINGERPRINTGUID
  2
{01E18DD6-CC10-B485-CA0A-4398987CDF8F}
  9
$VERSIONGUID
  2
{FAEB1C32-E019-11D5-929B-00C0DF256EC4}
  9
$EXTNAMES
290
     1
  9
$PSVPSCALE
 40
0.0
  9
$OLESTARTUP
290
     0
  9
$SORTENTS
280
   127
  9
$INDEXCTL
280
     0
  9
$HIDETEXT
280
     1
  9
$XCLIPFRAME
280
     2
  9
$HALOGAP
280
     0
  9
$OBSCOLOR
 70
   257
  9
$OBSLTYPE
280
     0
  9
$INTERSECTIONDISPLAY
280
     0
  9
$INTERSECTIONCOLOR
 70
   257
  9
$DIMASSOC
280
     2
  9
$PROJECTNAME
  1

  9
$CAMERADISPLAY
290
     0
  9
$LENSLENGTH
 40
50.0
  9
$CAMERAHEIGHT
 40
0.0
  9
$STEPSPERSEC
 40
2.0
  9
$STEPSIZE
 40
6.0
  9
$3DDWFPREC
 40
2.0
  9
$PSOLWIDTH
 40
0.25
  9
$PSOLHEIGHT
 40
4.0
  9
$LOFTANG1
 40
1.570796326794897
  9
$LOFTANG2
 40
1.570796326794897
  9
$LOFTMAG1
 40
0.0
  9
$LOFTMAG2
 40
0.0
  9
$LOFTPARAM
 70
     7
  9
$LOFTNORMALS
280
     1
  9
$LATITUDE
 40
37.795
  9
$LONGITUDE
 40
-122.394
  9
$NORTHDIRECTION
 40
0.0
  9
$TIMEZONE
 70
 -8000
  9
$LIGHTGLYPHDISPLAY
280
     1
  9
$TILEMODELIGHTSYNCH
280
     1
  9
$CMATERIAL
347
3C
  9
$SOLIDHIST
280
     1
  9
$SHOWHIST
280
     1
  9
$DWFFRAME
280
     2
  9
$DGNFRAME
280
     2
  9
$REALWORLDSCALE
290
     1
  9
$INTERFERECOLOR
 62
   256
  9
$CSHADOW
280
     0
  9
$SHADOWPLANELOCATION
 40
0.0
  0
ENDSEC
  0
SECTION
  2
CLASSES
  0
CLASS
  1
ACDBDICTIONARYWDFLT
  2
AcDbDictionaryWithDefault
  3
ObjectDBX Classes
 90
        0
 91
        4
280
     0
281
     0
  0
CLASS
  1
VISUALSTYLE
  2
AcDbVisualStyle
  3
ObjectDBX Classes
 90
     4095
 91
        4
280
     0
281
     0
  0
CLASS
  1
MATERIAL
  2
AcDbMaterial
  3
ObjectDBX Classes
 90
     1153
 91
        4
280
     0
281
     0
  0
CLASS
  1
SUN
  2
AcDbSun
  3
SCENEOE
 90
     1024
 91
        4
280
     0
281
     0
  0
ENDSEC
  0
SECTION
  2
TABLES
  0
TABLE
  2
VPORT
  5
8
330
0
100
AcDbSymbolTable
 70
     1
  0
VPORT
  5
29
330
8
100
AcDbSymbolTableRecord
100
AcDbViewportTableRecord
  2
*Active
 70
     0
 10
0.0
 20
0.0
 11
1.0
 21
1.0
 12
0.0
 22
0.0
 13
0.0
 23
0.0
 14
0.5
 24
0.5
 15
0.5
 25
0.5
 16
0.0
 26
0.0
 36
1.0
 17
139.699999965075
 27
107.9499999730125
 37
0.0
 40
215.899999946025
 41
1.294117647058823
 42
50.0
 43
0.0
 44
0.0
 50
0.0
 51
0.0
 71
     0
 72
   100
 73
     1
 74
     3
 75
     0
 76
     0
 77
     0
 78
     0
281
     0
 65
     1
110
0.0
120
0.0
130
0.0
111
1.0
121
0.0
131
0.0
112
0.0
122
1.0
132
0.0
 79
     0
146
0.0
 60
     3
 61
     5
292
     1
282
     1
141
0.0
142
0.0
 63
   250
361
3F
  0
ENDTAB
  0
TABLE
  2
LTYPE
  5
5
330
0
100
AcDbSymbolTable
 70
     1
  0
LTYPE
  5
14
330
5
100
AcDbSymbolTableRecord
100
AcDbLinetypeTableRecord
  2
ByBlock
 70
     0
  3

 72
    65
 73
     0
 40
0.0
  0
LTYPE
  5
15
330
5
100
AcDbSymbolTableRecord
100
AcDbLinetypeTableRecord
  2
ByLayer
 70
     0
  3

 72
    65
 73
     0
 40
0.0
  0
LTYPE
  5
16
330
5
100
AcDbSymbolTableRecord
100
AcDbLinetypeTableRecord
  2
Continuous
 70
     0
  3
Solid line
 72
    65
 73
     0
 40
0.0
  0
ENDTAB
  0
TABLE
  2
LAYER
  5
2
330
0
100
AcDbSymbolTable
 70
     2
  0
LAYER
  5
10
330
2
100
AcDbSymbolTableRecord
100
AcDbLayerTableRecord
  2
0
 70
     0
 62
     7
  6
Continuous
370
    -3
390
F
347
3E
  0
LAYER
  5
40
330
2
100
AcDbSymbolTableRecord
100
AcDbLayerTableRecord
  2
Layer 1
 70
     0
 62
     7
  6
Continuous
370
    -3
390
F
347
3E
  0
ENDTAB
  0
TABLE
  2
STYLE
  5
3
330
0
100
AcDbSymbolTable
 70
     1
  0
STYLE
  5
11
330
3
100
AcDbSymbolTableRecord
100
AcDbTextStyleTableRecord
  2
Standard
 70
     0
 40
0.0
 41
1.0
 50
0.0
 71
     0
 42
0.2
  3
txt
  4

  0
ENDTAB
  0
TABLE
  2
VIEW
  5
6
330
0
100
AcDbSymbolTable
 70
     0
  0
ENDTAB
  0
TABLE
  2
UCS
  5
7
330
0
100
AcDbSymbolTable
 70
     0
  0
ENDTAB
  0
TABLE
  2
APPID
  5
9
330
0
100
AcDbSymbolTable
 70
     1
  0
APPID
  5
12
330
9
100
AcDbSymbolTableRecord
100
AcDbRegAppTableRecord
  2
ACAD
 70
     0
  0
ENDTAB
  0
TABLE
  2
DIMSTYLE
  5
A
330
0
100
AcDbSymbolTable
 70
     1
100
AcDbDimStyleTable
  0
DIMSTYLE
105
27
330
A
100
AcDbSymbolTableRecord
100
AcDbDimStyleTableRecord
  2
Standard
 70
     0
178
     0
340
11
  0
ENDTAB
  0
TABLE
  2
BLOCK_RECORD
  5
1
330
0
100
AcDbSymbolTable
 70
     1
  0
BLOCK_RECORD
  5
1F
330
1
100
AcDbSymbolTableRecord
100
AcDbBlockTableRecord
  2
*Model_Space
340
22
 70
     0
280
     1
281
     0
  0
BLOCK_RECORD
  5
1B
330
1
100
AcDbSymbolTableRecord
100
AcDbBlockTableRecord
  2
*Paper_Space
340
1E
 70
     0
280
     1
281
     0
  0
BLOCK_RECORD
  5
23
330
1
100
AcDbSymbolTableRecord
100
AcDbBlockTableRecord
  2
*Paper_Space0
340
26
 70
     0
280
     1
281
     0
  0
ENDTAB
  0
ENDSEC
  0
SECTION
  2
BLOCKS
  0
BLOCK
  5
20
330
1F
100
AcDbEntity
  8
0
100
AcDbBlockBegin
  2
*Model_Space
 70
     0
 10
0.0
 20
0.0
 30
0.0
  3
*Model_Space
  1

  0
ENDBLK
  5
21
330
1F
100
AcDbEntity
  8
0
100
AcDbBlockEnd
  0
BLOCK
  5
1C
330
1B
100
AcDbEntity
 67
     1
  8
0
100
AcDbBlockBegin
  2
*Paper_Space
 70
     0
 10
0.0
 20
0.0
 30
0.0
  3
*Paper_Space
  1

  0
ENDBLK
  5
1D
330
1B
100
AcDbEntity
 67
     1
  8
0
100
AcDbBlockEnd
  0
BLOCK
  5
24
330
23
100
AcDbEntity
  8
0
100
AcDbBlockBegin
  2
*Paper_Space0
 70
     0
 10
0.0
 20
0.0
 30
0.0
  3
*Paper_Space0
  1

  0
ENDBLK
  5
25
330
23
100
AcDbEntity
  8
0
100
AcDbBlockEnd
  0
ENDSEC
  0
SECTION
  2
ENTITIES
  0
SPLINE
  5
41
330
1F
100
AcDbEntity
  8
Layer 1
370
     0
100
AcDbSpline
210
0.0
220
0.0
230
1.0
 70
    11
 71
     3
 72
   473
 73
   469
 74
     0
 42
0.0000000001
 43
0.0000000001
 12
1.0
 22
0.0
 32
0.0
 13
1.0
 23
0.0
 33
0.0
 40
0.0
 40
0.0
 40
0.0
 40
0.0
 40
1.0
 40
1.0
 40
1.0
 40
2.0
 40
2.0
 40
2.0
 40
3.0
 40
3.0
 40
3.0
 40
4.0
 40
4.0
 40
4.0
 40
5.0
 40
5.0
 40
5.0
 40
6.0
 40
6.0
 40
6.0
 40
7.0
 40
7.0
 40
7.0
 40
8.0
 40
8.0
 40
8.0
 40
9.0
 40
9.0
 40
9.0
 40
10.0
 40
10.0
 40
10.0
 40
11.0
 40
11.0
 40
11.0
 40
12.0
 40
12.0
 40
12.0
 40
13.0
 40
13.0
 40
13.0
 40
14.0
 40
14.0
 40
14.0
 40
15.0
 40
15.0
 40
15.0
 40
16.0
 40
16.0
 40
16.0
 40
17.0
 40
17.0
 40
17.0
 40
18.0
 40
18.0
 40
18.0
 40
19.0
 40
19.0
 40
19.0
 40
20.0
 40
20.0
 40
20.0
 40
21.0
 40
21.0
 40
21.0
 40
22.0
 40
22.0
 40
22.0
 40
23.0
 40
23.0
 40
23.0
 40
24.0
 40
24.0
 40
24.0
 40
25.0
 40
25.0
 40
25.0
 40
26.0
 40
26.0
 40
26.0
 40
27.0
 40
27.0
 40
27.0
 40
28.0
 40
28.0
 40
28.0
 40
29.0
 40
29.0
 40
29.0
 40
30.0
 40
30.0
 40
30.0
 40
31.0
 40
31.0
 40
31.0
 40
32.0
 40
32.0
 40
32.0
 40
33.0
 40
33.0
 40
33.0
 40
34.0
 40
34.0
 40
34.0
 40
35.0
 40
35.0
 40
35.0
 40
36.0
 40
36.0
 40
36.0
 40
37.0
 40
37.0
 40
37.0
 40
38.0
 40
38.0
 40
38.0
 40
39.0
 40
39.0
 40
39.0
 40
40.0
 40
40.0
 40
40.0
 40
41.0
 40
41.0
 40
41.0
 40
42.0
 40
42.0
 40
42.0
 40
43.0
 40
43.0
 40
43.0
 40
44.0
 40
44.0
 40
44.0
 40
45.0
 40
45.0
 40
45.0
 40
46.0
 40
46.0
 40
46.0
 40
47.0
 40
47.0
 40
47.0
 40
48.0
 40
48.0
 40
48.0
 40
49.0
 40
49.0
 40
49.0
 40
50.0
 40
50.0
 40
50.0
 40
51.0
 40
51.0
 40
51.0
 40
52.0
 40
52.0
 40
52.0
 40
53.0
 40
53.0
 40
53.0
 40
54.0
 40
54.0
 40
54.0
 40
55.0
 40
55.0
 40
55.0
 40
56.0
 40
56.0
 40
56.0
 40
57.0
 40
57.0
 40
57.0
 40
58.0
 40
58.0
 40
58.0
 40
59.0
 40
59.0
 40
59.0
 40
60.0
 40
60.0
 40
60.0
 40
61.0
 40
61.0
 40
61.0
 40
62.0
 40
62.0
 40
62.0
 40
63.0
 40
63.0
 40
63.0
 40
64.0
 40
64.0
 40
64.0
 40
65.0
 40
65.0
 40
65.0
 40
66.0
 40
66.0
 40
66.0
 40
67.0
 40
67.0
 40
67.0
 40
68.0
 40
68.0
 40
68.0
 40
69.0
 40
69.0
 40
69.0
 40
70.0
 40
70.0
 40
70.0
 40
71.0
 40
71.0
 40
71.0
 40
72.0
 40
72.0
 40
72.0
 40
73.0
 40
73.0
 40
73.0
 40
74.0
 40
74.0
 40
74.0
 40
75.0
 40
75.0
 40
75.0
 40
76.0
 40
76.0
 40
76.0
 40
77.0
 40
77.0
 40
77.0
 40
78.0
 40
78.0
 40
78.0
 40
79.0
 40
79.0
 40
79.0
 40
80.0
 40
80.0
 40
80.0
 40
81.0
 40
81.0
 40
81.0
 40
82.0
 40
82.0
 40
82.0
 40
83.0
 40
83.0
 40
83.0
 40
84.0
 40
84.0
 40
84.0
 40
85.0
 40
85.0
 40
85.0
 40
86.0
 40
86.0
 40
86.0
 40
87.0
 40
87.0
 40
87.0
 40
88.0
 40
88.0
 40
88.0
 40
89.0
 40
89.0
 40
89.0
 40
90.0
 40
90.0
 40
90.0
 40
91.0
 40
91.0
 40
91.0
 40
92.0
 40
92.0
 40
92.0
 40
93.0
 40
93.0
 40
93.0
 40
94.0
 40
94.0
 40
94.0
 40
95.0
 40
95.0
 40
95.0
 40
96.0
 40
96.0
 40
96.0
 40
97.0
 40
97.0
 40
97.0
 40
98.0
 40
98.0
 40
98.0
 40
99.0
 40
99.0
 40
99.0
 40
100.0
 40
100.0
 40
100.0
 40
101.0
 40
101.0
 40
101.0
 40
102.0
 40
102.0
 40
102.0
 40
103.0
 40
103.0
 40
103.0
 40
104.0
 40
104.0
 40
104.0
 40
105.0
 40
105.0
 40
105.0
 40
106.0
 40
106.0
 40
106.0
 40
107.0
 40
107.0
 40
107.0
 40
108.0
 40
108.0
 40
108.0
 40
109.0
 40
109.0
 40
109.0
 40
110.0
 40
110.0
 40
110.0
 40
111.0
 40
111.0
 40
111.0
 40
112.0
 40
112.0
 40
112.0
 40
113.0
 40
113.0
 40
113.0
 40
114.0
 40
114.0
 40
114.0
 40
115.0
 40
115.0
 40
115.0
 40
116.0
 40
116.0
 40
116.0
 40
117.0
 40
117.0
 40
117.0
 40
118.0
 40
118.0
 40
118.0
 40
119.0
 40
119.0
 40
119.0
 40
120.0
 40
120.0
 40
120.0
 40
121.0
 40
121.0
 40
121.0
 40
122.0
 40
122.0
 40
122.0
 40
123.0
 40
123.0
 40
123.0
 40
124.0
 40
124.0
 40
124.0
 40
125.0
 40
125.0
 40
125.0
 40
126.0
 40
126.0
 40
126.0
 40
127.0
 40
127.0
 40
127.0
 40
128.0
 40
128.0
 40
128.0
 40
129.0
 40
129.0
 40
129.0
 40
130.0
 40
130.0
 40
130.0
 40
131.0
 40
131.0
 40
131.0
 40
132.0
 40
132.0
 40
132.0
 40
133.0
 40
133.0
 40
133.0
 40
134.0
 40
134.0
 40
134.0
 40
135.0
 40
135.0
 40
135.0
 40
136.0
 40
136.0
 40
136.0
 40
137.0
 40
137.0
 40
137.0
 40
138.0
 40
138.0
 40
138.0
 40
139.0
 40
139.0
 40
139.0
 40
140.0
 40
140.0
 40
140.0
 40
141.0
 40
141.0
 40
141.0
 40
142.0
 40
142.0
 40
142.0
 40
143.0
 40
143.0
 40
143.0
 40
144.0
 40
144.0
 40
144.0
 40
145.0
 40
145.0
 40
145.0
 40
146.0
 40
146.0
 40
146.0
 40
147.0
 40
147.0
 40
147.0
 40
148.0
 40
148.0
 40
148.0
 40
149.0
 40
149.0
 40
149.0
 40
150.0
 40
150.0
 40
150.0
 40
151.0
 40
151.0
 40
151.0
 40
152.0
 40
152.0
 40
152.0
 40
153.0
 40
153.0
 40
153.0
 40
154.0
 40
154.0
 40
154.0
 40
155.0
 40
155.0
 40
155.0
 40
156.0
 40
156.0
 40
156.0
 40
156.0
 10
224.4919604270042
 20
35.10296070492869
 30
0.0
 10
224.4919604270042
 20
35.10296070492869
 30
0.0
 10
221.4553886707646
 20
38.13961858855537
 30
0.0
 10
221.4553886707646
 20
38.13961858855537
 30
0.0
 10
220.5251698260536
 20
39.06988049695996
 30
0.0
 10
220.0293129264923
 20
40.39118227478719
 30
0.0
 10
220.2654311583126
 20
41.68537545751486
 30
0.0
 10
220.2965231450669
 20
41.85571389741368
 30
0.0
 10
220.3133395174043
 20
42.03098313022576
 30
0.0
 10
220.3142007912756
 20
42.20999890437806
 30
0.0
 10
220.3216077465689
 20
43.66374307176635
 30
0.0
 10
219.2046862584041
 20
44.88505095313421
 30
0.0
 10
217.8120064084919
 20
45.16518027977858
 30
0.0
 10
217.3689886609355
 20
45.25430059361264
 30
0.0
 10
216.9619290975065
 20
45.47114782256234
 30
0.0
 10
216.6424610867899
 20
45.79072349251283
 30
0.0
 10
216.6424610867899
 20
45.79072349251283
 30
0.0
 10
216.4178623929984
 20
46.01538678184468
 30
0.0
 10
216.4178623929984
 20
46.01538678184468
 30
0.0
 10
216.0598954402342
 20
46.37346139384284
 30
0.0
 10
215.8431343386716
 20
46.78045636173154
 30
0.0
 10
215.7540140248375
 20
47.22343104559432
 30
0.0
 10
215.4738416344996
 20
48.6163262139744
 30
0.0
 10
214.2522753709704
 20
49.73322617029239
 30
0.0
 10
212.7983804806546
 20
49.72547470545058
 30
0.0
 10
212.7983804806546
 20
49.72547470545058
 30
0.0
 10
212.7926960731039
 20
49.72541010991023
 30
0.0
 10
212.7926960731039
 20
49.72541010991023
 30
0.0
 10
211.6401824422072
 20
49.71311542539724
 30
0.0
 10
210.5312708010456
 20
50.16552105815089
 30
0.0
 10
209.7162688684694
 20
50.9805229907271
 30
0.0
 10
209.7162688684694
 20
50.9805229907271
 30
0.0
 10
188.0313091231853
 20
72.66543967231759
 30
0.0
 10
188.0313091231853
 20
72.66543967231759
 30
0.0
 10
186.4360361268936
 20
74.2607126686093
 30
0.0
 10
185.4726582381371
 20
76.40851438519475
 30
0.0
 10
185.4631842255526
 20
78.66453516371061
 30
0.0
 10
185.4631196300123
 20
78.67980124307962
 30
0.0
 10
185.4630980981655
 20
78.69508885429542
 30
0.0
 10
185.4630980981655
 20
78.71037646551122
 30
0.0
 10
185.4630980981655
 20
78.71037646551122
 30
0.0
 10
185.4630980981655
 20
80.49381627083793
 30
0.0
 10
185.4630980981655
 20
80.49381627083793
 30
0.0
 10
185.4630980981655
 20
81.04606507712347
 30
0.0
 10
185.9107882564737
 20
81.49375523543169
 30
0.0
 10
186.4630370627592
 20
81.49375523543169
 30
0.0
 10
186.4630370627592
 20
81.49375523543169
 30
0.0
 10
186.9630926724433
 20
81.49375523543169
 30
0.0
 10
186.9630926724433
 20
81.49375523543169
 30
0.0
 10
187.5153414787288
 20
81.49375523543169
 30
0.0
 10
187.963031637037
 20
81.04606507712347
 30
0.0
 10
187.963031637037
 20
80.49381627083793
 30
0.0
 10
187.963031637037
 20
80.49381627083793
 30
0.0
 10
187.963031637037
 20
80.16429288767378
 30
0.0
 10
187.963031637037
 20
80.16429288767378
 30
0.0
 10
187.963031637037
 20
79.61200101769467
 30
0.0
 10
188.4107648590388
 20
79.16426779569288
 30
0.0
 10
188.9630567290179
 20
79.16426779569288
 30
0.0
 10
188.9630567290179
 20
79.16426779569288
 30
0.0
 10
189.4630262113148
 20
79.16426779569288
 30
0.0
 10
189.4630262113148
 20
79.16426779569288
 30
0.0
 10
190.0152750176003
 20
79.16426779569288
 30
0.0
 10
190.4629651759086
 20
79.6119579540011
 30
0.0
 10
190.4629651759086
 20
80.16420676028665
 30
0.0
 10
190.4629651759086
 20
80.16420676028665
 30
0.0
 10
190.4629651759086
 20
81.49375523543169
 30
0.0
 10
190.4629651759086
 20
81.49375523543169
 30
0.0
 10
190.4629651759086
 20
81.49375523543169
 30
0.0
 10
190.4629651759086
 20
85.72588278428685
 30
0.0
 10
190.4629651759086
 20
85.72588278428685
 30
0.0
 10
190.4629651759086
 20
85.72588278428685
 30
0.0
 10
190.4629651759086
 20
87.05284743781796
 30
0.0
 10
190.4629651759086
 20
87.05284743781796
 30
0.0
 10
190.4629651759086
 20
87.6050962441035
 30
0.0
 10
190.0152750176003
 20
88.05278640241173
 30
0.0
 10
189.4630262113148
 20
88.05278640241173
 30
0.0
 10
189.4630262113148
 20
88.05278640241173
 30
0.0
 10
188.9629706016308
 20
88.05278640241173
 30
0.0
 10
188.9629706016308
 20
88.05278640241173
 30
0.0
 10
188.4107217953452
 20
88.05278640241173
 30
0.0
 10
187.963031637037
 20
87.6050962441035
 30
0.0
 10
187.963031637037
 20
87.05284743781796
 30
0.0
 10
187.963031637037
 20
87.05284743781796
 30
0.0
 10
187.963031637037
 20
86.72582174888062
 30
0.0
 10
187.963031637037
 20
86.72582174888062
 30
0.0
 10
187.963031637037
 20
86.17357294259507
 30
0.0
 10
187.5153414787288
 20
85.72588278428685
 30
0.0
 10
186.9630926724433
 20
85.72588278428685
 30
0.0
 10
186.9630926724433
 20
85.72588278428685
 30
0.0
 10
186.4632093175335
 20
85.72588278428685
 30
0.0
 10
186.4632093175335
 20
85.72588278428685
 30
0.0
 10
185.910852852014
 20
85.72588278428685
 30
0.0
 10
185.4630980981655
 20
86.17363753813541
 30
0.0
 10
185.4630980981655
 20
86.72599400365488
 30
0.0
 10
185.4630980981655
 20
86.72599400365488
 30
0.0
 10
185.4630980981655
 20
88.45861865057415
 30
0.0
 10
185.4630980981655
 20
88.45861865057415
 30
0.0
 10
185.4630980981655
 20
88.47900930947748
 30
0.0
 10
185.4631626937058
 20
88.49937843653402
 30
0.0
 10
185.4632703529398
 20
88.51976909543734
 30
0.0
 10
185.4759095470013
 20
90.77531617332397
 30
0.0
 10
186.4366820822971
 20
92.92255806189306
 30
0.0
 10
188.0316105690403
 20
94.51750808048304
 30
0.0
 10
188.0316105690403
 20
94.51750808048304
 30
0.0
 10
209.7180775435991
 20
116.2041257779694
 30
0.0
 10
209.7180775435991
 20
116.2041257779694
 30
0.0
 10
210.5273520049311
 20
117.0134002393013
 30
0.0
 10
211.6271341430568
 20
117.4647292797159
 30
0.0
 10
212.7715948632568
 20
117.4572361970354
 30
0.0
 10
212.7715948632568
 20
117.4572361970354
 30
0.0
 10
212.7780544172916
 20
117.4571931333419
 30
0.0
 10
212.7780544172916
 20
117.4571931333419
 30
0.0
 10
214.2235303555153
 20
117.457279260729
 30
0.0
 10
215.4375820045173
 20
118.5730380291675
 30
0.0
 10
215.7173668216132
 20
119.9588276881093
 30
0.0
 10
215.8067885813022
 20
120.4016947127381
 30
0.0
 10
216.0231190459291
 20
120.8088188717075
 30
0.0
 10
216.3426947158796
 20
121.128200755037
 30
0.0
 10
216.3426947158796
 20
121.128200755037
 30
0.0
 10
216.6071057943725
 20
121.3924395787556
 30
0.0
 10
216.6071057943725
 20
121.3924395787556
 30
0.0
 10
216.9269398464844
 20
121.7120583123997
 30
0.0
 10
217.3343869831556
 20
121.9284103088734
 30
0.0
 10
217.7775769854862
 20
122.0180258551834
 30
0.0
 10
219.1631297941133
 20
122.2981982455214
 30
0.0
 10
220.2780272886805
 20
123.5123790856041
 30
0.0
 10
220.2778550339062
 20
124.9577688964407
 30
0.0
 10
220.277682779132
 20
125.1350621228504
 30
0.0
 10
220.2621583176016
 20
125.3088025945409
 30
0.0
 10
220.2323151779606
 20
125.4776553370117
 30
0.0
 10
220.0038407517482
 20
126.7702120993838
 30
0.0
 10
220.5038748295854
 20
128.0861309155154
 30
0.0
 10
221.431854362231
 20
129.0144334258627
 30
0.0
 10
221.431854362231
 20
129.0144334258627
 30
0.0
 10
224.4597918479107
 20
132.0434044401879
 30
0.0
 10
224.4597918479107
 20
132.0434044401879
 30
0.0
 10
225.2407088670297
 20
132.8246013733151
 30
0.0
 10
225.2405150804086
 20
134.0909538781526
 30
0.0
 10
224.4593396791282
 20
134.8718924291184
 30
0.0
 10
224.4593396791282
 20
134.8718924291184
 30
0.0
 10
222.6914889308723
 20
136.6392264130516
 30
0.0
 10
222.6914889308723
 20
136.6392264130516
 30
0.0
 10
221.9102489340515
 20
137.4202295595577
 30
0.0
 10
220.6438103018269
 20
137.4200142410899
 30
0.0
 10
219.8628286871675
 20
136.6387311805756
 30
0.0
 10
219.8628286871675
 20
136.6387311805756
 30
0.0
 10
216.8374750231018
 20
133.61217173309
 30
0.0
 10
216.8374750231018
 20
133.61217173309
 30
0.0
 10
215.9090002579802
 20
132.6833309265731
 30
0.0
 10
214.592457018292
 20
132.183382976123
 30
0.0
 10
213.2990820457421
 20
132.4115344246337
 30
0.0
 10
213.1302293032713
 20
132.4413129687343
 30
0.0
 10
212.9567902774357
 20
132.4569666213454
 30
0.0
 10
212.77960471026
 20
132.4570527487325
 30
0.0
 10
211.3335258803264
 20
132.4578278952167
 30
0.0
 10
210.1188928714612
 20
131.3426504866413
 30
0.0
 10
209.8388066085104
 20
129.9566455092318
 30
0.0
 10
209.7492771895874
 20
129.5134770387479
 30
0.0
 10
209.5328821294202
 20
129.1060514339236
 30
0.0
 10
209.2132418639293
 20
128.7863035091988
 30
0.0
 10
209.2132418639293
 20
128.7863035091988
 30
0.0
 10
208.9490030402107
 20
128.521978558093
 30
0.0
 10
208.9490030402107
 20
128.521978558093
 30
0.0
 10
208.6293843065666
 20
128.2022521652151
 30
0.0
 10
208.2220017654358
 20
127.9857925095075
 30
0.0
 10
207.7788763586456
 20
127.8962846224313
 30
0.0
 10
206.3923115532196
 20
127.6162414231741
 30
0.0
 10
205.2767035077086
 20
126.4010270544458
 30
0.0
 10
205.2780815459027
 20
124.9544960557297
 30
0.0
 10
205.2781030777495
 20
124.9433425590962
 30
0.0
 10
205.2785337146852
 20
124.9280764797272
 30
0.0
 10
205.2793519248629
 20
124.9091284545583
 30
0.0
 10
205.3282076852131
 20
123.7735388552328
 30
0.0
 10
204.8739933773297
 20
122.6737351852604
 30
0.0
 10
204.0702741324677
 20
121.8700159403984
 30
0.0
 10
204.0702741324677
 20
121.8700159403984
 30
0.0
 10
182.3910633902746
 20
100.1906114115843
 30
0.0
 10
182.3910633902746
 20
100.1906114115843
 30
0.0
 10
180.7963286901525
 20
98.59587671146214
 30
0.0
 10
178.6494528429787
 20
97.63708510607033
 30
0.0
 10
176.394207210947
 20
97.62203434516915
 30
0.0
 10
176.3699408196228
 20
97.62188362224167
 30
0.0
 10
176.3456528964518
 20
97.62179749485453
 30
0.0
 10
176.3213649732808
 20
97.62179749485453
 30
0.0
 10
176.3213649732808
 20
97.62179749485453
 30
0.0
 10
166.5529689796291
 20
97.62179749485453
 30
0.0
 10
166.5529689796291
 20
97.62179749485453
 30
0.0
 10
166.5372291996309
 20
97.62179749485453
 30
0.0
 10
166.5215109514794
 20
97.6218405585481
 30
0.0
 10
166.5057711714812
 20
97.62190515408845
 30
0.0
 10
164.2497934566589
 20
97.63165908068106
 30
0.0
 10
162.1020563356138
 20
98.59480011912301
 30
0.0
 10
160.5068264030157
 20
100.1900515835679
 30
0.0
 10
160.5068264030157
 20
100.1900515835679
 30
0.0
 10
138.8342259377849
 20
121.862716644339
 30
0.0
 10
138.8342259377849
 20
121.862716644339
 30
0.0
 10
138.0203436612414
 20
122.6766204527293
 30
0.0
 10
137.5691438119076
 20
123.7843693741646
 30
0.0
 10
137.5827304072276
 20
124.9352896483994
 30
0.0
 10
137.5827304072276
 20
124.9352896483994
 30
0.0
 10
137.5828165346147
 20
124.9422659667571
 30
0.0
 10
137.5828165346147
 20
124.9422659667571
 30
0.0
 10
137.5898789803595
 20
126.3955794972097
 30
0.0
 10
136.4730005558883
 20
127.6164998053355
 30
0.0
 10
135.0808374702988
 20
127.8966721956734
 30
0.0
 10
134.6378412545892
 20
127.9858140413542
 30
0.0
 10
134.2307601593134
 20
128.2025966747636
 30
0.0
 10
133.9112490849033
 20
128.5221292810205
 30
0.0
 10
133.9112490849033
 20
128.5221292810205
 30
0.0
 10
133.6864996681843
 20
128.7468571658927
 30
0.0
 10
133.6864996681843
 20
128.7468571658927
 30
0.0
 10
133.32853271542
 20
129.1048456505037
 30
0.0
 10
133.1117931457043
 20
129.5117760228521
 30
0.0
 10
133.0227158955638
 20
129.9546861111745
 30
0.0
 10
132.7426942281533
 20
131.3471506426189
 30
0.0
 10
131.5215586015597
 20
132.4640290670902
 30
0.0
 10
130.0682020074135
 20
132.4570527487325
 30
0.0
 10
129.9063255833003
 20
132.4562776022483
 30
0.0
 10
129.7474205540432
 20
132.4425618158477
 30
0.0
 10
129.592585043828
 20
132.416852790789
 30
0.0
 10
128.2486748268788
 20
132.1937397944255
 30
0.0
 10
126.8866778586321
 20
132.7120759420282
 30
0.0
 10
125.9234291609562
 20
133.6754107670911
 30
0.0
 10
125.9234291609562
 20
133.6754107670911
 30
0.0
 10
122.9971865876318
 20
136.6018040633431
 30
0.0
 10
122.9971865876318
 20
136.6018040633431
 30
0.0
 10
122.2161403774321
 20
137.3828933372363
 30
0.0
 10
120.9497878725946
 20
137.3829148690831
 30
0.0
 10
120.1687201305481
 20
136.6018471270366
 30
0.0
 10
120.1687201305481
 20
136.6018471270366
 30
0.0
 10
118.4010416370664
 20
134.8341686335549
 30
0.0
 10
118.4010416370664
 20
134.8341686335549
 30
0.0
 10
117.6200169587135
 20
134.053143955202
 30
0.0
 10
117.6199954268667
 20
132.7868560459048
 30
0.0
 10
118.4009770415261
 20
132.0058098357052
 30
0.0
 10
118.4009770415261
 20
132.0058098357052
 30
0.0
 10
121.4242851801474
 20
128.9822433149224
 30
0.0
 10
121.4242851801474
 20
128.9822433149224
 30
0.0
 10
122.3477430249686
 20
128.058699342714
 30
0.0
 10
122.8479924212737
 20
126.7511564149811
 30
0.0
 10
122.6262359312575
 20
125.4640902735385
 30
0.0
 10
122.5971464062539
 20
125.2952590629145
 30
0.0
 10
122.5823540275141
 20
125.121518591224
 30
0.0
 10
122.5830430466112
 20
124.9441607692739
 30
0.0
 10
122.5892442184846
 20
123.5059625952628
 30
0.0
 10
123.7031081844063
 20
122.2980905862875
 30
0.0
 10
125.0825890122406
 20
122.0182196418045
 30
0.0
 10
125.5257574827245
 20
121.9283241814862
 30
0.0
 10
125.9333553423231
 20
121.7123597582546
 30
0.0
 10
126.2531032670478
 20
121.3926118335299
 30
0.0
 10
126.2531032670478
 20
121.3926118335299
 30
0.0
 10
126.5185478741863
 20
121.1271672263914
 30
0.0
 10
126.5185478741863
 20
121.1271672263914
 30
0.0
 10
126.8381235441368
 20
120.8075700245941
 30
0.0
 10
127.0540449036749
 20
120.4002090153101
 30
0.0
 10
127.1438973002995
 20
119.9572773951409
 30
0.0
 10
127.4237467129357
 20
118.5775812488387
 30
0.0
 10
128.6317479129918
 20
117.4633943052153
 30
0.0
 10
130.0699245551561
 20
117.457279260729
 30
0.0
 10
130.0810134562493
 20
117.4572361970354
 30
0.0
 10
130.0961934082312
 20
117.457580706584
 30
0.0
 10
130.1150337741661
 20
117.4582912575278
 30
0.0
 10
131.245132752562
 20
117.500601336456
 30
0.0
 10
132.3374864035476
 20
117.0456980094756
 30
0.0
 10
133.1371576612144
 20
116.2460267518087
 30
0.0
 10
133.1371576612144
 20
116.2460267518087
 30
0.0
 10
154.8939691792127
 20
94.48917217011686
 30
0.0
 10
154.8939691792127
 20
94.48917217011686
 30
0.0
 10
156.4884454971735
 20
92.8946958521561
 30
0.0
 10
157.4448255357256
 20
90.74827217376476
 30
0.0
 10
157.4627400322489
 20
88.49341411497518
 30
0.0
 10
157.4629768825635
 20
88.46451837659264
 30
0.0
 10
157.4630845417974
 20
88.43560110636332
 30
0.0
 10
157.4630845417974
 20
88.40668383613401
 30
0.0
 10
157.4630845417974
 20
88.40668383613401
 30
0.0
 10
157.4630845417974
 20
86.74985128989023
 30
0.0
 10
157.4630845417974
 20
86.74985128989023
 30
0.0
 10
157.4630845417974
 20
86.19760248360468
 30
0.0
 10
157.0153943834892
 20
85.74991232529646
 30
0.0
 10
156.4631455772037
 20
85.74991232529646
 30
0.0
 10
156.4631455772037
 20
85.74991232529646
 30
0.0
 10
155.9630899675197
 20
85.74991232529646
 30
0.0
 10
155.9630899675197
 20
85.74991232529646
 30
0.0
 10
155.4108411612341
 20
85.74991232529646
 30
0.0
 10
154.9631510029259
 20
86.19760248360468
 30
0.0
 10
154.9631510029259
 20
86.74985128989023
 30
0.0
 10
154.9631510029259
 20
86.74985128989023
 30
0.0
 10
154.9631510029259
 20
87.07937467305437
 30
0.0
 10
154.9631510029259
 20
87.07937467305437
 30
0.0
 10
154.9631510029259
 20
87.63162347933992
 30
0.0
 10
154.5154608446177
 20
88.07931363764814
 30
0.0
 10
153.9632120383321
 20
88.07931363764814
 30
0.0
 10
153.9632120383321
 20
88.07931363764814
 30
0.0
 10
153.4631564286481
 20
88.07931363764814
 30
0.0
 10
153.4631564286481
 20
88.07931363764814
 30
0.0
 10
152.9109076223626
 20
88.07931363764814
 30
0.0
 10
152.4632174640543
 20
87.63162347933992
 30
0.0
 10
152.4632174640543
 20
87.07937467305437
 30
0.0
 10
152.4632174640543
 20
87.07937467305437
 30
0.0
 10
152.4632174640543
 20
85.74991232529646
 30
0.0
 10
152.4632174640543
 20
85.74991232529646
 30
0.0
 10
152.4632174640543
 20
85.74991232529646
 30
0.0
 10
152.4632174640543
 20
81.5177847764413
 30
0.0
 10
152.4632174640543
 20
81.5177847764413
 30
0.0
 10
152.4632174640543
 20
81.5177847764413
 30
0.0
 10
152.4632174640543
 20
80.1908201229102
 30
0.0
 10
152.4632174640543
 20
80.1908201229102
 30
0.0
 10
152.4632174640543
 20
79.63857131662465
 30
0.0
 10
152.9109076223626
 20
79.19088115831643
 30
0.0
 10
153.4631564286481
 20
79.19088115831643
 30
0.0
 10
153.4631564286481
 20
79.19088115831643
 30
0.0
 10
153.9630397835579
 20
79.19088115831643
 30
0.0
 10
153.9630397835579
 20
79.19088115831643
 30
0.0
 10
154.5153962490773
 20
79.19088115831643
 30
0.0
 10
154.9631510029259
 20
79.638635912165
 30
0.0
 10
154.9631510029259
 20
80.19099237768447
 30
0.0
 10
154.9631510029259
 20
80.19099237768447
 30
0.0
 10
154.9631510029259
 20
80.5177596844604
 30
0.0
 10
154.9631510029259
 20
80.5177596844604
 30
0.0
 10
154.9631510029259
 20
81.07005155443952
 30
0.0
 10
155.4108842249277
 20
81.5177847764413
 30
0.0
 10
155.9631760949068
 20
81.5177847764413
 30
0.0
 10
155.9631760949068
 20
81.5177847764413
 30
0.0
 10
156.4629733224294
 20
81.5177847764413
 30
0.0
 10
156.4629733224294
 20
81.5177847764413
 30
0.0
 10
157.0153297879489
 20
81.5177847764413
 30
0.0
 10
157.4630845417974
 20
81.07003002259273
 30
0.0
 10
157.4630845417974
 20
80.51767355707328
 30
0.0
 10
157.4630845417974
 20
80.51767355707328
 30
0.0
 10
157.4630845417974
 20
78.75300952214118
 30
0.0
 10
157.4630845417974
 20
78.75300952214118
 30
0.0
 10
157.4630845417974
 20
78.73264039508464
 30
0.0
 10
157.4630199462571
 20
78.71229279987489
 30
0.0
 10
157.4629122870232
 20
78.69194520466513
 30
0.0
 10
157.4502946248084
 20
76.4363765949317
 30
0.0
 10
156.4895005576658
 20
74.28913470636262
 30
0.0
 10
154.8945505390759
 20
72.69418468777263
 30
0.0
 10
154.8945505390759
 20
72.69418468777263
 30
0.0
 10
133.1578928296663
 20
50.95748391466949
 30
0.0
 10
133.1578928296663
 20
50.95748391466949
 30
0.0
 10
132.3508576803997
 20
50.15044876540293
 30
0.0
 10
131.2507095008787
 20
49.70575153379752
 30
0.0
 10
130.1095646850833
 20
49.72528091882953
 30
0.0
 10
130.1095646850833
 20
49.72528091882953
 30
0.0
 10
130.0936957140044
 20
49.72556083283771
 30
0.0
 10
130.0936957140044
 20
49.72556083283771
 30
0.0
 10
128.6426430274639
 20
49.73072847606559
 30
0.0
 10
127.4234452670808
 20
48.61428068853002
 30
0.0
 10
127.14335900413
 20
47.22388321437676
 30
0.0
 10
127.054131031062
 20
46.78090853051398
 30
0.0
 10
126.8374991205801
 20
46.37378437154457
 30
0.0
 10
126.5180311098636
 20
46.05420870159409
 30
0.0
 10
126.5180311098636
 20
46.05420870159409
 30
0.0
 10
126.2544813052419
 20
45.79057276958535
 30
0.0
 10
126.2544813052419
 20
45.79057276958535
 30
0.0
 10
125.9349917626786
 20
45.47099709963486
 30
0.0
 10
125.5279106674028
 20
45.25425752991907
 30
0.0
 10
125.0849144516932
 20
45.16509415239145
 30
0.0
 10
123.6935911081283
 20
44.88505095313421
 30
0.0
 10
122.577014129512
 20
43.66514264180724
 30
0.0
 10
122.5830430466112
 20
42.21309949031478
 30
0.0
 10
122.5837320657082
 20
42.03406218431571
 30
0.0
 10
122.6002900558842
 20
41.85864222857614
 30
0.0
 10
122.6313174470983
 20
41.68823919313697
 30
0.0
 10
122.8666174687408
 20
40.39583315369227
 30
0.0
 10
122.3692102762111
 20
39.07674915608368
 30
0.0
 10
121.4404771289281
 20
38.14771456294572
 30
0.0
 10
121.4404771289281
 20
38.14771456294572
 30
0.0
 10
118.4005679364372
 20
35.10677184180925
 30
0.0
 10
118.4005679364372
 20
35.10677184180925
 30
0.0
 10
117.6197155128585
 20
34.32563950422241
 30
0.0
 10
117.6199308313264
 20
33.05941619046562
 30
0.0
 10
118.4010416370664
 20
32.27856376688696
 30
0.0
 10
118.4010416370664
 20
32.27856376688696
 30
0.0
 10
120.1690646400966
 20
30.51114365556666
 30
0.0
 10
120.1690646400966
 20
30.51114365556666
 30
0.0
 10
120.950240041377
 20
29.73024816829444
 30
0.0
 10
122.216549482521
 20
29.73046348676226
 30
0.0
 10
122.9974449697932
 20
30.51161735619588
 30
0.0
 10
122.9974449697932
 20
30.51161735619588
 30
0.0
 10
126.0531154741291
 20
33.56832138917736
 30
0.0
 10
126.0531154741291
 20
33.56832138917736
 30
0.0
 10
126.9772623380474
 20
34.49279123079738
 30
0.0
 10
128.2862048358213
 20
34.99144727044051
 30
0.0
 10
129.5743045059094
 20
34.76900176132728
 30
0.0
 10
129.7427481432913
 20
34.73989070447692
 30
0.0
 10
129.9161656372801
 20
34.72501219835
 30
0.0
 10
130.0931789496816
 20
34.72561509005992
 30
0.0
 10
131.5328843529675
 20
34.7305243511264
 30
0.0
 10
132.7422205275241
 20
35.84509886799185
 30
0.0
 10
133.0221130038539
 20
37.22604386140747
 30
0.0
 10
133.1118792730914
 20
37.66899701342346
 30
0.0
 10
133.3279082918633
 20
38.07633649086069
 30
0.0
 10
133.6474839618138
 20
38.39593369265796
 30
0.0
 10
133.6474839618138
 20
38.39593369265796
 30
0.0
 10
133.9125840594038
 20
38.66103379024793
 30
0.0
 10
133.9125840594038
 20
38.66103379024793
 30
0.0
 10
134.2323319841286
 20
38.98078171497269
 30
0.0
 10
134.6399083118804
 20
39.19687532928499
 30
0.0
 10
135.083098314211
 20
39.28672772590966
 30
0.0
 10
136.4641294350137
 20
39.56670632962656
 30
0.0
 10
137.5781656557096
 20
40.77621475895742
 30
0.0
 10
137.5826442798405
 20
42.21628620363864
 30
0.0
 10
137.582687343534
 20
42.22739663657857
 30
0.0
 10
137.5822997702919
 20
42.24255505671367
 30
0.0
 10
137.5815892193481
 20
42.26135235895507
 30
0.0
 10
137.538073357
 20
43.38776939155106
 30
0.0
 10
137.9910818814636
 20
44.47697939290637
 30
0.0
 10
138.7881693175165
 20
45.27406682895926
 30
0.0
 10
138.7881693175165
 20
45.27406682895926
 30
0.0
 10
160.5672232332414
 20
67.05307768099064
 30
0.0
 10
160.5672232332414
 20
67.05307768099064
 30
0.0
 10
162.1619364015168
 20
68.647790849266
 30
0.0
 10
164.3088122486906
 20
69.60658245465783
 30
0.0
 10
166.5640148170287
 20
69.621633215559
 30
0.0
 10
166.5883027401997
 20
69.62178393848649
 30
0.0
 10
166.6125691315239
 20
69.62187006587362
 30
0.0
 10
166.636857054695
 20
69.62187006587362
 30
0.0
 10
166.636857054695
 20
69.62187006587362
 30
0.0
 10
176.2467786560251
 20
69.62187006587362
 30
0.0
 10
176.2467786560251
 20
69.62187006587362
 30
0.0
 10
176.2761265631901
 20
69.62187006587362
 30
0.0
 10
176.3054744703551
 20
69.6217624066397
 30
0.0
 10
176.3348008456732
 20
69.6215255563251
 30
0.0
 10
178.5895943089225
 20
69.60333114579362
 30
0.0
 10
180.7359533917735
 20
68.6471664257093
 30
0.0
 10
182.3303866460407
 20
67.05273317144211
 30
0.0
 10
182.3303866460407
 20
67.05273317144211
 30
0.0
 10
204.1023350523273
 20
45.28080629700229
 30
0.0
 10
204.1023350523273
 20
45.28080629700229
 30
0.0
 10
204.9025230743169
 20
44.48061827501266
 30
0.0
 10
205.3576847834588
 20
43.3875971367768
 30
0.0
 10
205.3156115548452
 20
42.25674454374354
 30
0.0
 10
205.3149010039013
 20
42.23790417780858
 30
0.0
 10
205.3145564943528
 20
42.2227242258267
 30
0.0
 10
205.3145995580464
 20
42.21163532473355
 30
0.0
 10
205.3211452394683
 20
40.77401851058558
 30
0.0
 10
206.4348584824625
 20
39.5666417340862
 30
0.0
 10
207.8138440778208
 20
39.28681385329678
 30
0.0
 10
208.2570125483047
 20
39.19687532928499
 30
0.0
 10
208.6646104079033
 20
38.98093243790017
 30
0.0
 10
208.9843152689345
 20
38.66111991763507
 30
0.0
 10
208.9843152689345
 20
38.66111991763507
 30
0.0
 10
209.2499321308472
 20
38.39541692833517
 30
0.0
 10
209.2499321308472
 20
38.39541692833517
 30
0.0
 10
209.569680055572
 20
38.07556134437651
 30
0.0
 10
209.7856229469568
 20
37.66787735739076
 30
0.0
 10
209.875626066509
 20
37.22464429136658
 30
0.0
 10
210.1556477339194
 20
35.84587401447603
 30
0.0
 10
211.3629168511849
 20
34.73233302625616
 30
0.0
 10
212.8002752831715
 20
34.72570121744705
 30
0.0
 10
212.9606660098566
 20
34.72492607096287
 30
0.0
 10
213.11825759646
 20
34.73689777777411
 30
0.0
 10
213.2718657914086
 20
34.7607120003159
 30
0.0
 10
214.6083259893709
 20
34.96774070713263
 30
0.0
 10
215.9558750884264
 20
34.44694992899677
 30
0.0
 10
216.9121474677446
 20
33.49065601783177
 30
0.0
 10
216.9121474677446
 20
33.49065601783177
 30
0.0
 10
219.8957293490517
 20
30.50698800913758
 30
0.0
 10
219.8957293490517
 20
30.50698800913758
 30
0.0
 10
220.6767970910982
 20
29.72589873524431
 30
0.0
 10
221.9431280640889
 20
29.72587720339752
 30
0.0
 10
222.7242173379821
 20
30.50692341359723
 30
0.0
 10
222.7242173379821
 20
30.50692341359723
 30
0.0
 10
224.4918958314638
 20
32.27451577969179
 30
0.0
 10
224.4918958314638
 20
32.27451577969179
 30
0.0
 10
225.2729635735103
 20
33.05556198989149
 30
0.0
 10
225.2730066372039
 20
34.3218929628822
 30
0.0
 10
224.4919604270042
 20
35.10296070492869
 30
0.0
  0
SPLINE
  5
42
330
1F
100
AcDbEntity
  8
Layer 1
370
     0
100
AcDbSpline
210
0.0
220
0.0
230
1.0
 70
    11
 71
     3
 72
    17
 73
    13
 74
     0
 42
0.0000000001
 43
0.0000000001
 12
1.0
 22
0.0
 32
0.0
 13
1.0
 23
0.0
 33
0.0
 40
0.0
 40
0.0
 40
0.0
 40
0.0
 40
1.0
 40
1.0
 40
1.0
 40
2.0
 40
2.0
 40
2.0
 40
3.0
 40
3.0
 40
3.0
 40
4.0
 40
4.0
 40
4.0
 40
4.0
 10
221.2777939985
 20
134.7070446101492
 30
0.0
 10
221.9681911337441
 20
134.7070446101492
 30
0.0
 10
222.5278468953229
 20
134.1473888485704
 30
0.0
 10
222.5278468953229
 20
133.4569917133263
 30
0.0
 10
222.5278468953229
 20
132.7666807054694
 30
0.0
 10
221.9681911337441
 20
132.2070249438905
 30
0.0
 10
221.2777939985
 20
132.2070249438905
 30
0.0
 10
220.5873968632559
 20
132.2070249438905
 30
0.0
 10
220.0277411016771
 20
132.7666807054694
 30
0.0
 10
220.0277411016771
 20
133.4569917133263
 30
0.0
 10
220.0277411016771
 20
134.1473888485704
 30
0.0
 10
220.5873968632559
 20
134.7070446101492
 30
0.0
 10
221.2777939985
 20
134.7070446101492
 30
0.0
  0
SPLINE
  5
43
330
1F
100
AcDbEntity
  8
Layer 1
370
     0
100
AcDbSpline
210
0.0
220
0.0
230
1.0
 70
    11
 71
     3
 72
    17
 73
    13
 74
     0
 42
0.0000000001
 43
0.0000000001
 12
1.0
 22
0.0
 32
0.0
 13
1.0
 23
0.0
 33
0.0
 40
0.0
 40
0.0
 40
0.0
 40
0.0
 40
1.0
 40
1.0
 40
1.0
 40
2.0
 40
2.0
 40
2.0
 40
3.0
 40
3.0
 40
3.0
 40
4.0
 40
4.0
 40
4.0
 40
4.0
 10
217.3143838974943
 20
125.9571910967117
 30
0.0
 10
217.8666327037799
 20
125.9571910967117
 30
0.0
 10
218.3143228620881
 20
125.5094148110163
 30
0.0
 10
218.3143228620881
 20
124.9571660047308
 30
0.0
 10
218.3143228620881
 20
124.4048310710581
 30
0.0
 10
217.8666327037799
 20
123.9571409127499
 30
0.0
 10
217.3143838974943
 20
123.9571409127499
 30
0.0
 10
216.7621350912088
 20
123.9571409127499
 30
0.0
 10
216.3144449329006
 20
124.4048310710581
 30
0.0
 10
216.3144449329006
 20
124.9571660047308
 30
0.0
 10
216.3144449329006
 20
125.5094148110163
 30
0.0
 10
216.7621350912088
 20
125.9571910967117
 30
0.0
 10
217.3143838974943
 20
125.9571910967117
 30
0.0
  0
SPLINE
  5
44
330
1F
100
AcDbEntity
  8
Layer 1
370
     0
100
AcDbSpline
210
0.0
220
0.0
230
1.0
 70
    11
 71
     3
 72
    17
 73
    13
 74
     0
 42
0.0000000001
 43
0.0000000001
 12
1.0
 22
0.0
 32
0.0
 13
1.0
 23
0.0
 33
0.0
 40
0.0
 40
0.0
 40
0.0
 40
0.0
 40
1.0
 40
1.0
 40
1.0
 40
2.0
 40
2.0
 40
2.0
 40
3.0
 40
3.0
 40
3.0
 40
4.0
 40
4.0
 40
4.0
 40
4.0
 10
212.814400174661
 20
119.4571571899165
 30
0.0
 10
212.2621513683754
 20
119.4571571899165
 30
0.0
 10
211.8144612100672
 20
119.9048473482247
 30
0.0
 10
211.8144612100672
 20
120.4570961545103
 30
0.0
 10
211.8144612100672
 20
121.0093449607958
 30
0.0
 10
212.2621513683754
 20
121.4571212464912
 30
0.0
 10
212.814400174661
 20
121.4571212464912
 30
0.0
 10
213.3668212357208
 20
121.4571212464912
 30
0.0
 10
213.814511394029
 20
121.009431088183
 30
0.0
 10
213.814511394029
 20
120.4570961545103
 30
0.0
 10
213.814511394029
 20
119.9048473482247
 30
0.0
 10
213.3668212357208
 20
119.4571571899165
 30
0.0
 10
212.814400174661
 20
119.4571571899165
 30
0.0
  0
SPLINE
  5
45
330
1F
100
AcDbEntity
  8
Layer 1
370
     0
100
AcDbSpline
210
0.0
220
0.0
230
1.0
 70
    11
 71
     3
 72
    17
 73
    13
 74
     0
 42
0.0000000001
 43
0.0000000001
 12
1.0
 22
0.0
 32
0.0
 13
1.0
 23
0.0
 33
0.0
 40
0.0
 40
0.0
 40
0.0
 40
0.0
 40
1.0
 40
1.0
 40
1.0
 40
2.0
 40
2.0
 40
2.0
 40
3.0
 40
3.0
 40
3.0
 40
4.0
 40
4.0
 40
4.0
 40
4.0
 10
212.814400174661
 20
130.4570886921579
 30
0.0
 10
213.3666489809465
 20
130.4570886921579
 30
0.0
 10
213.8143391392548
 20
130.0093985338497
 30
0.0
 10
213.8143391392548
 20
129.4571497275641
 30
0.0
 10
213.8143391392548
 20
128.9048147938914
 30
0.0
 10
213.3666489809465
 20
128.4571246355832
 30
0.0
 10
212.814400174661
 20
128.4571246355832
 30
0.0
 10
212.2621513683754
 20
128.4571246355832
 30
0.0
 10
211.8144612100672
 20
128.9048147938914
 30
0.0
 10
211.8144612100672
 20
129.457063600177
 30
0.0
 10
211.8144612100672
 20
130.0093985338497
 30
0.0
 10
212.2621513683754
 20
130.4570886921579
 30
0.0
 10
212.814400174661
 20
130.4570886921579
 30
0.0
  0
SPLINE
  5
46
330
1F
100
AcDbEntity
  8
Layer 1
370
     0
100
AcDbSpline
210
0.0
220
0.0
230
1.0
 70
    11
 71
     3
 72
    17
 73
    13
 74
     0
 42
0.0000000001
 43
0.0000000001
 12
1.0
 22
0.0
 32
0.0
 13
1.0
 23
0.0
 33
0.0
 40
0.0
 40
0.0
 40
0.0
 40
0.0
 40
1.0
 40
1.0
 40
1.0
 40
2.0
 40
2.0
 40
2.0
 40
3.0
 40
3.0
 40
3.0
 40
4.0
 40
4.0
 40
4.0
 40
4.0
 10
211.0465494264051
 20
126.7248444982125
 30
0.0
 10
212.0228894869248
 20
127.7011845587323
 30
0.0
 10
213.6059108623971
 20
127.7011845587323
 30
0.0
 10
214.5820786681427
 20
126.7249306255996
 30
0.0
 10
215.5584187286625
 20
125.7485905650798
 30
0.0
 10
215.5584187286625
 20
124.1656553169946
 30
0.0
 10
214.582250922917
 20
123.1894013838619
 30
0.0
 10
213.6059108623971
 20
122.2130613233421
 30
0.0
 10
212.0228894869248
 20
122.2130613233421
 30
0.0
 10
211.0467216811793
 20
123.1893152564748
 30
0.0
 10
210.0703816206595
 20
124.1656553169946
 30
0.0
 10
210.0703816206595
 20
125.7485905650798
 30
0.0
 10
211.0465494264051
 20
126.7248444982125
 30
0.0
  0
SPLINE
  5
47
330
1F
100
AcDbEntity
  8
Layer 1
370
     0
100
AcDbSpline
210
0.0
220
0.0
230
1.0
 70
    11
 71
     3
 72
    17
 73
    13
 74
     0
 42
0.0000000001
 43
0.0000000001
 12
1.0
 22
0.0
 32
0.0
 13
1.0
 23
0.0
 33
0.0
 40
0.0
 40
0.0
 40
0.0
 40
0.0
 40
1.0
 40
1.0
 40
1.0
 40
2.0
 40
2.0
 40
2.0
 40
3.0
 40
3.0
 40
3.0
 40
4.0
 40
4.0
 40
4.0
 40
4.0
 10
208.3144164518277
 20
125.9571049693245
 30
0.0
 10
208.8666652581132
 20
125.9571049693245
 30
0.0
 10
209.3143554164214
 20
125.5093286836292
 30
0.0
 10
209.3143554164214
 20
124.9570798773436
 30
0.0
 10
209.3143554164214
 20
124.4048310710581
 30
0.0
 10
208.8666652581132
 20
123.9571409127499
 30
0.0
 10
208.3144164518277
 20
123.9570547853627
 30
0.0
 10
207.7621676455421
 20
123.9570547853627
 30
0.0
 10
207.3144774872339
 20
124.4048310710581
 30
0.0
 10
207.3144774872339
 20
124.9570798773436
 30
0.0
 10
207.3144774872339
 20
125.5093286836292
 30
0.0
 10
207.7621676455421
 20
125.9571049693245
 30
0.0
 10
208.3144164518277
 20
125.9571049693245
 30
0.0
  0
SPLINE
  5
48
330
1F
100
AcDbEntity
  8
Layer 1
370
     0
100
AcDbSpline
210
0.0
220
0.0
230
1.0
 70
    11
 71
     3
 72
    17
 73
    13
 74
     0
 42
0.0000000001
 43
0.0000000001
 12
1.0
 22
0.0
 32
0.0
 13
1.0
 23
0.0
 33
0.0
 40
0.0
 40
0.0
 40
0.0
 40
0.0
 40
1.0
 40
1.0
 40
1.0
 40
2.0
 40
2.0
 40
2.0
 40
3.0
 40
3.0
 40
3.0
 40
4.0
 40
4.0
 40
4.0
 40
4.0
 10
121.5829318272432
 20
132.1700762948112
 30
0.0
 10
120.8925346919991
 20
132.1700762948112
 30
0.0
 10
120.3330511851945
 20
132.72973205639
 30
0.0
 10
120.3330511851945
 20
133.420043064247
 30
0.0
 10
120.3330511851945
 20
134.1103540721039
 30
0.0
 10
120.8925346919991
 20
134.6700098336828
 30
0.0
 10
121.5829318272432
 20
134.6700098336828
 30
0.0
 10
122.2733289624872
 20
134.6700098336828
 30
0.0
 10
122.8329847240661
 20
134.1103540721039
 30
0.0
 10
122.8329847240661
 20
133.420043064247
 30
0.0
 10
122.8329847240661
 20
132.72973205639
 30
0.0
 10
122.2733289624872
 20
132.1700762948112
 30
0.0
 10
121.5829318272432
 20
132.1700762948112
 30
0.0
  0
SPLINE
  5
49
330
1F
100
AcDbEntity
  8
Layer 1
370
     0
100
AcDbSpline
210
0.0
220
0.0
230
1.0
 70
    11
 71
     3
 72
    17
 73
    13
 74
     0
 42
0.0000000001
 43
0.0000000001
 12
1.0
 22
0.0
 32
0.0
 13
1.0
 23
0.0
 33
0.0
 40
0.0
 40
0.0
 40
0.0
 40
0.0
 40
1.0
 40
1.0
 40
1.0
 40
2.0
 40
2.0
 40
2.0
 40
3.0
 40
3.0
 40
3.0
 40
4.0
 40
4.0
 40
4.0
 40
4.0
 10
125.5828599403925
 20
123.9570547853627
 30
0.0
 10
125.0306111341069
 20
123.9570547853627
 30
0.0
 10
124.5829209757987
 20
124.4048310710581
 30
0.0
 10
124.5829209757987
 20
124.9570798773436
 30
0.0
 10
124.5829209757987
 20
125.5093286836292
 30
0.0
 10
125.0306111341069
 20
125.9571049693245
 30
0.0
 10
125.5828599403925
 20
125.9571049693245
 30
0.0
 10
126.1352810014523
 20
125.9571049693245
 30
0.0
 10
126.5827989049862
 20
125.5093286836292
 30
0.0
 10
126.5827989049862
 20
124.9570798773436
 30
0.0
 10
126.5827989049862
 20
124.4048310710581
 30
0.0
 10
126.1352810014523
 20
123.9571409127499
 30
0.0
 10
125.5828599403925
 20
123.9570547853627
 30
0.0
  0
SPLINE
  5
4A
330
1F
100
AcDbEntity
  8
Layer 1
370
     0
100
AcDbSpline
210
0.0
220
0.0
230
1.0
 70
    11
 71
     3
 72
    17
 73
    13
 74
     0
 42
0.0000000001
 43
0.0000000001
 12
1.0
 22
0.0
 32
0.0
 13
1.0
 23
0.0
 33
0.0
 40
0.0
 40
0.0
 40
0.0
 40
0.0
 40
1.0
 40
1.0
 40
1.0
 40
2.0
 40
2.0
 40
2.0
 40
3.0
 40
3.0
 40
3.0
 40
4.0
 40
4.0
 40
4.0
 40
4.0
 10
130.0828436632258
 20
130.4570886921579
 30
0.0
 10
130.6352647242856
 20
130.4570886921579
 30
0.0
 10
131.0827826278196
 20
130.0093985338497
 30
0.0
 10
131.0829548825938
 20
129.4571497275641
 30
0.0
 10
131.0829548825938
 20
128.9048147938914
 30
0.0
 10
130.6352647242856
 20
128.4571246355832
 30
0.0
 10
130.0830159180001
 20
128.4571246355832
 30
0.0
 10
129.5305948569403
 20
128.4571246355832
 30
0.0
 10
129.0829046986321
 20
128.9048147938914
 30
0.0
 10
129.0829046986321
 20
129.457063600177
 30
0.0
 10
129.0829046986321
 20
130.0093985338497
 30
0.0
 10
129.5305948569403
 20
130.4570886921579
 30
0.0
 10
130.0828436632258
 20
130.4570886921579
 30
0.0
  0
SPLINE
  5
4B
330
1F
100
AcDbEntity
  8
Layer 1
370
     0
100
AcDbSpline
210
0.0
220
0.0
230
1.0
 70
    11
 71
     3
 72
    17
 73
    13
 74
     0
 42
0.0000000001
 43
0.0000000001
 12
1.0
 22
0.0
 32
0.0
 13
1.0
 23
0.0
 33
0.0
 40
0.0
 40
0.0
 40
0.0
 40
0.0
 40
1.0
 40
1.0
 40
1.0
 40
2.0
 40
2.0
 40
2.0
 40
3.0
 40
3.0
 40
3.0
 40
4.0
 40
4.0
 40
4.0
 40
4.0
 10
130.0830159180001
 20
119.4571571899165
 30
0.0
 10
129.5307671117145
 20
119.4571571899165
 30
0.0
 10
129.0829046986321
 20
119.9048473482247
 30
0.0
 10
129.0829046986321
 20
120.4570961545103
 30
0.0
 10
129.0829046986321
 20
121.0093449607958
 30
0.0
 10
129.5307671117145
 20
121.4571212464912
 30
0.0
 10
130.0830159180001
 20
121.4571212464912
 30
0.0
 10
130.6352647242856
 20
121.4571212464912
 30
0.0
 10
131.0829548825938
 20
121.009431088183
 30
0.0
 10
131.0829548825938
 20
120.4570961545103
 30
0.0
 10
131.0829548825938
 20
119.9048473482247
 30
0.0
 10
130.6352647242856
 20
119.4571571899165
 30
0.0
 10
130.0830159180001
 20
119.4571571899165
 30
0.0
  0
SPLINE
  5
4C
330
1F
100
AcDbEntity
  8
Layer 1
370
     0
100
AcDbSpline
210
0.0
220
0.0
230
1.0
 70
    11
 71
     3
 72
    17
 73
    13
 74
     0
 42
0.0000000001
 43
0.0000000001
 12
1.0
 22
0.0
 32
0.0
 13
1.0
 23
0.0
 33
0.0
 40
0.0
 40
0.0
 40
0.0
 40
0.0
 40
1.0
 40
1.0
 40
1.0
 40
2.0
 40
2.0
 40
2.0
 40
3.0
 40
3.0
 40
3.0
 40
4.0
 40
4.0
 40
4.0
 40
4.0
 10
131.8506944114818
 20
123.1894013838619
 30
0.0
 10
130.874354350962
 20
122.2130613233421
 30
0.0
 10
129.2915052302639
 20
122.2130613233421
 30
0.0
 10
128.3151651697441
 20
123.1893152564748
 30
0.0
 10
127.3388251092243
 20
124.1656553169946
 30
0.0
 10
127.3388251092243
 20
125.7485905650798
 30
0.0
 10
128.3151651697441
 20
126.7248444982125
 30
0.0
 10
129.2913329754897
 20
127.7011845587323
 30
0.0
 10
130.874354350962
 20
127.7011845587323
 30
0.0
 10
131.8506944114818
 20
126.7249306255996
 30
0.0
 10
132.8270344720016
 20
125.7485905650798
 30
0.0
 10
132.8270344720016
 20
124.1656553169946
 30
0.0
 10
131.8506944114818
 20
123.1894013838619
 30
0.0
  0
SPLINE
  5
4D
330
1F
100
AcDbEntity
  8
Layer 1
370
     0
100
AcDbSpline
210
0.0
220
0.0
230
1.0
 70
    11
 71
     3
 72
    17
 73
    13
 74
     0
 42
0.0000000001
 43
0.0000000001
 12
1.0
 22
0.0
 32
0.0
 13
1.0
 23
0.0
 33
0.0
 40
0.0
 40
0.0
 40
0.0
 40
0.0
 40
1.0
 40
1.0
 40
1.0
 40
2.0
 40
2.0
 40
2.0
 40
3.0
 40
3.0
 40
3.0
 40
4.0
 40
4.0
 40
4.0
 40
4.0
 10
134.5829996408334
 20
123.9571409127499
 30
0.0
 10
134.0305785797736
 20
123.9571409127499
 30
0.0
 10
133.5828884214654
 20
124.4048310710581
 30
0.0
 10
133.5828884214654
 20
124.9571660047308
 30
0.0
 10
133.5828884214654
 20
125.5094148110163
 30
0.0
 10
134.0305785797736
 20
125.9571910967117
 30
0.0
 10
134.5829996408334
 20
125.9571910967117
 30
0.0
 10
135.135248447119
 20
125.9571910967117
 30
0.0
 10
135.5829386054272
 20
125.5094148110163
 30
0.0
 10
135.5829386054272
 20
124.9571660047308
 30
0.0
 10
135.5829386054272
 20
124.4048310710581
 30
0.0
 10
135.135248447119
 20
123.9571409127499
 30
0.0
 10
134.5829996408334
 20
123.9571409127499
 30
0.0
  0
SPLINE
  5
4E
330
1F
100
AcDbEntity
  8
Layer 1
370
     0
100
AcDbSpline
210
0.0
220
0.0
230
1.0
 70
    11
 71
     3
 72
    17
 73
    13
 74
     0
 42
0.0000000001
 43
0.0000000001
 12
1.0
 22
0.0
 32
0.0
 13
1.0
 23
0.0
 33
0.0
 40
0.0
 40
0.0
 40
0.0
 40
0.0
 40
1.0
 40
1.0
 40
1.0
 40
2.0
 40
2.0
 40
2.0
 40
3.0
 40
3.0
 40
3.0
 40
4.0
 40
4.0
 40
4.0
 40
4.0
 10
121.5829318272432
 20
32.4432393310819
 30
0.0
 10
120.8925346919991
 20
32.4432393310819
 30
0.0
 10
120.3328789304203
 20
33.00289509266074
 30
0.0
 10
120.3328789304203
 20
33.69320610051767
 30
0.0
 10
120.3328789304203
 20
34.38360323576174
 30
0.0
 10
120.8925346919991
 20
34.94325899734058
 30
0.0
 10
121.5829318272432
 20
34.94325899734058
 30
0.0
 10
122.2733289624872
 20
34.94325899734058
 30
0.0
 10
122.8328124692918
 20
34.38360323576174
 30
0.0
 10
122.8328124692918
 20
33.69320610051767
 30
0.0
 10
122.8328124692918
 20
33.00289509266074
 30
0.0
 10
122.2733289624872
 20
32.4432393310819
 30
0.0
 10
121.5829318272432
 20
32.4432393310819
 30
0.0
  0
SPLINE
  5
4F
330
1F
100
AcDbEntity
  8
Layer 1
370
     0
100
AcDbSpline
210
0.0
220
0.0
230
1.0
 70
    11
 71
     3
 72
    17
 73
    13
 74
     0
 42
0.0000000001
 43
0.0000000001
 12
1.0
 22
0.0
 32
0.0
 13
1.0
 23
0.0
 33
0.0
 40
0.0
 40
0.0
 40
0.0
 40
0.0
 40
1.0
 40
1.0
 40
1.0
 40
2.0
 40
2.0
 40
2.0
 40
3.0
 40
3.0
 40
3.0
 40
4.0
 40
4.0
 40
4.0
 40
4.0
 10
125.5826876856182
 20
41.22556286946791
 30
0.0
 10
125.0304388793327
 20
41.22556286946791
 30
0.0
 10
124.5829209757987
 20
41.67325302777613
 30
0.0
 10
124.5829209757987
 20
42.22558796144882
 30
0.0
 10
124.5829209757987
 20
42.77783676773436
 30
0.0
 10
125.0304388793327
 20
43.22561305342971
 30
0.0
 10
125.5826876856182
 20
43.22561305342971
 30
0.0
 10
126.135108746678
 20
43.22561305342971
 30
0.0
 10
126.5827989049862
 20
42.77792289512149
 30
0.0
 10
126.5827989049862
 20
42.22558796144882
 30
0.0
 10
126.5827989049862
 20
41.67325302777613
 30
0.0
 10
126.135108746678
 20
41.22556286946791
 30
0.0
 10
125.5826876856182
 20
41.22556286946791
 30
0.0
  0
SPLINE
  5
50
330
1F
100
AcDbEntity
  8
Layer 1
370
     0
100
AcDbSpline
210
0.0
220
0.0
230
1.0
 70
    11
 71
     3
 72
    17
 73
    13
 74
     0
 42
0.0000000001
 43
0.0000000001
 12
1.0
 22
0.0
 32
0.0
 13
1.0
 23
0.0
 33
0.0
 40
0.0
 40
0.0
 40
0.0
 40
0.0
 40
1.0
 40
1.0
 40
1.0
 40
2.0
 40
2.0
 40
2.0
 40
3.0
 40
3.0
 40
3.0
 40
4.0
 40
4.0
 40
4.0
 40
4.0
 10
130.0826714084516
 20
47.72559677626305
 30
0.0
 10
130.6350924695114
 20
47.72559677626305
 30
0.0
 10
131.0827826278196
 20
47.27790661795483
 30
0.0
 10
131.0827826278196
 20
46.72565781166928
 30
0.0
 10
131.0827826278196
 20
46.1733228779966
 30
0.0
 10
130.6350924695114
 20
45.72563271968838
 30
0.0
 10
130.0828436632258
 20
45.72563271968838
 30
0.0
 10
129.530422602166
 20
45.72563271968838
 30
0.0
 10
129.0829046986321
 20
46.1733228779966
 30
0.0
 10
129.0829046986321
 20
46.72557168428215
 30
0.0
 10
129.0829046986321
 20
47.27790661795483
 30
0.0
 10
129.530422602166
 20
47.72559677626305
 30
0.0
 10
130.0826714084516
 20
47.72559677626305
 30
0.0
  0
SPLINE
  5
51
330
1F
100
AcDbEntity
  8
Layer 1
370
     0
100
AcDbSpline
210
0.0
220
0.0
230
1.0
 70
    11
 71
     3
 72
    17
 73
    13
 74
     0
 42
0.0000000001
 43
0.0000000001
 12
1.0
 22
0.0
 32
0.0
 13
1.0
 23
0.0
 33
0.0
 40
0.0
 40
0.0
 40
0.0
 40
0.0
 40
1.0
 40
1.0
 40
1.0
 40
2.0
 40
2.0
 40
2.0
 40
3.0
 40
3.0
 40
3.0
 40
4.0
 40
4.0
 40
4.0
 40
4.0
 10
130.0830159180001
 20
36.72557914663458
 30
0.0
 10
129.5305948569403
 20
36.72557914663458
 30
0.0
 10
129.0829046986321
 20
37.17326930494279
 30
0.0
 10
129.0829046986321
 20
37.72560423861547
 30
0.0
 10
129.0829046986321
 20
38.27793917228816
 30
0.0
 10
129.5305948569403
 20
38.72562933059637
 30
0.0
 10
130.0828436632258
 20
38.72562933059637
 30
0.0
 10
130.6352647242856
 20
38.72562933059637
 30
0.0
 10
131.0827826278196
 20
38.27793917228816
 30
0.0
 10
131.0827826278196
 20
37.72560423861547
 30
0.0
 10
131.0827826278196
 20
37.17335543232993
 30
0.0
 10
130.6352647242856
 20
36.72557914663458
 30
0.0
 10
130.0830159180001
 20
36.72557914663458
 30
0.0
  0
SPLINE
  5
52
330
1F
100
AcDbEntity
  8
Layer 1
370
     0
100
AcDbSpline
210
0.0
220
0.0
230
1.0
 70
    11
 71
     3
 72
    17
 73
    13
 74
     0
 42
0.0000000001
 43
0.0000000001
 12
1.0
 22
0.0
 32
0.0
 13
1.0
 23
0.0
 33
0.0
 40
0.0
 40
0.0
 40
0.0
 40
0.0
 40
1.0
 40
1.0
 40
1.0
 40
2.0
 40
2.0
 40
2.0
 40
3.0
 40
3.0
 40
3.0
 40
4.0
 40
4.0
 40
4.0
 40
4.0
 10
131.8506944114818
 20
40.45782334057999
 30
0.0
 10
130.874354350962
 20
39.48156940744732
 30
0.0
 10
129.2913329754897
 20
39.48148328006019
 30
0.0
 10
128.3149929149699
 20
40.45782334057999
 30
0.0
 10
127.3386528544501
 20
41.4341634010998
 30
0.0
 10
127.3386528544501
 20
43.01701252179783
 30
0.0
 10
128.3149929149699
 20
43.99335258231763
 30
0.0
 10
129.2913329754897
 20
44.96969264283744
 30
0.0
 10
130.874354350962
 20
44.96969264283744
 30
0.0
 10
131.8506944114818
 20
43.99335258231763
 30
0.0
 10
132.8268622172273
 20
43.01709864918497
 30
0.0
 10
132.8270344720016
 20
41.4341634010998
 30
0.0
 10
131.8506944114818
 20
40.45782334057999
 30
0.0
  0
SPLINE
  5
53
330
1F
100
AcDbEntity
  8
Layer 1
370
     0
100
AcDbSpline
210
0.0
220
0.0
230
1.0
 70
    11
 71
     3
 72
    17
 73
    13
 74
     0
 42
0.0000000001
 43
0.0000000001
 12
1.0
 22
0.0
 32
0.0
 13
1.0
 23
0.0
 33
0.0
 40
0.0
 40
0.0
 40
0.0
 40
0.0
 40
1.0
 40
1.0
 40
1.0
 40
2.0
 40
2.0
 40
2.0
 40
3.0
 40
3.0
 40
3.0
 40
4.0
 40
4.0
 40
4.0
 40
4.0
 10
134.5828273860592
 20
41.22564899685505
 30
0.0
 10
134.0304063249993
 20
41.22564899685505
 30
0.0
 10
133.5828884214654
 20
41.67333915516326
 30
0.0
 10
133.5828884214654
 20
42.22567408883594
 30
0.0
 10
133.5828884214654
 20
42.77792289512149
 30
0.0
 10
134.0304063249993
 20
43.22561305342971
 30
0.0
 10
134.5828273860592
 20
43.22561305342971
 30
0.0
 10
135.1350761923447
 20
43.22561305342971
 30
0.0
 10
135.5827663506529
 20
42.77792289512149
 30
0.0
 10
135.5827663506529
 20
42.22567408883594
 30
0.0
 10
135.5827663506529
 20
41.67333915516326
 30
0.0
 10
135.1350761923447
 20
41.22564899685505
 30
0.0
 10
134.5828273860592
 20
41.22564899685505
 30
0.0
  0
SPLINE
  5
54
330
1F
100
AcDbEntity
  8
Layer 1
370
     0
100
AcDbSpline
210
0.0
220
0.0
230
1.0
 70
    11
 71
     3
 72
    23
 73
    19
 74
     0
 42
0.0000000001
 43
0.0000000001
 12
1.0
 22
0.0
 32
0.0
 13
1.0
 23
0.0
 33
0.0
 40
0.0
 40
0.0
 40
0.0
 40
0.0
 40
1.0
 40
1.0
 40
1.0
 40
2.0
 40
2.0
 40
2.0
 40
3.0
 40
3.0
 40
3.0
 40
4.0
 40
4.0
 40
4.0
 40
5.0
 40
5.0
 40
5.0
 40
6.0
 40
6.0
 40
6.0
 40
6.0
 10
167.0313204877561
 20
93.8898332149173
 30
0.0
 10
167.0313204877561
 20
93.8898332149173
 30
0.0
 10
175.8567938470948
 20
93.88966096014305
 30
0.0
 10
175.8567938470948
 20
93.88966096014305
 30
0.0
 10
176.7476955395804
 20
93.88966096014305
 30
0.0
 10
177.1940076596946
 20
92.81255185667968
 30
0.0
 10
176.5638996954424
 20
92.18261614720174
 30
0.0
 10
176.5638996954424
 20
92.18261614720174
 30
0.0
 10
172.1519381622572
 20
87.7708268687908
 30
0.0
 10
172.1519381622572
 20
87.7708268687908
 30
0.0
 10
171.7614365890041
 20
87.38032529553773
 30
0.0
 10
171.1284002935894
 20
87.38032529553773
 30
0.0
 10
170.7378987203364
 20
87.77074074140367
 30
0.0
 10
170.7378987203364
 20
87.77074074140367
 30
0.0
 10
166.3243868941828
 20
92.18253001981462
 30
0.0
 10
166.3243868941828
 20
92.18253001981462
 30
0.0
 10
165.6942789299306
 20
92.81246572929254
 30
0.0
 10
166.1404187952704
 20
93.8898332149173
 30
0.0
 10
167.0313204877561
 20
93.8898332149173
 30
0.0
  0
SPLINE
  5
55
330
1F
100
AcDbEntity
  8
Layer 1
370
     0
100
AcDbSpline
210
0.0
220
0.0
230
1.0
 70
    11
 71
     3
 72
    23
 73
    19
 74
     0
 42
0.0000000001
 43
0.0000000001
 12
1.0
 22
0.0
 32
0.0
 13
1.0
 23
0.0
 33
0.0
 40
0.0
 40
0.0
 40
0.0
 40
0.0
 40
1.0
 40
1.0
 40
1.0
 40
2.0
 40
2.0
 40
2.0
 40
3.0
 40
3.0
 40
3.0
 40
4.0
 40
4.0
 40
4.0
 40
5.0
 40
5.0
 40
5.0
 40
6.0
 40
6.0
 40
6.0
 40
6.0
 10
180.0353501611544
 20
88.85424480336152
 30
0.0
 10
180.665113615858
 20
89.48443889500085
 30
0.0
 10
181.7425672288699
 20
89.038299029661
 30
0.0
 10
181.7425672288699
 20
88.14731120978826
 30
0.0
 10
181.7425672288699
 20
88.14731120978826
 30
0.0
 10
181.7423949740956
 20
79.04011516714318
 30
0.0
 10
181.7423949740956
 20
79.04011516714318
 30
0.0
 10
181.7423949740956
 20
78.14921347465759
 30
0.0
 10
180.6652858706323
 20
77.70298748193059
 30
0.0
 10
180.0353501611544
 20
78.33300931879566
 30
0.0
 10
180.0353501611544
 20
78.33300931879566
 30
0.0
 10
175.4826564773967
 20
82.88578912994045
 30
0.0
 10
175.4826564773967
 20
82.88578912994045
 30
0.0
 10
175.0921549041436
 20
83.27629070319352
 30
0.0
 10
175.0921549041436
 20
83.90932699860818
 30
0.0
 10
175.4824842226224
 20
84.29982857186124
 30
0.0
 10
175.4824842226224
 20
84.29982857186124
 30
0.0
 10
180.0353501611544
 20
88.85424480336152
 30
0.0
 10
180.0353501611544
 20
88.85424480336152
 30
0.0
  0
SPLINE
  5
56
330
1F
100
AcDbEntity
  8
Layer 1
370
     0
100
AcDbSpline
210
0.0
220
0.0
230
1.0
 70
    11
 71
     3
 72
    23
 73
    19
 74
     0
 42
0.0000000001
 43
0.0000000001
 12
1.0
 22
0.0
 32
0.0
 13
1.0
 23
0.0
 33
0.0
 40
0.0
 40
0.0
 40
0.0
 40
0.0
 40
1.0
 40
1.0
 40
1.0
 40
2.0
 40
2.0
 40
2.0
 40
3.0
 40
3.0
 40
3.0
 40
4.0
 40
4.0
 40
4.0
 40
5.0
 40
5.0
 40
5.0
 40
6.0
 40
6.0
 40
6.0
 40
6.0
 10
167.2693765857868
 20
82.88518623823053
 30
0.0
 10
167.2693765857868
 20
82.88518623823053
 30
0.0
 10
162.8575873073759
 20
78.47167441207696
 30
0.0
 10
162.8575873073759
 20
78.47167441207696
 30
0.0
 10
162.227651597898
 20
77.84156644782477
 30
0.0
 10
161.1501979848861
 20
78.28770631316462
 30
0.0
 10
161.1501979848861
 20
79.17869413303737
 30
0.0
 10
161.1501979848861
 20
79.17869413303737
 30
0.0
 10
161.1503702396603
 20
88.00416749237613
 30
0.0
 10
161.1503702396603
 20
88.00416749237613
 30
0.0
 10
161.1503702396603
 20
88.89506918486174
 30
0.0
 10
162.2274793431237
 20
89.34129517758872
 30
0.0
 10
162.8574150526016
 20
88.71127334072366
 30
0.0
 10
162.8574150526016
 20
88.71127334072366
 30
0.0
 10
167.2692043310126
 20
84.29922568015132
 30
0.0
 10
167.2692043310126
 20
84.29922568015132
 30
0.0
 10
167.6597059042656
 20
83.90881023428538
 30
0.0
 10
167.6597059042656
 20
83.27577393887073
 30
0.0
 10
167.2693765857868
 20
82.88518623823053
 30
0.0
  0
SPLINE
  5
57
330
1F
100
AcDbEntity
  8
Layer 1
370
     0
100
AcDbSpline
210
0.0
220
0.0
230
1.0
 70
    11
 71
     3
 72
    17
 73
    13
 74
     0
 42
0.0000000001
 43
0.0000000001
 12
1.0
 22
0.0
 32
0.0
 13
1.0
 23
0.0
 33
0.0
 40
0.0
 40
0.0
 40
0.0
 40
0.0
 40
1.0
 40
1.0
 40
1.0
 40
2.0
 40
2.0
 40
2.0
 40
3.0
 40
3.0
 40
3.0
 40
4.0
 40
4.0
 40
4.0
 40
4.0
 10
161.4464761966176
 20
95.09372183223786
 30
0.0
 10
162.2748494060459
 20
95.09372183223786
 30
0.0
 10
162.9464707708953
 20
94.42214353108197
 30
0.0
 10
162.9464707708953
 20
93.59366266241973
 30
0.0
 10
162.9464707708953
 20
92.7653109848382
 30
0.0
 10
162.2748494060459
 20
92.0937326836823
 30
0.0
 10
161.4464761966176
 20
92.0937326836823
 30
0.0
 10
160.617930732415
 20
92.0937326836823
 30
0.0
 10
159.9464816223398
 20
92.7653109848382
 30
0.0
 10
159.9464816223398
 20
93.59366266241973
 30
0.0
 10
159.9464816223398
 20
94.42214353108197
 30
0.0
 10
160.617930732415
 20
95.09372183223786
 30
0.0
 10
161.4464761966176
 20
95.09372183223786
 30
0.0
  0
SPLINE
  5
58
330
1F
100
AcDbEntity
  8
Layer 1
370
     0
100
AcDbSpline
210
0.0
220
0.0
230
1.0
 70
    11
 71
     3
 72
    17
 73
    13
 74
     0
 42
0.0000000001
 43
0.0000000001
 12
1.0
 22
0.0
 32
0.0
 13
1.0
 23
0.0
 33
0.0
 40
0.0
 40
0.0
 40
0.0
 40
0.0
 40
1.0
 40
1.0
 40
1.0
 40
2.0
 40
2.0
 40
2.0
 40
3.0
 40
3.0
 40
3.0
 40
4.0
 40
4.0
 40
4.0
 40
4.0
 10
161.4464761966176
 20
72.09374760838716
 30
0.0
 10
160.617930732415
 20
72.09374760838716
 30
0.0
 10
159.9464816223398
 20
72.76532590954305
 30
0.0
 10
159.9464816223398
 20
73.59367758712459
 30
0.0
 10
159.9464816223398
 20
74.42215845578683
 30
0.0
 10
160.617930732415
 20
75.09373675694272
 30
0.0
 10
161.4464761966176
 20
75.09373675694272
 30
0.0
 10
162.2748494060459
 20
75.09373675694272
 30
0.0
 10
162.9464707708953
 20
74.42215845578683
 30
0.0
 10
162.9464707708953
 20
73.59367758712459
 30
0.0
 10
162.9464707708953
 20
72.76532590954305
 30
0.0
 10
162.2748494060459
 20
72.09374760838716
 30
0.0
 10
161.4464761966176
 20
72.09374760838716
 30
0.0
  0
SPLINE
  5
59
330
1F
100
AcDbEntity
  8
Layer 1
370
     0
100
AcDbSpline
210
0.0
220
0.0
230
1.0
 70
    11
 71
     3
 72
    23
 73
    19
 74
     0
 42
0.0000000001
 43
0.0000000001
 12
1.0
 22
0.0
 32
0.0
 13
1.0
 23
0.0
 33
0.0
 40
0.0
 40
0.0
 40
0.0
 40
0.0
 40
1.0
 40
1.0
 40
1.0
 40
2.0
 40
2.0
 40
2.0
 40
3.0
 40
3.0
 40
3.0
 40
4.0
 40
4.0
 40
4.0
 40
5.0
 40
5.0
 40
5.0
 40
6.0
 40
6.0
 40
6.0
 40
6.0
 10
175.999937564507
 20
73.29755009832058
 30
0.0
 10
175.999937564507
 20
73.29755009832058
 30
0.0
 10
166.892827649249
 20
73.2976362257077
 30
0.0
 10
166.892827649249
 20
73.2976362257077
 30
0.0
 10
166.0019259567634
 20
73.2976362257077
 30
0.0
 10
165.5556138366493
 20
74.37474532917108
 30
0.0
 10
166.1857218009015
 20
75.00476716603613
 30
0.0
 10
166.1857218009015
 20
75.00476716603613
 30
0.0
 10
170.7384154846592
 20
79.55737472240666
 30
0.0
 10
170.7384154846592
 20
79.55737472240666
 30
0.0
 10
171.1289170579122
 20
79.94787629565974
 30
0.0
 10
171.7619533533269
 20
79.94787629565974
 30
0.0
 10
172.15245492658
 20
79.55754697718093
 30
0.0
 10
172.15245492658
 20
79.55754697718093
 30
0.0
 10
176.7068711580802
 20
75.00476716603613
 30
0.0
 10
176.7068711580802
 20
75.00476716603613
 30
0.0
 10
177.3371513771067
 20
74.37491758394533
 30
0.0
 10
176.8910115117668
 20
73.29755009832058
 30
0.0
 10
175.999937564507
 20
73.29755009832058
 30
0.0
  0
SPLINE
  5
5A
330
1F
100
AcDbEntity
  8
Layer 1
370
     0
100
AcDbSpline
210
0.0
220
0.0
230
1.0
 70
    11
 71
     3
 72
    17
 73
    13
 74
     0
 42
0.0000000001
 43
0.0000000001
 12
1.0
 22
0.0
 32
0.0
 13
1.0
 23
0.0
 33
0.0
 40
0.0
 40
0.0
 40
0.0
 40
0.0
 40
1.0
 40
1.0
 40
1.0
 40
2.0
 40
2.0
 40
2.0
 40
3.0
 40
3.0
 40
3.0
 40
4.0
 40
4.0
 40
4.0
 40
4.0
 10
181.4464612719127
 20
72.09374760838716
 30
0.0
 10
180.6179158077101
 20
72.09374760838716
 30
0.0
 10
179.9462944428606
 20
72.76532590954305
 30
0.0
 10
179.9462944428606
 20
73.59367758712459
 30
0.0
 10
179.9462944428606
 20
74.42215845578683
 30
0.0
 10
180.6179158077101
 20
75.09373675694272
 30
0.0
 10
181.4464612719127
 20
75.09373675694272
 30
0.0
 10
182.274834481341
 20
75.09373675694272
 30
0.0
 10
182.9464558461905
 20
74.42215845578683
 30
0.0
 10
182.9464558461905
 20
73.59367758712459
 30
0.0
 10
182.9464558461905
 20
72.76532590954305
 30
0.0
 10
182.274834481341
 20
72.09374760838716
 30
0.0
 10
181.4464612719127
 20
72.09374760838716
 30
0.0
  0
SPLINE
  5
5B
330
1F
100
AcDbEntity
  8
Layer 1
370
     0
100
AcDbSpline
210
0.0
220
0.0
230
1.0
 70
    11
 71
     3
 72
    17
 73
    13
 74
     0
 42
0.0000000001
 43
0.0000000001
 12
1.0
 22
0.0
 32
0.0
 13
1.0
 23
0.0
 33
0.0
 40
0.0
 40
0.0
 40
0.0
 40
0.0
 40
1.0
 40
1.0
 40
1.0
 40
2.0
 40
2.0
 40
2.0
 40
3.0
 40
3.0
 40
3.0
 40
4.0
 40
4.0
 40
4.0
 40
4.0
 10
181.4464612719127
 20
92.0937326836823
 30
0.0
 10
180.6179158077101
 20
92.0937326836823
 30
0.0
 10
179.9462944428606
 20
92.7653109848382
 30
0.0
 10
179.9462944428606
 20
93.59366266241973
 30
0.0
 10
179.9462944428606
 20
94.42214353108197
 30
0.0
 10
180.6179158077101
 20
95.09372183223786
 30
0.0
 10
181.4464612719127
 20
95.09372183223786
 30
0.0
 10
182.274834481341
 20
95.09372183223786
 30
0.0
 10
182.9464558461905
 20
94.42214353108197
 30
0.0
 10
182.9464558461905
 20
93.59366266241973
 30
0.0
 10
182.9464558461905
 20
92.7653109848382
 30
0.0
 10
182.274834481341
 20
92.0937326836823
 30
0.0
 10
181.4464612719127
 20
92.0937326836823
 30
0.0
  0
SPLINE
  5
5C
330
1F
100
AcDbEntity
  8
Layer 1
370
     0
100
AcDbSpline
210
0.0
220
0.0
230
1.0
 70
    11
 71
     3
 72
    17
 73
    13
 74
     0
 42
0.0000000001
 43
0.0000000001
 12
1.0
 22
0.0
 32
0.0
 13
1.0
 23
0.0
 33
0.0
 40
0.0
 40
0.0
 40
0.0
 40
0.0
 40
1.0
 40
1.0
 40
1.0
 40
2.0
 40
2.0
 40
2.0
 40
3.0
 40
3.0
 40
3.0
 40
4.0
 40
4.0
 40
4.0
 40
4.0
 10
208.3144164518277
 20
41.22556286946791
 30
0.0
 10
207.7619953907679
 20
41.22556286946791
 30
0.0
 10
207.3143052324596
 20
41.67325302777613
 30
0.0
 10
207.3143052324596
 20
42.22558796144882
 30
0.0
 10
207.3143052324596
 20
42.77783676773436
 30
0.0
 10
207.7619953907679
 20
43.22561305342971
 30
0.0
 10
208.3144164518277
 20
43.22561305342971
 30
0.0
 10
208.8666652581132
 20
43.22561305342971
 30
0.0
 10
209.3143554164214
 20
42.77792289512149
 30
0.0
 10
209.3143554164214
 20
42.22558796144882
 30
0.0
 10
209.3143554164214
 20
41.67325302777613
 30
0.0
 10
208.8666652581132
 20
41.22556286946791
 30
0.0
 10
208.3144164518277
 20
41.22556286946791
 30
0.0
  0
SPLINE
  5
5D
330
1F
100
AcDbEntity
  8
Layer 1
370
     0
100
AcDbSpline
210
0.0
220
0.0
230
1.0
 70
    11
 71
     3
 72
    17
 73
    13
 74
     0
 42
0.0000000001
 43
0.0000000001
 12
1.0
 22
0.0
 32
0.0
 13
1.0
 23
0.0
 33
0.0
 40
0.0
 40
0.0
 40
0.0
 40
0.0
 40
1.0
 40
1.0
 40
1.0
 40
2.0
 40
2.0
 40
2.0
 40
3.0
 40
3.0
 40
3.0
 40
4.0
 40
4.0
 40
4.0
 40
4.0
 10
212.814400174661
 20
47.72559677626305
 30
0.0
 10
213.3666489809465
 20
47.72559677626305
 30
0.0
 10
213.8143391392548
 20
47.27790661795483
 30
0.0
 10
213.8143391392548
 20
46.72565781166928
 30
0.0
 10
213.8143391392548
 20
46.1733228779966
 30
0.0
 10
213.3666489809465
 20
45.72563271968838
 30
0.0
 10
212.814400174661
 20
45.72563271968838
 30
0.0
 10
212.2621513683754
 20
45.72563271968838
 30
0.0
 10
211.814288955293
 20
46.1733228779966
 30
0.0
 10
211.814288955293
 20
46.72557168428215
 30
0.0
 10
211.814288955293
 20
47.27790661795483
 30
0.0
 10
212.2619791136012
 20
47.72559677626305
 30
0.0
 10
212.814400174661
 20
47.72559677626305
 30
0.0
  0
SPLINE
  5
5E
330
1F
100
AcDbEntity
  8
Layer 1
370
     0
100
AcDbSpline
210
0.0
220
0.0
230
1.0
 70
    11
 71
     3
 72
    17
 73
    13
 74
     0
 42
0.0000000001
 43
0.0000000001
 12
1.0
 22
0.0
 32
0.0
 13
1.0
 23
0.0
 33
0.0
 40
0.0
 40
0.0
 40
0.0
 40
0.0
 40
1.0
 40
1.0
 40
1.0
 40
2.0
 40
2.0
 40
2.0
 40
3.0
 40
3.0
 40
3.0
 40
4.0
 40
4.0
 40
4.0
 40
4.0
 10
212.814400174661
 20
36.72557914663458
 30
0.0
 10
212.2621513683754
 20
36.72557914663458
 30
0.0
 10
211.8144612100672
 20
37.17326930494279
 30
0.0
 10
211.8144612100672
 20
37.72560423861547
 30
0.0
 10
211.8144612100672
 20
38.27793917228816
 30
0.0
 10
212.2621513683754
 20
38.72562933059637
 30
0.0
 10
212.814400174661
 20
38.72562933059637
 30
0.0
 10
213.3666489809465
 20
38.72562933059637
 30
0.0
 10
213.8143391392548
 20
38.27793917228816
 30
0.0
 10
213.8143391392548
 20
37.72560423861547
 30
0.0
 10
213.8143391392548
 20
37.17335543232993
 30
0.0
 10
213.3666489809465
 20
36.72557914663458
 30
0.0
 10
212.814400174661
 20
36.72557914663458
 30
0.0
  0
SPLINE
  5
5F
330
1F
100
AcDbEntity
  8
Layer 1
370
     0
100
AcDbSpline
210
0.0
220
0.0
230
1.0
 70
    11
 71
     3
 72
    17
 73
    13
 74
     0
 42
0.0000000001
 43
0.0000000001
 12
1.0
 22
0.0
 32
0.0
 13
1.0
 23
0.0
 33
0.0
 40
0.0
 40
0.0
 40
0.0
 40
0.0
 40
1.0
 40
1.0
 40
1.0
 40
2.0
 40
2.0
 40
2.0
 40
3.0
 40
3.0
 40
3.0
 40
4.0
 40
4.0
 40
4.0
 40
4.0
 10
214.5820786681427
 20
40.45782334057999
 30
0.0
 10
213.6059108623971
 20
39.48156940744732
 30
0.0
 10
212.0228894869248
 20
39.48148328006019
 30
0.0
 10
211.0465494264051
 20
40.45782334057999
 30
0.0
 10
210.0702093658852
 20
41.4341634010998
 30
0.0
 10
210.0702093658852
 20
43.01701252179783
 30
0.0
 10
211.0465494264051
 20
43.99335258231763
 30
0.0
 10
212.0228894869248
 20
44.96969264283744
 30
0.0
 10
213.6057386076229
 20
44.96969264283744
 30
0.0
 10
214.5820786681427
 20
43.99335258231763
 30
0.0
 10
215.5584187286625
 20
43.01709864918497
 30
0.0
 10
215.5584187286625
 20
41.4341634010998
 30
0.0
 10
214.5820786681427
 20
40.45782334057999
 30
0.0
  0
SPLINE
  5
60
330
1F
100
AcDbEntity
  8
Layer 1
370
     0
100
AcDbSpline
210
0.0
220
0.0
230
1.0
 70
    11
 71
     3
 72
    17
 73
    13
 74
     0
 42
0.0000000001
 43
0.0000000001
 12
1.0
 22
0.0
 32
0.0
 13
1.0
 23
0.0
 33
0.0
 40
0.0
 40
0.0
 40
0.0
 40
0.0
 40
1.0
 40
1.0
 40
1.0
 40
2.0
 40
2.0
 40
2.0
 40
3.0
 40
3.0
 40
3.0
 40
4.0
 40
4.0
 40
4.0
 40
4.0
 10
217.3143838974943
 20
41.22564899685505
 30
0.0
 10
216.7621350912088
 20
41.22564899685505
 30
0.0
 10
216.3144449329006
 20
41.67333915516326
 30
0.0
 10
216.3142726781263
 20
42.22567408883594
 30
0.0
 10
216.3142726781263
 20
42.77792289512149
 30
0.0
 10
216.7621350912088
 20
43.22561305342971
 30
0.0
 10
217.3143838974943
 20
43.22561305342971
 30
0.0
 10
217.8666327037799
 20
43.22561305342971
 30
0.0
 10
218.3143228620881
 20
42.77792289512149
 30
0.0
 10
218.3143228620881
 20
42.22567408883594
 30
0.0
 10
218.3143228620881
 20
41.67333915516326
 30
0.0
 10
217.8666327037799
 20
41.22564899685505
 30
0.0
 10
217.3143838974943
 20
41.22564899685505
 30
0.0
  0
SPLINE
  5
61
330
1F
100
AcDbEntity
  8
Layer 1
370
     0
100
AcDbSpline
210
0.0
220
0.0
230
1.0
 70
    11
 71
     3
 72
    17
 73
    13
 74
     0
 42
0.0000000001
 43
0.0000000001
 12
1.0
 22
0.0
 32
0.0
 13
1.0
 23
0.0
 33
0.0
 40
0.0
 40
0.0
 40
0.0
 40
0.0
 40
1.0
 40
1.0
 40
1.0
 40
2.0
 40
2.0
 40
2.0
 40
3.0
 40
3.0
 40
3.0
 40
4.0
 40
4.0
 40
4.0
 40
4.0
 10
221.3100056412871
 20
32.43876070695107
 30
0.0
 10
220.619608506043
 20
32.43876070695107
 30
0.0
 10
220.0599527444642
 20
32.99841646852991
 30
0.0
 10
220.0599527444642
 20
33.68872747638684
 30
0.0
 10
220.0599527444642
 20
34.37912461163091
 30
0.0
 10
220.619608506043
 20
34.93878037320975
 30
0.0
 10
221.3100056412871
 20
34.93878037320975
 30
0.0
 10
222.0002305217569
 20
34.93878037320975
 30
0.0
 10
222.5598862833357
 20
34.37912461163091
 30
0.0
 10
222.5598862833357
 20
33.68872747638684
 30
0.0
 10
222.5598862833357
 20
32.99841646852991
 30
0.0
 10
222.0002305217569
 20
32.43876070695107
 30
0.0
 10
221.3100056412871
 20
32.43876070695107
 30
0.0
  0
HATCH
  5
62
330
1F
100
AcDbEntity
  8
Layer 1
 62
     7
420
 16777215
100
AcDbHatch
 10
0.0
 20
0.0
 30
0.0
210
0.0
220
0.0
230
1.0
  2
SOLID
 70
     1
 71
     0
 91
       33
 92
        1
 93
        1
 72
     4
 94
        3
 73
     0
 74
     1
 95
      473
 96
      469
 40
0.0
 40
0.0
 40
0.0
 40
0.0
 40
1.0
 40
1.0
 40
1.0
 40
2.0
 40
2.0
 40
2.0
 40
3.0
 40
3.0
 40
3.0
 40
4.0
 40
4.0
 40
4.0
 40
5.0
 40
5.0
 40
5.0
 40
6.0
 40
6.0
 40
6.0
 40
7.0
 40
7.0
 40
7.0
 40
8.0
 40
8.0
 40
8.0
 40
9.0
 40
9.0
 40
9.0
 40
10.0
 40
10.0
 40
10.0
 40
11.0
 40
11.0
 40
11.0
 40
12.0
 40
12.0
 40
12.0
 40
13.0
 40
13.0
 40
13.0
 40
14.0
 40
14.0
 40
14.0
 40
15.0
 40
15.0
 40
15.0
 40
16.0
 40
16.0
 40
16.0
 40
17.0
 40
17.0
 40
17.0
 40
18.0
 40
18.0
 40
18.0
 40
19.0
 40
19.0
 40
19.0
 40
20.0
 40
20.0
 40
20.0
 40
21.0
 40
21.0
 40
21.0
 40
22.0
 40
22.0
 40
22.0
 40
23.0
 40
23.0
 40
23.0
 40
24.0
 40
24.0
 40
24.0
 40
25.0
 40
25.0
 40
25.0
 40
26.0
 40
26.0
 40
26.0
 40
27.0
 40
27.0
 40
27.0
 40
28.0
 40
28.0
 40
28.0
 40
29.0
 40
29.0
 40
29.0
 40
30.0
 40
30.0
 40
30.0
 40
31.0
 40
31.0
 40
31.0
 40
32.0
 40
32.0
 40
32.0
 40
33.0
 40
33.0
 40
33.0
 40
34.0
 40
34.0
 40
34.0
 40
35.0
 40
35.0
 40
35.0
 40
36.0
 40
36.0
 40
36.0
 40
37.0
 40
37.0
 40
37.0
 40
38.0
 40
38.0
 40
38.0
 40
39.0
 40
39.0
 40
39.0
 40
40.0
 40
40.0
 40
40.0
 40
41.0
 40
41.0
 40
41.0
 40
42.0
 40
42.0
 40
42.0
 40
43.0
 40
43.0
 40
43.0
 40
44.0
 40
44.0
 40
44.0
 40
45.0
 40
45.0
 40
45.0
 40
46.0
 40
46.0
 40
46.0
 40
47.0
 40
47.0
 40
47.0
 40
48.0
 40
48.0
 40
48.0
 40
49.0
 40
49.0
 40
49.0
 40
50.0
 40
50.0
 40
50.0
 40
51.0
 40
51.0
 40
51.0
 40
52.0
 40
52.0
 40
52.0
 40
53.0
 40
53.0
 40
53.0
 40
54.0
 40
54.0
 40
54.0
 40
55.0
 40
55.0
 40
55.0
 40
56.0
 40
56.0
 40
56.0
 40
57.0
 40
57.0
 40
57.0
 40
58.0
 40
58.0
 40
58.0
 40
59.0
 40
59.0
 40
59.0
 40
60.0
 40
60.0
 40
60.0
 40
61.0
 40
61.0
 40
61.0
 40
62.0
 40
62.0
 40
62.0
 40
63.0
 40
63.0
 40
63.0
 40
64.0
 40
64.0
 40
64.0
 40
65.0
 40
65.0
 40
65.0
 40
66.0
 40
66.0
 40
66.0
 40
67.0
 40
67.0
 40
67.0
 40
68.0
 40
68.0
 40
68.0
 40
69.0
 40
69.0
 40
69.0
 40
70.0
 40
70.0
 40
70.0
 40
71.0
 40
71.0
 40
71.0
 40
72.0
 40
72.0
 40
72.0
 40
73.0
 40
73.0
 40
73.0
 40
74.0
 40
74.0
 40
74.0
 40
75.0
 40
75.0
 40
75.0
 40
76.0
 40
76.0
 40
76.0
 40
77.0
 40
77.0
 40
77.0
 40
78.0
 40
78.0
 40
78.0
 40
79.0
 40
79.0
 40
79.0
 40
80.0
 40
80.0
 40
80.0
 40
81.0
 40
81.0
 40
81.0
 40
82.0
 40
82.0
 40
82.0
 40
83.0
 40
83.0
 40
83.0
 40
84.0
 40
84.0
 40
84.0
 40
85.0
 40
85.0
 40
85.0
 40
86.0
 40
86.0
 40
86.0
 40
87.0
 40
87.0
 40
87.0
 40
88.0
 40
88.0
 40
88.0
 40
89.0
 40
89.0
 40
89.0
 40
90.0
 40
90.0
 40
90.0
 40
91.0
 40
91.0
 40
91.0
 40
92.0
 40
92.0
 40
92.0
 40
93.0
 40
93.0
 40
93.0
 40
94.0
 40
94.0
 40
94.0
 40
95.0
 40
95.0
 40
95.0
 40
96.0
 40
96.0
 40
96.0
 40
97.0
 40
97.0
 40
97.0
 40
98.0
 40
98.0
 40
98.0
 40
99.0
 40
99.0
 40
99.0
 40
100.0
 40
100.0
 40
100.0
 40
101.0
 40
101.0
 40
101.0
 40
102.0
 40
102.0
 40
102.0
 40
103.0
 40
103.0
 40
103.0
 40
104.0
 40
104.0
 40
104.0
 40
105.0
 40
105.0
 40
105.0
 40
106.0
 40
106.0
 40
106.0
 40
107.0
 40
107.0
 40
107.0
 40
108.0
 40
108.0
 40
108.0
 40
109.0
 40
109.0
 40
109.0
 40
110.0
 40
110.0
 40
110.0
 40
111.0
 40
111.0
 40
111.0
 40
112.0
 40
112.0
 40
112.0
 40
113.0
 40
113.0
 40
113.0
 40
114.0
 40
114.0
 40
114.0
 40
115.0
 40
115.0
 40
115.0
 40
116.0
 40
116.0
 40
116.0
 40
117.0
 40
117.0
 40
117.0
 40
118.0
 40
118.0
 40
118.0
 40
119.0
 40
119.0
 40
119.0
 40
120.0
 40
120.0
 40
120.0
 40
121.0
 40
121.0
 40
121.0
 40
122.0
 40
122.0
 40
122.0
 40
123.0
 40
123.0
 40
123.0
 40
124.0
 40
124.0
 40
124.0
 40
125.0
 40
125.0
 40
125.0
 40
126.0
 40
126.0
 40
126.0
 40
127.0
 40
127.0
 40
127.0
 40
128.0
 40
128.0
 40
128.0
 40
129.0
 40
129.0
 40
129.0
 40
130.0
 40
130.0
 40
130.0
 40
131.0
 40
131.0
 40
131.0
 40
132.0
 40
132.0
 40
132.0
 40
133.0
 40
133.0
 40
133.0
 40
134.0
 40
134.0
 40
134.0
 40
135.0
 40
135.0
 40
135.0
 40
136.0
 40
136.0
 40
136.0
 40
137.0
 40
137.0
 40
137.0
 40
138.0
 40
138.0
 40
138.0
 40
139.0
 40
139.0
 40
139.0
 40
140.0
 40
140.0
 40
140.0
 40
141.0
 40
141.0
 40
141.0
 40
142.0
 40
142.0
 40
142.0
 40
143.0
 40
143.0
 40
143.0
 40
144.0
 40
144.0
 40
144.0
 40
145.0
 40
145.0
 40
145.0
 40
146.0
 40
146.0
 40
146.0
 40
147.0
 40
147.0
 40
147.0
 40
148.0
 40
148.0
 40
148.0
 40
149.0
 40
149.0
 40
149.0
 40
150.0
 40
150.0
 40
150.0
 40
151.0
 40
151.0
 40
151.0
 40
152.0
 40
152.0
 40
152.0
 40
153.0
 40
153.0
 40
153.0
 40
154.0
 40
154.0
 40
154.0
 40
155.0
 40
155.0
 40
155.0
 40
156.0
 40
156.0
 40
156.0
 40
156.0
 10
224.4919604270042
 20
35.10296070492869
 10
224.4919604270042
 20
35.10296070492869
 10
221.4553886707646
 20
38.13961858855537
 10
221.4553886707646
 20
38.13961858855537
 10
220.5251698260536
 20
39.06988049695996
 10
220.0293129264923
 20
40.39118227478719
 10
220.2654311583126
 20
41.68537545751486
 10
220.2965231450669
 20
41.85571389741368
 10
220.3133395174043
 20
42.03098313022576
 10
220.3142007912756
 20
42.20999890437806
 10
220.3216077465689
 20
43.66374307176635
 10
219.2046862584041
 20
44.88505095313421
 10
217.8120064084919
 20
45.16518027977858
 10
217.3689886609355
 20
45.25430059361264
 10
216.9619290975065
 20
45.47114782256234
 10
216.6424610867899
 20
45.79072349251283
 10
216.6424610867899
 20
45.79072349251283
 10
216.4178623929984
 20
46.01538678184468
 10
216.4178623929984
 20
46.01538678184468
 10
216.0598954402342
 20
46.37346139384284
 10
215.8431343386716
 20
46.78045636173154
 10
215.7540140248375
 20
47.22343104559432
 10
215.4738416344996
 20
48.6163262139744
 10
214.2522753709704
 20
49.73322617029239
 10
212.7983804806546
 20
49.72547470545058
 10
212.7983804806546
 20
49.72547470545058
 10
212.7926960731039
 20
49.72541010991023
 10
212.7926960731039
 20
49.72541010991023
 10
211.6401824422072
 20
49.71311542539724
 10
210.5312708010456
 20
50.16552105815089
 10
209.7162688684694
 20
50.9805229907271
 10
209.7162688684694
 20
50.9805229907271
 10
188.0313091231853
 20
72.66543967231759
 10
188.0313091231853
 20
72.66543967231759
 10
186.4360361268936
 20
74.2607126686093
 10
185.4726582381371
 20
76.40851438519475
 10
185.4631842255526
 20
78.66453516371061
 10
185.4631196300123
 20
78.67980124307962
 10
185.4630980981655
 20
78.69508885429542
 10
185.4630980981655
 20
78.71037646551122
 10
185.4630980981655
 20
78.71037646551122
 10
185.4630980981655
 20
80.49381627083793
 10
185.4630980981655
 20
80.49381627083793
 10
185.4630980981655
 20
81.04606507712347
 10
185.9107882564737
 20
81.49375523543169
 10
186.4630370627592
 20
81.49375523543169
 10
186.4630370627592
 20
81.49375523543169
 10
186.9630926724433
 20
81.49375523543169
 10
186.9630926724433
 20
81.49375523543169
 10
187.5153414787288
 20
81.49375523543169
 10
187.963031637037
 20
81.04606507712347
 10
187.963031637037
 20
80.49381627083793
 10
187.963031637037
 20
80.49381627083793
 10
187.963031637037
 20
80.16429288767378
 10
187.963031637037
 20
80.16429288767378
 10
187.963031637037
 20
79.61200101769467
 10
188.4107648590388
 20
79.16426779569288
 10
188.9630567290179
 20
79.16426779569288
 10
188.9630567290179
 20
79.16426779569288
 10
189.4630262113148
 20
79.16426779569288
 10
189.4630262113148
 20
79.16426779569288
 10
190.0152750176003
 20
79.16426779569288
 10
190.4629651759086
 20
79.6119579540011
 10
190.4629651759086
 20
80.16420676028665
 10
190.4629651759086
 20
80.16420676028665
 10
190.4629651759086
 20
81.49375523543169
 10
190.4629651759086
 20
81.49375523543169
 10
190.4629651759086
 20
81.49375523543169
 10
190.4629651759086
 20
85.72588278428685
 10
190.4629651759086
 20
85.72588278428685
 10
190.4629651759086
 20
85.72588278428685
 10
190.4629651759086
 20
87.05284743781796
 10
190.4629651759086
 20
87.05284743781796
 10
190.4629651759086
 20
87.6050962441035
 10
190.0152750176003
 20
88.05278640241173
 10
189.4630262113148
 20
88.05278640241173
 10
189.4630262113148
 20
88.05278640241173
 10
188.9629706016308
 20
88.05278640241173
 10
188.9629706016308
 20
88.05278640241173
 10
188.4107217953452
 20
88.05278640241173
 10
187.963031637037
 20
87.6050962441035
 10
187.963031637037
 20
87.05284743781796
 10
187.963031637037
 20
87.05284743781796
 10
187.963031637037
 20
86.72582174888062
 10
187.963031637037
 20
86.72582174888062
 10
187.963031637037
 20
86.17357294259507
 10
187.5153414787288
 20
85.72588278428685
 10
186.9630926724433
 20
85.72588278428685
 10
186.9630926724433
 20
85.72588278428685
 10
186.4632093175335
 20
85.72588278428685
 10
186.4632093175335
 20
85.72588278428685
 10
185.910852852014
 20
85.72588278428685
 10
185.4630980981655
 20
86.17363753813541
 10
185.4630980981655
 20
86.72599400365488
 10
185.4630980981655
 20
86.72599400365488
 10
185.4630980981655
 20
88.45861865057415
 10
185.4630980981655
 20
88.45861865057415
 10
185.4630980981655
 20
88.47900930947748
 10
185.4631626937058
 20
88.49937843653402
 10
185.4632703529398
 20
88.51976909543734
 10
185.4759095470013
 20
90.77531617332397
 10
186.4366820822971
 20
92.92255806189306
 10
188.0316105690403
 20
94.51750808048304
 10
188.0316105690403
 20
94.51750808048304
 10
209.7180775435991
 20
116.2041257779694
 10
209.7180775435991
 20
116.2041257779694
 10
210.5273520049311
 20
117.0134002393013
 10
211.6271341430568
 20
117.4647292797159
 10
212.7715948632568
 20
117.4572361970354
 10
212.7715948632568
 20
117.4572361970354
 10
212.7780544172916
 20
117.4571931333419
 10
212.7780544172916
 20
117.4571931333419
 10
214.2235303555153
 20
117.457279260729
 10
215.4375820045173
 20
118.5730380291675
 10
215.7173668216132
 20
119.9588276881093
 10
215.8067885813022
 20
120.4016947127381
 10
216.0231190459291
 20
120.8088188717075
 10
216.3426947158796
 20
121.128200755037
 10
216.3426947158796
 20
121.128200755037
 10
216.6071057943725
 20
121.3924395787556
 10
216.6071057943725
 20
121.3924395787556
 10
216.9269398464844
 20
121.7120583123997
 10
217.3343869831556
 20
121.9284103088734
 10
217.7775769854862
 20
122.0180258551834
 10
219.1631297941133
 20
122.2981982455214
 10
220.2780272886805
 20
123.5123790856041
 10
220.2778550339062
 20
124.9577688964407
 10
220.277682779132
 20
125.1350621228504
 10
220.2621583176016
 20
125.3088025945409
 10
220.2323151779606
 20
125.4776553370117
 10
220.0038407517482
 20
126.7702120993838
 10
220.5038748295854
 20
128.0861309155154
 10
221.431854362231
 20
129.0144334258627
 10
221.431854362231
 20
129.0144334258627
 10
224.4597918479107
 20
132.0434044401879
 10
224.4597918479107
 20
132.0434044401879
 10
225.2407088670297
 20
132.8246013733151
 10
225.2405150804086
 20
134.0909538781526
 10
224.4593396791282
 20
134.8718924291184
 10
224.4593396791282
 20
134.8718924291184
 10
222.6914889308723
 20
136.6392264130516
 10
222.6914889308723
 20
136.6392264130516
 10
221.9102489340515
 20
137.4202295595577
 10
220.6438103018269
 20
137.4200142410899
 10
219.8628286871675
 20
136.6387311805756
 10
219.8628286871675
 20
136.6387311805756
 10
216.8374750231018
 20
133.61217173309
 10
216.8374750231018
 20
133.61217173309
 10
215.9090002579802
 20
132.6833309265731
 10
214.592457018292
 20
132.183382976123
 10
213.2990820457421
 20
132.4115344246337
 10
213.1302293032713
 20
132.4413129687343
 10
212.9567902774357
 20
132.4569666213454
 10
212.77960471026
 20
132.4570527487325
 10
211.3335258803264
 20
132.4578278952167
 10
210.1188928714612
 20
131.3426504866413
 10
209.8388066085104
 20
129.9566455092318
 10
209.7492771895874
 20
129.5134770387479
 10
209.5328821294202
 20
129.1060514339236
 10
209.2132418639293
 20
128.7863035091988
 10
209.2132418639293
 20
128.7863035091988
 10
208.9490030402107
 20
128.521978558093
 10
208.9490030402107
 20
128.521978558093
 10
208.6293843065666
 20
128.2022521652151
 10
208.2220017654358
 20
127.9857925095075
 10
207.7788763586456
 20
127.8962846224313
 10
206.3923115532196
 20
127.6162414231741
 10
205.2767035077086
 20
126.4010270544458
 10
205.2780815459027
 20
124.9544960557297
 10
205.2781030777495
 20
124.9433425590962
 10
205.2785337146852
 20
124.9280764797272
 10
205.2793519248629
 20
124.9091284545583
 10
205.3282076852131
 20
123.7735388552328
 10
204.8739933773297
 20
122.6737351852604
 10
204.0702741324677
 20
121.8700159403984
 10
204.0702741324677
 20
121.8700159403984
 10
182.3910633902746
 20
100.1906114115843
 10
182.3910633902746
 20
100.1906114115843
 10
180.7963286901525
 20
98.59587671146214
 10
178.6494528429787
 20
97.63708510607033
 10
176.394207210947
 20
97.62203434516915
 10
176.3699408196228
 20
97.62188362224167
 10
176.3456528964518
 20
97.62179749485453
 10
176.3213649732808
 20
97.62179749485453
 10
176.3213649732808
 20
97.62179749485453
 10
166.5529689796291
 20
97.62179749485453
 10
166.5529689796291
 20
97.62179749485453
 10
166.5372291996309
 20
97.62179749485453
 10
166.5215109514794
 20
97.6218405585481
 10
166.5057711714812
 20
97.62190515408845
 10
164.2497934566589
 20
97.63165908068106
 10
162.1020563356138
 20
98.59480011912301
 10
160.5068264030157
 20
100.1900515835679
 10
160.5068264030157
 20
100.1900515835679
 10
138.8342259377849
 20
121.862716644339
 10
138.8342259377849
 20
121.862716644339
 10
138.0203436612414
 20
122.6766204527293
 10
137.5691438119076
 20
123.7843693741646
 10
137.5827304072276
 20
124.9352896483994
 10
137.5827304072276
 20
124.9352896483994
 10
137.5828165346147
 20
124.9422659667571
 10
137.5828165346147
 20
124.9422659667571
 10
137.5898789803595
 20
126.3955794972097
 10
136.4730005558883
 20
127.6164998053355
 10
135.0808374702988
 20
127.8966721956734
 10
134.6378412545892
 20
127.9858140413542
 10
134.2307601593134
 20
128.2025966747636
 10
133.9112490849033
 20
128.5221292810205
 10
133.9112490849033
 20
128.5221292810205
 10
133.6864996681843
 20
128.7468571658927
 10
133.6864996681843
 20
128.7468571658927
 10
133.32853271542
 20
129.1048456505037
 10
133.1117931457043
 20
129.5117760228521
 10
133.0227158955638
 20
129.9546861111745
 10
132.7426942281533
 20
131.3471506426189
 10
131.5215586015597
 20
132.4640290670902
 10
130.0682020074135
 20
132.4570527487325
 10
129.9063255833003
 20
132.4562776022483
 10
129.7474205540432
 20
132.4425618158477
 10
129.592585043828
 20
132.416852790789
 10
128.2486748268788
 20
132.1937397944255
 10
126.8866778586321
 20
132.7120759420282
 10
125.9234291609562
 20
133.6754107670911
 10
125.9234291609562
 20
133.6754107670911
 10
122.9971865876318
 20
136.6018040633431
 10
122.9971865876318
 20
136.6018040633431
 10
122.2161403774321
 20
137.3828933372363
 10
120.9497878725946
 20
137.3829148690831
 10
120.1687201305481
 20
136.6018471270366
 10
120.1687201305481
 20
136.6018471270366
 10
118.4010416370664
 20
134.8341686335549
 10
118.4010416370664
 20
134.8341686335549
 10
117.6200169587135
 20
134.053143955202
 10
117.6199954268667
 20
132.7868560459048
 10
118.4009770415261
 20
132.0058098357052
 10
118.4009770415261
 20
132.0058098357052
 10
121.4242851801474
 20
128.9822433149224
 10
121.4242851801474
 20
128.9822433149224
 10
122.3477430249686
 20
128.058699342714
 10
122.8479924212737
 20
126.7511564149811
 10
122.6262359312575
 20
125.4640902735385
 10
122.5971464062539
 20
125.2952590629145
 10
122.5823540275141
 20
125.121518591224
 10
122.5830430466112
 20
124.9441607692739
 10
122.5892442184846
 20
123.5059625952628
 10
123.7031081844063
 20
122.2980905862875
 10
125.0825890122406
 20
122.0182196418045
 10
125.5257574827245
 20
121.9283241814862
 10
125.9333553423231
 20
121.7123597582546
 10
126.2531032670478
 20
121.3926118335299
 10
126.2531032670478
 20
121.3926118335299
 10
126.5185478741863
 20
121.1271672263914
 10
126.5185478741863
 20
121.1271672263914
 10
126.8381235441368
 20
120.8075700245941
 10
127.0540449036749
 20
120.4002090153101
 10
127.1438973002995
 20
119.9572773951409
 10
127.4237467129357
 20
118.5775812488387
 10
128.6317479129918
 20
117.4633943052153
 10
130.0699245551561
 20
117.457279260729
 10
130.0810134562493
 20
117.4572361970354
 10
130.0961934082312
 20
117.457580706584
 10
130.1150337741661
 20
117.4582912575278
 10
131.245132752562
 20
117.500601336456
 10
132.3374864035476
 20
117.0456980094756
 10
133.1371576612144
 20
116.2460267518087
 10
133.1371576612144
 20
116.2460267518087
 10
154.8939691792127
 20
94.48917217011686
 10
154.8939691792127
 20
94.48917217011686
 10
156.4884454971735
 20
92.8946958521561
 10
157.4448255357256
 20
90.74827217376476
 10
157.4627400322489
 20
88.49341411497518
 10
157.4629768825635
 20
88.46451837659264
 10
157.4630845417974
 20
88.43560110636332
 10
157.4630845417974
 20
88.40668383613401
 10
157.4630845417974
 20
88.40668383613401
 10
157.4630845417974
 20
86.74985128989023
 10
157.4630845417974
 20
86.74985128989023
 10
157.4630845417974
 20
86.19760248360468
 10
157.0153943834892
 20
85.74991232529646
 10
156.4631455772037
 20
85.74991232529646
 10
156.4631455772037
 20
85.74991232529646
 10
155.9630899675197
 20
85.74991232529646
 10
155.9630899675197
 20
85.74991232529646
 10
155.4108411612341
 20
85.74991232529646
 10
154.9631510029259
 20
86.19760248360468
 10
154.9631510029259
 20
86.74985128989023
 10
154.9631510029259
 20
86.74985128989023
 10
154.9631510029259
 20
87.07937467305437
 10
154.9631510029259
 20
87.07937467305437
 10
154.9631510029259
 20
87.63162347933992
 10
154.5154608446177
 20
88.07931363764814
 10
153.9632120383321
 20
88.07931363764814
 10
153.9632120383321
 20
88.07931363764814
 10
153.4631564286481
 20
88.07931363764814
 10
153.4631564286481
 20
88.07931363764814
 10
152.9109076223626
 20
88.07931363764814
 10
152.4632174640543
 20
87.63162347933992
 10
152.4632174640543
 20
87.07937467305437
 10
152.4632174640543
 20
87.07937467305437
 10
152.4632174640543
 20
85.74991232529646
 10
152.4632174640543
 20
85.74991232529646
 10
152.4632174640543
 20
85.74991232529646
 10
152.4632174640543
 20
81.5177847764413
 10
152.4632174640543
 20
81.5177847764413
 10
152.4632174640543
 20
81.5177847764413
 10
152.4632174640543
 20
80.1908201229102
 10
152.4632174640543
 20
80.1908201229102
 10
152.4632174640543
 20
79.63857131662465
 10
152.9109076223626
 20
79.19088115831643
 10
153.4631564286481
 20
79.19088115831643
 10
153.4631564286481
 20
79.19088115831643
 10
153.9630397835579
 20
79.19088115831643
 10
153.9630397835579
 20
79.19088115831643
 10
154.5153962490773
 20
79.19088115831643
 10
154.9631510029259
 20
79.638635912165
 10
154.9631510029259
 20
80.19099237768447
 10
154.9631510029259
 20
80.19099237768447
 10
154.9631510029259
 20
80.5177596844604
 10
154.9631510029259
 20
80.5177596844604
 10
154.9631510029259
 20
81.07005155443952
 10
155.4108842249277
 20
81.5177847764413
 10
155.9631760949068
 20
81.5177847764413
 10
155.9631760949068
 20
81.5177847764413
 10
156.4629733224294
 20
81.5177847764413
 10
156.4629733224294
 20
81.5177847764413
 10
157.0153297879489
 20
81.5177847764413
 10
157.4630845417974
 20
81.07003002259273
 10
157.4630845417974
 20
80.51767355707328
 10
157.4630845417974
 20
80.51767355707328
 10
157.4630845417974
 20
78.75300952214118
 10
157.4630845417974
 20
78.75300952214118
 10
157.4630845417974
 20
78.73264039508464
 10
157.4630199462571
 20
78.71229279987489
 10
157.4629122870232
 20
78.69194520466513
 10
157.4502946248084
 20
76.4363765949317
 10
156.4895005576658
 20
74.28913470636262
 10
154.8945505390759
 20
72.69418468777263
 10
154.8945505390759
 20
72.69418468777263
 10
133.1578928296663
 20
50.95748391466949
 10
133.1578928296663
 20
50.95748391466949
 10
132.3508576803997
 20
50.15044876540293
 10
131.2507095008787
 20
49.70575153379752
 10
130.1095646850833
 20
49.72528091882953
 10
130.1095646850833
 20
49.72528091882953
 10
130.0936957140044
 20
49.72556083283771
 10
130.0936957140044
 20
49.72556083283771
 10
128.6426430274639
 20
49.73072847606559
 10
127.4234452670808
 20
48.61428068853002
 10
127.14335900413
 20
47.22388321437676
 10
127.054131031062
 20
46.78090853051398
 10
126.8374991205801
 20
46.37378437154457
 10
126.5180311098636
 20
46.05420870159409
 10
126.5180311098636
 20
46.05420870159409
 10
126.2544813052419
 20
45.79057276958535
 10
126.2544813052419
 20
45.79057276958535
 10
125.9349917626786
 20
45.47099709963486
 10
125.5279106674028
 20
45.25425752991907
 10
125.0849144516932
 20
45.16509415239145
 10
123.6935911081283
 20
44.88505095313421
 10
122.577014129512
 20
43.66514264180724
 10
122.5830430466112
 20
42.21309949031478
 10
122.5837320657082
 20
42.03406218431571
 10
122.6002900558842
 20
41.85864222857614
 10
122.6313174470983
 20
41.68823919313697
 10
122.8666174687408
 20
40.39583315369227
 10
122.3692102762111
 20
39.07674915608368
 10
121.4404771289281
 20
38.14771456294572
 10
121.4404771289281
 20
38.14771456294572
 10
118.4005679364372
 20
35.10677184180925
 10
118.4005679364372
 20
35.10677184180925
 10
117.6197155128585
 20
34.32563950422241
 10
117.6199308313264
 20
33.05941619046562
 10
118.4010416370664
 20
32.27856376688696
 10
118.4010416370664
 20
32.27856376688696
 10
120.1690646400966
 20
30.51114365556666
 10
120.1690646400966
 20
30.51114365556666
 10
120.950240041377
 20
29.73024816829444
 10
122.216549482521
 20
29.73046348676226
 10
122.9974449697932
 20
30.51161735619588
 10
122.9974449697932
 20
30.51161735619588
 10
126.0531154741291
 20
33.56832138917736
 10
126.0531154741291
 20
33.56832138917736
 10
126.9772623380474
 20
34.49279123079738
 10
128.2862048358213
 20
34.99144727044051
 10
129.5743045059094
 20
34.76900176132728
 10
129.7427481432913
 20
34.73989070447692
 10
129.9161656372801
 20
34.72501219835
 10
130.0931789496816
 20
34.72561509005992
 10
131.5328843529675
 20
34.7305243511264
 10
132.7422205275241
 20
35.84509886799185
 10
133.0221130038539
 20
37.22604386140747
 10
133.1118792730914
 20
37.66899701342346
 10
133.3279082918633
 20
38.07633649086069
 10
133.6474839618138
 20
38.39593369265796
 10
133.6474839618138
 20
38.39593369265796
 10
133.9125840594038
 20
38.66103379024793
 10
133.9125840594038
 20
38.66103379024793
 10
134.2323319841286
 20
38.98078171497269
 10
134.6399083118804
 20
39.19687532928499
 10
135.083098314211
 20
39.28672772590966
 10
136.4641294350137
 20
39.56670632962656
 10
137.5781656557096
 20
40.77621475895742
 10
137.5826442798405
 20
42.21628620363864
 10
137.582687343534
 20
42.22739663657857
 10
137.5822997702919
 20
42.24255505671367
 10
137.5815892193481
 20
42.26135235895507
 10
137.538073357
 20
43.38776939155106
 10
137.9910818814636
 20
44.47697939290637
 10
138.7881693175165
 20
45.27406682895926
 10
138.7881693175165
 20
45.27406682895926
 10
160.5672232332414
 20
67.05307768099064
 10
160.5672232332414
 20
67.05307768099064
 10
162.1619364015168
 20
68.647790849266
 10
164.3088122486906
 20
69.60658245465783
 10
166.5640148170287
 20
69.621633215559
 10
166.5883027401997
 20
69.62178393848649
 10
166.6125691315239
 20
69.62187006587362
 10
166.636857054695
 20
69.62187006587362
 10
166.636857054695
 20
69.62187006587362
 10
176.2467786560251
 20
69.62187006587362
 10
176.2467786560251
 20
69.62187006587362
 10
176.2761265631901
 20
69.62187006587362
 10
176.3054744703551
 20
69.6217624066397
 10
176.3348008456732
 20
69.6215255563251
 10
178.5895943089225
 20
69.60333114579362
 10
180.7359533917735
 20
68.6471664257093
 10
182.3303866460407
 20
67.05273317144211
 10
182.3303866460407
 20
67.05273317144211
 10
204.1023350523273
 20
45.28080629700229
 10
204.1023350523273
 20
45.28080629700229
 10
204.9025230743169
 20
44.48061827501266
 10
205.3576847834588
 20
43.3875971367768
 10
205.3156115548452
 20
42.25674454374354
 10
205.3149010039013
 20
42.23790417780858
 10
205.3145564943528
 20
42.2227242258267
 10
205.3145995580464
 20
42.21163532473355
 10
205.3211452394683
 20
40.77401851058558
 10
206.4348584824625
 20
39.5666417340862
 10
207.8138440778208
 20
39.28681385329678
 10
208.2570125483047
 20
39.19687532928499
 10
208.6646104079033
 20
38.98093243790017
 10
208.9843152689345
 20
38.66111991763507
 10
208.9843152689345
 20
38.66111991763507
 10
209.2499321308472
 20
38.39541692833517
 10
209.2499321308472
 20
38.39541692833517
 10
209.569680055572
 20
38.07556134437651
 10
209.7856229469568
 20
37.66787735739076
 10
209.875626066509
 20
37.22464429136658
 10
210.1556477339194
 20
35.84587401447603
 10
211.3629168511849
 20
34.73233302625616
 10
212.8002752831715
 20
34.72570121744705
 10
212.9606660098566
 20
34.72492607096287
 10
213.11825759646
 20
34.73689777777411
 10
213.2718657914086
 20
34.7607120003159
 10
214.6083259893709
 20
34.96774070713263
 10
215.9558750884264
 20
34.44694992899677
 10
216.9121474677446
 20
33.49065601783177
 10
216.9121474677446
 20
33.49065601783177
 10
219.8957293490517
 20
30.50698800913758
 10
219.8957293490517
 20
30.50698800913758
 10
220.6767970910982
 20
29.72589873524431
 10
221.9431280640889
 20
29.72587720339752
 10
222.7242173379821
 20
30.50692341359723
 10
222.7242173379821
 20
30.50692341359723
 10
224.4918958314638
 20
32.27451577969179
 10
224.4918958314638
 20
32.27451577969179
 10
225.2729635735103
 20
33.05556198989149
 10
225.2730066372039
 20
34.3218929628822
 10
224.4919604270042
 20
35.10296070492869
 97
        0
 97
        0
 92
        1
 93
        1
 72
     4
 94
        3
 73
     0
 74
     1
 95
       17
 96
       13
 40
0.0
 40
0.0
 40
0.0
 40
0.0
 40
1.0
 40
1.0
 40
1.0
 40
2.0
 40
2.0
 40
2.0
 40
3.0
 40
3.0
 40
3.0
 40
4.0
 40
4.0
 40
4.0
 40
4.0
 10
221.2777939985
 20
134.7070446101492
 10
221.9681911337441
 20
134.7070446101492
 10
222.5278468953229
 20
134.1473888485704
 10
222.5278468953229
 20
133.4569917133263
 10
222.5278468953229
 20
132.7666807054694
 10
221.9681911337441
 20
132.2070249438905
 10
221.2777939985
 20
132.2070249438905
 10
220.5873968632559
 20
132.2070249438905
 10
220.0277411016771
 20
132.7666807054694
 10
220.0277411016771
 20
133.4569917133263
 10
220.0277411016771
 20
134.1473888485704
 10
220.5873968632559
 20
134.7070446101492
 10
221.2777939985
 20
134.7070446101492
 97
        0
 97
        0
 92
        1
 93
        1
 72
     4
 94
        3
 73
     0
 74
     1
 95
       17
 96
       13
 40
0.0
 40
0.0
 40
0.0
 40
0.0
 40
1.0
 40
1.0
 40
1.0
 40
2.0
 40
2.0
 40
2.0
 40
3.0
 40
3.0
 40
3.0
 40
4.0
 40
4.0
 40
4.0
 40
4.0
 10
217.3143838974943
 20
125.9571910967117
 10
217.8666327037799
 20
125.9571910967117
 10
218.3143228620881
 20
125.5094148110163
 10
218.3143228620881
 20
124.9571660047308
 10
218.3143228620881
 20
124.4048310710581
 10
217.8666327037799
 20
123.9571409127499
 10
217.3143838974943
 20
123.9571409127499
 10
216.7621350912088
 20
123.9571409127499
 10
216.3144449329006
 20
124.4048310710581
 10
216.3144449329006
 20
124.9571660047308
 10
216.3144449329006
 20
125.5094148110163
 10
216.7621350912088
 20
125.9571910967117
 10
217.3143838974943
 20
125.9571910967117
 97
        0
 97
        0
 92
        1
 93
        1
 72
     4
 94
        3
 73
     0
 74
     1
 95
       17
 96
       13
 40
0.0
 40
0.0
 40
0.0
 40
0.0
 40
1.0
 40
1.0
 40
1.0
 40
2.0
 40
2.0
 40
2.0
 40
3.0
 40
3.0
 40
3.0
 40
4.0
 40
4.0
 40
4.0
 40
4.0
 10
212.814400174661
 20
119.4571571899165
 10
212.2621513683754
 20
119.4571571899165
 10
211.8144612100672
 20
119.9048473482247
 10
211.8144612100672
 20
120.4570961545103
 10
211.8144612100672
 20
121.0093449607958
 10
212.2621513683754
 20
121.4571212464912
 10
212.814400174661
 20
121.4571212464912
 10
213.3668212357208
 20
121.4571212464912
 10
213.814511394029
 20
121.009431088183
 10
213.814511394029
 20
120.4570961545103
 10
213.814511394029
 20
119.9048473482247
 10
213.3668212357208
 20
119.4571571899165
 10
212.814400174661
 20
119.4571571899165
 97
        0
 97
        0
 92
        1
 93
        1
 72
     4
 94
        3
 73
     0
 74
     1
 95
       17
 96
       13
 40
0.0
 40
0.0
 40
0.0
 40
0.0
 40
1.0
 40
1.0
 40
1.0
 40
2.0
 40
2.0
 40
2.0
 40
3.0
 40
3.0
 40
3.0
 40
4.0
 40
4.0
 40
4.0
 40
4.0
 10
212.814400174661
 20
130.4570886921579
 10
213.3666489809465
 20
130.4570886921579
 10
213.8143391392548
 20
130.0093985338497
 10
213.8143391392548
 20
129.4571497275641
 10
213.8143391392548
 20
128.9048147938914
 10
213.3666489809465
 20
128.4571246355832
 10
212.814400174661
 20
128.4571246355832
 10
212.2621513683754
 20
128.4571246355832
 10
211.8144612100672
 20
128.9048147938914
 10
211.8144612100672
 20
129.457063600177
 10
211.8144612100672
 20
130.0093985338497
 10
212.2621513683754
 20
130.4570886921579
 10
212.814400174661
 20
130.4570886921579
 97
        0
 97
        0
 92
        1
 93
        1
 72
     4
 94
        3
 73
     0
 74
     1
 95
       17
 96
       13
 40
0.0
 40
0.0
 40
0.0
 40
0.0
 40
1.0
 40
1.0
 40
1.0
 40
2.0
 40
2.0
 40
2.0
 40
3.0
 40
3.0
 40
3.0
 40
4.0
 40
4.0
 40
4.0
 40
4.0
 10
211.0465494264051
 20
126.7248444982125
 10
212.0228894869248
 20
127.7011845587323
 10
213.6059108623971
 20
127.7011845587323
 10
214.5820786681427
 20
126.7249306255996
 10
215.5584187286625
 20
125.7485905650798
 10
215.5584187286625
 20
124.1656553169946
 10
214.582250922917
 20
123.1894013838619
 10
213.6059108623971
 20
122.2130613233421
 10
212.0228894869248
 20
122.2130613233421
 10
211.0467216811793
 20
123.1893152564748
 10
210.0703816206595
 20
124.1656553169946
 10
210.0703816206595
 20
125.7485905650798
 10
211.0465494264051
 20
126.7248444982125
 97
        0
 97
        0
 92
        1
 93
        1
 72
     4
 94
        3
 73
     0
 74
     1
 95
       17
 96
       13
 40
0.0
 40
0.0
 40
0.0
 40
0.0
 40
1.0
 40
1.0
 40
1.0
 40
2.0
 40
2.0
 40
2.0
 40
3.0
 40
3.0
 40
3.0
 40
4.0
 40
4.0
 40
4.0
 40
4.0
 10
208.3144164518277
 20
125.9571049693245
 10
208.8666652581132
 20
125.9571049693245
 10
209.3143554164214
 20
125.5093286836292
 10
209.3143554164214
 20
124.9570798773436
 10
209.3143554164214
 20
124.4048310710581
 10
208.8666652581132
 20
123.9571409127499
 10
208.3144164518277
 20
123.9570547853627
 10
207.7621676455421
 20
123.9570547853627
 10
207.3144774872339
 20
124.4048310710581
 10
207.3144774872339
 20
124.9570798773436
 10
207.3144774872339
 20
125.5093286836292
 10
207.7621676455421
 20
125.9571049693245
 10
208.3144164518277
 20
125.9571049693245
 97
        0
 97
        0
 92
        1
 93
        1
 72
     4
 94
        3
 73
     0
 74
     1
 95
       17
 96
       13
 40
0.0
 40
0.0
 40
0.0
 40
0.0
 40
1.0
 40
1.0
 40
1.0
 40
2.0
 40
2.0
 40
2.0
 40
3.0
 40
3.0
 40
3.0
 40
4.0
 40
4.0
 40
4.0
 40
4.0
 10
121.5829318272432
 20
132.1700762948112
 10
120.8925346919991
 20
132.1700762948112
 10
120.3330511851945
 20
132.72973205639
 10
120.3330511851945
 20
133.420043064247
 10
120.3330511851945
 20
134.1103540721039
 10
120.8925346919991
 20
134.6700098336828
 10
121.5829318272432
 20
134.6700098336828
 10
122.2733289624872
 20
134.6700098336828
 10
122.8329847240661
 20
134.1103540721039
 10
122.8329847240661
 20
133.420043064247
 10
122.8329847240661
 20
132.72973205639
 10
122.2733289624872
 20
132.1700762948112
 10
121.5829318272432
 20
132.1700762948112
 97
        0
 97
        0
 92
        1
 93
        1
 72
     4
 94
        3
 73
     0
 74
     1
 95
       17
 96
       13
 40
0.0
 40
0.0
 40
0.0
 40
0.0
 40
1.0
 40
1.0
 40
1.0
 40
2.0
 40
2.0
 40
2.0
 40
3.0
 40
3.0
 40
3.0
 40
4.0
 40
4.0
 40
4.0
 40
4.0
 10
125.5828599403925
 20
123.9570547853627
 10
125.0306111341069
 20
123.9570547853627
 10
124.5829209757987
 20
124.4048310710581
 10
124.5829209757987
 20
124.9570798773436
 10
124.5829209757987
 20
125.5093286836292
 10
125.0306111341069
 20
125.9571049693245
 10
125.5828599403925
 20
125.9571049693245
 10
126.1352810014523
 20
125.9571049693245
 10
126.5827989049862
 20
125.5093286836292
 10
126.5827989049862
 20
124.9570798773436
 10
126.5827989049862
 20
124.4048310710581
 10
126.1352810014523
 20
123.9571409127499
 10
125.5828599403925
 20
123.9570547853627
 97
        0
 97
        0
 92
        1
 93
        1
 72
     4
 94
        3
 73
     0
 74
     1
 95
       17
 96
       13
 40
0.0
 40
0.0
 40
0.0
 40
0.0
 40
1.0
 40
1.0
 40
1.0
 40
2.0
 40
2.0
 40
2.0
 40
3.0
 40
3.0
 40
3.0
 40
4.0
 40
4.0
 40
4.0
 40
4.0
 10
130.0828436632258
 20
130.4570886921579
 10
130.6352647242856
 20
130.4570886921579
 10
131.0827826278196
 20
130.0093985338497
 10
131.0829548825938
 20
129.4571497275641
 10
131.0829548825938
 20
128.9048147938914
 10
130.6352647242856
 20
128.4571246355832
 10
130.0830159180001
 20
128.4571246355832
 10
129.5305948569403
 20
128.4571246355832
 10
129.0829046986321
 20
128.9048147938914
 10
129.0829046986321
 20
129.457063600177
 10
129.0829046986321
 20
130.0093985338497
 10
129.5305948569403
 20
130.4570886921579
 10
130.0828436632258
 20
130.4570886921579
 97
        0
 97
        0
 92
        1
 93
        1
 72
     4
 94
        3
 73
     0
 74
     1
 95
       17
 96
       13
 40
0.0
 40
0.0
 40
0.0
 40
0.0
 40
1.0
 40
1.0
 40
1.0
 40
2.0
 40
2.0
 40
2.0
 40
3.0
 40
3.0
 40
3.0
 40
4.0
 40
4.0
 40
4.0
 40
4.0
 10
130.0830159180001
 20
119.4571571899165
 10
129.5307671117145
 20
119.4571571899165
 10
129.0829046986321
 20
119.9048473482247
 10
129.0829046986321
 20
120.4570961545103
 10
129.0829046986321
 20
121.0093449607958
 10
129.5307671117145
 20
121.4571212464912
 10
130.0830159180001
 20
121.4571212464912
 10
130.6352647242856
 20
121.4571212464912
 10
131.0829548825938
 20
121.009431088183
 10
131.0829548825938
 20
120.4570961545103
 10
131.0829548825938
 20
119.9048473482247
 10
130.6352647242856
 20
119.4571571899165
 10
130.0830159180001
 20
119.4571571899165
 97
        0
 97
        0
 92
        1
 93
        1
 72
     4
 94
        3
 73
     0
 74
     1
 95
       17
 96
       13
 40
0.0
 40
0.0
 40
0.0
 40
0.0
 40
1.0
 40
1.0
 40
1.0
 40
2.0
 40
2.0
 40
2.0
 40
3.0
 40
3.0
 40
3.0
 40
4.0
 40
4.0
 40
4.0
 40
4.0
 10
131.8506944114818
 20
123.1894013838619
 10
130.874354350962
 20
122.2130613233421
 10
129.2915052302639
 20
122.2130613233421
 10
128.3151651697441
 20
123.1893152564748
 10
127.3388251092243
 20
124.1656553169946
 10
127.3388251092243
 20
125.7485905650798
 10
128.3151651697441
 20
126.7248444982125
 10
129.2913329754897
 20
127.7011845587323
 10
130.874354350962
 20
127.7011845587323
 10
131.8506944114818
 20
126.7249306255996
 10
132.8270344720016
 20
125.7485905650798
 10
132.8270344720016
 20
124.1656553169946
 10
131.8506944114818
 20
123.1894013838619
 97
        0
 97
        0
 92
        1
 93
        1
 72
     4
 94
        3
 73
     0
 74
     1
 95
       17
 96
       13
 40
0.0
 40
0.0
 40
0.0
 40
0.0
 40
1.0
 40
1.0
 40
1.0
 40
2.0
 40
2.0
 40
2.0
 40
3.0
 40
3.0
 40
3.0
 40
4.0
 40
4.0
 40
4.0
 40
4.0
 10
134.5829996408334
 20
123.9571409127499
 10
134.0305785797736
 20
123.9571409127499
 10
133.5828884214654
 20
124.4048310710581
 10
133.5828884214654
 20
124.9571660047308
 10
133.5828884214654
 20
125.5094148110163
 10
134.0305785797736
 20
125.9571910967117
 10
134.5829996408334
 20
125.9571910967117
 10
135.135248447119
 20
125.9571910967117
 10
135.5829386054272
 20
125.5094148110163
 10
135.5829386054272
 20
124.9571660047308
 10
135.5829386054272
 20
124.4048310710581
 10
135.135248447119
 20
123.9571409127499
 10
134.5829996408334
 20
123.9571409127499
 97
        0
 97
        0
 92
        1
 93
        1
 72
     4
 94
        3
 73
     0
 74
     1
 95
       17
 96
       13
 40
0.0
 40
0.0
 40
0.0
 40
0.0
 40
1.0
 40
1.0
 40
1.0
 40
2.0
 40
2.0
 40
2.0
 40
3.0
 40
3.0
 40
3.0
 40
4.0
 40
4.0
 40
4.0
 40
4.0
 10
121.5829318272432
 20
32.4432393310819
 10
120.8925346919991
 20
32.4432393310819
 10
120.3328789304203
 20
33.00289509266074
 10
120.3328789304203
 20
33.69320610051767
 10
120.3328789304203
 20
34.38360323576174
 10
120.8925346919991
 20
34.94325899734058
 10
121.5829318272432
 20
34.94325899734058
 10
122.2733289624872
 20
34.94325899734058
 10
122.8328124692918
 20
34.38360323576174
 10
122.8328124692918
 20
33.69320610051767
 10
122.8328124692918
 20
33.00289509266074
 10
122.2733289624872
 20
32.4432393310819
 10
121.5829318272432
 20
32.4432393310819
 97
        0
 97
        0
 92
        1
 93
        1
 72
     4
 94
        3
 73
     0
 74
     1
 95
       17
 96
       13
 40
0.0
 40
0.0
 40
0.0
 40
0.0
 40
1.0
 40
1.0
 40
1.0
 40
2.0
 40
2.0
 40
2.0
 40
3.0
 40
3.0
 40
3.0
 40
4.0
 40
4.0
 40
4.0
 40
4.0
 10
125.5826876856182
 20
41.22556286946791
 10
125.0304388793327
 20
41.22556286946791
 10
124.5829209757987
 20
41.67325302777613
 10
124.5829209757987
 20
42.22558796144882
 10
124.5829209757987
 20
42.77783676773436
 10
125.0304388793327
 20
43.22561305342971
 10
125.5826876856182
 20
43.22561305342971
 10
126.135108746678
 20
43.22561305342971
 10
126.5827989049862
 20
42.77792289512149
 10
126.5827989049862
 20
42.22558796144882
 10
126.5827989049862
 20
41.67325302777613
 10
126.135108746678
 20
41.22556286946791
 10
125.5826876856182
 20
41.22556286946791
 97
        0
 97
        0
 92
        1
 93
        1
 72
     4
 94
        3
 73
     0
 74
     1
 95
       17
 96
       13
 40
0.0
 40
0.0
 40
0.0
 40
0.0
 40
1.0
 40
1.0
 40
1.0
 40
2.0
 40
2.0
 40
2.0
 40
3.0
 40
3.0
 40
3.0
 40
4.0
 40
4.0
 40
4.0
 40
4.0
 10
130.0826714084516
 20
47.72559677626305
 10
130.6350924695114
 20
47.72559677626305
 10
131.0827826278196
 20
47.27790661795483
 10
131.0827826278196
 20
46.72565781166928
 10
131.0827826278196
 20
46.1733228779966
 10
130.6350924695114
 20
45.72563271968838
 10
130.0828436632258
 20
45.72563271968838
 10
129.530422602166
 20
45.72563271968838
 10
129.0829046986321
 20
46.1733228779966
 10
129.0829046986321
 20
46.72557168428215
 10
129.0829046986321
 20
47.27790661795483
 10
129.530422602166
 20
47.72559677626305
 10
130.0826714084516
 20
47.72559677626305
 97
        0
 97
        0
 92
        1
 93
        1
 72
     4
 94
        3
 73
     0
 74
     1
 95
       17
 96
       13
 40
0.0
 40
0.0
 40
0.0
 40
0.0
 40
1.0
 40
1.0
 40
1.0
 40
2.0
 40
2.0
 40
2.0
 40
3.0
 40
3.0
 40
3.0
 40
4.0
 40
4.0
 40
4.0
 40
4.0
 10
130.0830159180001
 20
36.72557914663458
 10
129.5305948569403
 20
36.72557914663458
 10
129.0829046986321
 20
37.17326930494279
 10
129.0829046986321
 20
37.72560423861547
 10
129.0829046986321
 20
38.27793917228816
 10
129.5305948569403
 20
38.72562933059637
 10
130.0828436632258
 20
38.72562933059637
 10
130.6352647242856
 20
38.72562933059637
 10
131.0827826278196
 20
38.27793917228816
 10
131.0827826278196
 20
37.72560423861547
 10
131.0827826278196
 20
37.17335543232993
 10
130.6352647242856
 20
36.72557914663458
 10
130.0830159180001
 20
36.72557914663458
 97
        0
 97
        0
 92
        1
 93
        1
 72
     4
 94
        3
 73
     0
 74
     1
 95
       17
 96
       13
 40
0.0
 40
0.0
 40
0.0
 40
0.0
 40
1.0
 40
1.0
 40
1.0
 40
2.0
 40
2.0
 40
2.0
 40
3.0
 40
3.0
 40
3.0
 40
4.0
 40
4.0
 40
4.0
 40
4.0
 10
131.8506944114818
 20
40.45782334057999
 10
130.874354350962
 20
39.48156940744732
 10
129.2913329754897
 20
39.48148328006019
 10
128.3149929149699
 20
40.45782334057999
 10
127.3386528544501
 20
41.4341634010998
 10
127.3386528544501
 20
43.01701252179783
 10
128.3149929149699
 20
43.99335258231763
 10
129.2913329754897
 20
44.96969264283744
 10
130.874354350962
 20
44.96969264283744
 10
131.8506944114818
 20
43.99335258231763
 10
132.8268622172273
 20
43.01709864918497
 10
132.8270344720016
 20
41.4341634010998
 10
131.8506944114818
 20
40.45782334057999
 97
        0
 97
        0
 92
        1
 93
        1
 72
     4
 94
        3
 73
     0
 74
     1
 95
       17
 96
       13
 40
0.0
 40
0.0
 40
0.0
 40
0.0
 40
1.0
 40
1.0
 40
1.0
 40
2.0
 40
2.0
 40
2.0
 40
3.0
 40
3.0
 40
3.0
 40
4.0
 40
4.0
 40
4.0
 40
4.0
 10
134.5828273860592
 20
41.22564899685505
 10
134.0304063249993
 20
41.22564899685505
 10
133.5828884214654
 20
41.67333915516326
 10
133.5828884214654
 20
42.22567408883594
 10
133.5828884214654
 20
42.77792289512149
 10
134.0304063249993
 20
43.22561305342971
 10
134.5828273860592
 20
43.22561305342971
 10
135.1350761923447
 20
43.22561305342971
 10
135.5827663506529
 20
42.77792289512149
 10
135.5827663506529
 20
42.22567408883594
 10
135.5827663506529
 20
41.67333915516326
 10
135.1350761923447
 20
41.22564899685505
 10
134.5828273860592
 20
41.22564899685505
 97
        0
 97
        0
 92
        1
 93
        1
 72
     4
 94
        3
 73
     0
 74
     1
 95
       23
 96
       19
 40
0.0
 40
0.0
 40
0.0
 40
0.0
 40
1.0
 40
1.0
 40
1.0
 40
2.0
 40
2.0
 40
2.0
 40
3.0
 40
3.0
 40
3.0
 40
4.0
 40
4.0
 40
4.0
 40
5.0
 40
5.0
 40
5.0
 40
6.0
 40
6.0
 40
6.0
 40
6.0
 10
167.0313204877561
 20
93.8898332149173
 10
167.0313204877561
 20
93.8898332149173
 10
175.8567938470948
 20
93.88966096014305
 10
175.8567938470948
 20
93.88966096014305
 10
176.7476955395804
 20
93.88966096014305
 10
177.1940076596946
 20
92.81255185667968
 10
176.5638996954424
 20
92.18261614720174
 10
176.5638996954424
 20
92.18261614720174
 10
172.1519381622572
 20
87.7708268687908
 10
172.1519381622572
 20
87.7708268687908
 10
171.7614365890041
 20
87.38032529553773
 10
171.1284002935894
 20
87.38032529553773
 10
170.7378987203364
 20
87.77074074140367
 10
170.7378987203364
 20
87.77074074140367
 10
166.3243868941828
 20
92.18253001981462
 10
166.3243868941828
 20
92.18253001981462
 10
165.6942789299306
 20
92.81246572929254
 10
166.1404187952704
 20
93.8898332149173
 10
167.0313204877561
 20
93.8898332149173
 97
        0
 97
        0
 92
        1
 93
        1
 72
     4
 94
        3
 73
     0
 74
     1
 95
       23
 96
       19
 40
0.0
 40
0.0
 40
0.0
 40
0.0
 40
1.0
 40
1.0
 40
1.0
 40
2.0
 40
2.0
 40
2.0
 40
3.0
 40
3.0
 40
3.0
 40
4.0
 40
4.0
 40
4.0
 40
5.0
 40
5.0
 40
5.0
 40
6.0
 40
6.0
 40
6.0
 40
6.0
 10
180.0353501611544
 20
88.85424480336152
 10
180.665113615858
 20
89.48443889500085
 10
181.7425672288699
 20
89.038299029661
 10
181.7425672288699
 20
88.14731120978826
 10
181.7425672288699
 20
88.14731120978826
 10
181.7423949740956
 20
79.04011516714318
 10
181.7423949740956
 20
79.04011516714318
 10
181.7423949740956
 20
78.14921347465759
 10
180.6652858706323
 20
77.70298748193059
 10
180.0353501611544
 20
78.33300931879566
 10
180.0353501611544
 20
78.33300931879566
 10
175.4826564773967
 20
82.88578912994045
 10
175.4826564773967
 20
82.88578912994045
 10
175.0921549041436
 20
83.27629070319352
 10
175.0921549041436
 20
83.90932699860818
 10
175.4824842226224
 20
84.29982857186124
 10
175.4824842226224
 20
84.29982857186124
 10
180.0353501611544
 20
88.85424480336152
 10
180.0353501611544
 20
88.85424480336152
 97
        0
 97
        0
 92
        1
 93
        1
 72
     4
 94
        3
 73
     0
 74
     1
 95
       23
 96
       19
 40
0.0
 40
0.0
 40
0.0
 40
0.0
 40
1.0
 40
1.0
 40
1.0
 40
2.0
 40
2.0
 40
2.0
 40
3.0
 40
3.0
 40
3.0
 40
4.0
 40
4.0
 40
4.0
 40
5.0
 40
5.0
 40
5.0
 40
6.0
 40
6.0
 40
6.0
 40
6.0
 10
167.2693765857868
 20
82.88518623823053
 10
167.2693765857868
 20
82.88518623823053
 10
162.8575873073759
 20
78.47167441207696
 10
162.8575873073759
 20
78.47167441207696
 10
162.227651597898
 20
77.84156644782477
 10
161.1501979848861
 20
78.28770631316462
 10
161.1501979848861
 20
79.17869413303737
 10
161.1501979848861
 20
79.17869413303737
 10
161.1503702396603
 20
88.00416749237613
 10
161.1503702396603
 20
88.00416749237613
 10
161.1503702396603
 20
88.89506918486174
 10
162.2274793431237
 20
89.34129517758872
 10
162.8574150526016
 20
88.71127334072366
 10
162.8574150526016
 20
88.71127334072366
 10
167.2692043310126
 20
84.29922568015132
 10
167.2692043310126
 20
84.29922568015132
 10
167.6597059042656
 20
83.90881023428538
 10
167.6597059042656
 20
83.27577393887073
 10
167.2693765857868
 20
82.88518623823053
 97
        0
 97
        0
 92
        1
 93
        1
 72
     4
 94
        3
 73
     0
 74
     1
 95
       17
 96
       13
 40
0.0
 40
0.0
 40
0.0
 40
0.0
 40
1.0
 40
1.0
 40
1.0
 40
2.0
 40
2.0
 40
2.0
 40
3.0
 40
3.0
 40
3.0
 40
4.0
 40
4.0
 40
4.0
 40
4.0
 10
161.4464761966176
 20
95.09372183223786
 10
162.2748494060459
 20
95.09372183223786
 10
162.9464707708953
 20
94.42214353108197
 10
162.9464707708953
 20
93.59366266241973
 10
162.9464707708953
 20
92.7653109848382
 10
162.2748494060459
 20
92.0937326836823
 10
161.4464761966176
 20
92.0937326836823
 10
160.617930732415
 20
92.0937326836823
 10
159.9464816223398
 20
92.7653109848382
 10
159.9464816223398
 20
93.59366266241973
 10
159.9464816223398
 20
94.42214353108197
 10
160.617930732415
 20
95.09372183223786
 10
161.4464761966176
 20
95.09372183223786
 97
        0
 97
        0
 92
        1
 93
        1
 72
     4
 94
        3
 73
     0
 74
     1
 95
       17
 96
       13
 40
0.0
 40
0.0
 40
0.0
 40
0.0
 40
1.0
 40
1.0
 40
1.0
 40
2.0
 40
2.0
 40
2.0
 40
3.0
 40
3.0
 40
3.0
 40
4.0
 40
4.0
 40
4.0
 40
4.0
 10
161.4464761966176
 20
72.09374760838716
 10
160.617930732415
 20
72.09374760838716
 10
159.9464816223398
 20
72.76532590954305
 10
159.9464816223398
 20
73.59367758712459
 10
159.9464816223398
 20
74.42215845578683
 10
160.617930732415
 20
75.09373675694272
 10
161.4464761966176
 20
75.09373675694272
 10
162.2748494060459
 20
75.09373675694272
 10
162.9464707708953
 20
74.42215845578683
 10
162.9464707708953
 20
73.59367758712459
 10
162.9464707708953
 20
72.76532590954305
 10
162.2748494060459
 20
72.09374760838716
 10
161.4464761966176
 20
72.09374760838716
 97
        0
 97
        0
 92
        1
 93
        1
 72
     4
 94
        3
 73
     0
 74
     1
 95
       23
 96
       19
 40
0.0
 40
0.0
 40
0.0
 40
0.0
 40
1.0
 40
1.0
 40
1.0
 40
2.0
 40
2.0
 40
2.0
 40
3.0
 40
3.0
 40
3.0
 40
4.0
 40
4.0
 40
4.0
 40
5.0
 40
5.0
 40
5.0
 40
6.0
 40
6.0
 40
6.0
 40
6.0
 10
175.999937564507
 20
73.29755009832058
 10
175.999937564507
 20
73.29755009832058
 10
166.892827649249
 20
73.2976362257077
 10
166.892827649249
 20
73.2976362257077
 10
166.0019259567634
 20
73.2976362257077
 10
165.5556138366493
 20
74.37474532917108
 10
166.1857218009015
 20
75.00476716603613
 10
166.1857218009015
 20
75.00476716603613
 10
170.7384154846592
 20
79.55737472240666
 10
170.7384154846592
 20
79.55737472240666
 10
171.1289170579122
 20
79.94787629565974
 10
171.7619533533269
 20
79.94787629565974
 10
172.15245492658
 20
79.55754697718093
 10
172.15245492658
 20
79.55754697718093
 10
176.7068711580802
 20
75.00476716603613
 10
176.7068711580802
 20
75.00476716603613
 10
177.3371513771067
 20
74.37491758394533
 10
176.8910115117668
 20
73.29755009832058
 10
175.999937564507
 20
73.29755009832058
 97
        0
 97
        0
 92
        1
 93
        1
 72
     4
 94
        3
 73
     0
 74
     1
 95
       17
 96
       13
 40
0.0
 40
0.0
 40
0.0
 40
0.0
 40
1.0
 40
1.0
 40
1.0
 40
2.0
 40
2.0
 40
2.0
 40
3.0
 40
3.0
 40
3.0
 40
4.0
 40
4.0
 40
4.0
 40
4.0
 10
181.4464612719127
 20
72.09374760838716
 10
180.6179158077101
 20
72.09374760838716
 10
179.9462944428606
 20
72.76532590954305
 10
179.9462944428606
 20
73.59367758712459
 10
179.9462944428606
 20
74.42215845578683
 10
180.6179158077101
 20
75.09373675694272
 10
181.4464612719127
 20
75.09373675694272
 10
182.274834481341
 20
75.09373675694272
 10
182.9464558461905
 20
74.42215845578683
 10
182.9464558461905
 20
73.59367758712459
 10
182.9464558461905
 20
72.76532590954305
 10
182.274834481341
 20
72.09374760838716
 10
181.4464612719127
 20
72.09374760838716
 97
        0
 97
        0
 92
        1
 93
        1
 72
     4
 94
        3
 73
     0
 74
     1
 95
       17
 96
       13
 40
0.0
 40
0.0
 40
0.0
 40
0.0
 40
1.0
 40
1.0
 40
1.0
 40
2.0
 40
2.0
 40
2.0
 40
3.0
 40
3.0
 40
3.0
 40
4.0
 40
4.0
 40
4.0
 40
4.0
 10
181.4464612719127
 20
92.0937326836823
 10
180.6179158077101
 20
92.0937326836823
 10
179.9462944428606
 20
92.7653109848382
 10
179.9462944428606
 20
93.59366266241973
 10
179.9462944428606
 20
94.42214353108197
 10
180.6179158077101
 20
95.09372183223786
 10
181.4464612719127
 20
95.09372183223786
 10
182.274834481341
 20
95.09372183223786
 10
182.9464558461905
 20
94.42214353108197
 10
182.9464558461905
 20
93.59366266241973
 10
182.9464558461905
 20
92.7653109848382
 10
182.274834481341
 20
92.0937326836823
 10
181.4464612719127
 20
92.0937326836823
 97
        0
 97
        0
 92
        1
 93
        1
 72
     4
 94
        3
 73
     0
 74
     1
 95
       17
 96
       13
 40
0.0
 40
0.0
 40
0.0
 40
0.0
 40
1.0
 40
1.0
 40
1.0
 40
2.0
 40
2.0
 40
2.0
 40
3.0
 40
3.0
 40
3.0
 40
4.0
 40
4.0
 40
4.0
 40
4.0
 10
208.3144164518277
 20
41.22556286946791
 10
207.7619953907679
 20
41.22556286946791
 10
207.3143052324596
 20
41.67325302777613
 10
207.3143052324596
 20
42.22558796144882
 10
207.3143052324596
 20
42.77783676773436
 10
207.7619953907679
 20
43.22561305342971
 10
208.3144164518277
 20
43.22561305342971
 10
208.8666652581132
 20
43.22561305342971
 10
209.3143554164214
 20
42.77792289512149
 10
209.3143554164214
 20
42.22558796144882
 10
209.3143554164214
 20
41.67325302777613
 10
208.8666652581132
 20
41.22556286946791
 10
208.3144164518277
 20
41.22556286946791
 97
        0
 97
        0
 92
        1
 93
        1
 72
     4
 94
        3
 73
     0
 74
     1
 95
       17
 96
       13
 40
0.0
 40
0.0
 40
0.0
 40
0.0
 40
1.0
 40
1.0
 40
1.0
 40
2.0
 40
2.0
 40
2.0
 40
3.0
 40
3.0
 40
3.0
 40
4.0
 40
4.0
 40
4.0
 40
4.0
 10
212.814400174661
 20
47.72559677626305
 10
213.3666489809465
 20
47.72559677626305
 10
213.8143391392548
 20
47.27790661795483
 10
213.8143391392548
 20
46.72565781166928
 10
213.8143391392548
 20
46.1733228779966
 10
213.3666489809465
 20
45.72563271968838
 10
212.814400174661
 20
45.72563271968838
 10
212.2621513683754
 20
45.72563271968838
 10
211.814288955293
 20
46.1733228779966
 10
211.814288955293
 20
46.72557168428215
 10
211.814288955293
 20
47.27790661795483
 10
212.2619791136012
 20
47.72559677626305
 10
212.814400174661
 20
47.72559677626305
 97
        0
 97
        0
 92
        1
 93
        1
 72
     4
 94
        3
 73
     0
 74
     1
 95
       17
 96
       13
 40
0.0
 40
0.0
 40
0.0
 40
0.0
 40
1.0
 40
1.0
 40
1.0
 40
2.0
 40
2.0
 40
2.0
 40
3.0
 40
3.0
 40
3.0
 40
4.0
 40
4.0
 40
4.0
 40
4.0
 10
212.814400174661
 20
36.72557914663458
 10
212.2621513683754
 20
36.72557914663458
 10
211.8144612100672
 20
37.17326930494279
 10
211.8144612100672
 20
37.72560423861547
 10
211.8144612100672
 20
38.27793917228816
 10
212.2621513683754
 20
38.72562933059637
 10
212.814400174661
 20
38.72562933059637
 10
213.3666489809465
 20
38.72562933059637
 10
213.8143391392548
 20
38.27793917228816
 10
213.8143391392548
 20
37.72560423861547
 10
213.8143391392548
 20
37.17335543232993
 10
213.3666489809465
 20
36.72557914663458
 10
212.814400174661
 20
36.72557914663458
 97
        0
 97
        0
 92
        1
 93
        1
 72
     4
 94
        3
 73
     0
 74
     1
 95
       17
 96
       13
 40
0.0
 40
0.0
 40
0.0
 40
0.0
 40
1.0
 40
1.0
 40
1.0
 40
2.0
 40
2.0
 40
2.0
 40
3.0
 40
3.0
 40
3.0
 40
4.0
 40
4.0
 40
4.0
 40
4.0
 10
214.5820786681427
 20
40.45782334057999
 10
213.6059108623971
 20
39.48156940744732
 10
212.0228894869248
 20
39.48148328006019
 10
211.0465494264051
 20
40.45782334057999
 10
210.0702093658852
 20
41.4341634010998
 10
210.0702093658852
 20
43.01701252179783
 10
211.0465494264051
 20
43.99335258231763
 10
212.0228894869248
 20
44.96969264283744
 10
213.6057386076229
 20
44.96969264283744
 10
214.5820786681427
 20
43.99335258231763
 10
215.5584187286625
 20
43.01709864918497
 10
215.5584187286625
 20
41.4341634010998
 10
214.5820786681427
 20
40.45782334057999
 97
        0
 97
        0
 92
        1
 93
        1
 72
     4
 94
        3
 73
     0
 74
     1
 95
       17
 96
       13
 40
0.0
 40
0.0
 40
0.0
 40
0.0
 40
1.0
 40
1.0
 40
1.0
 40
2.0
 40
2.0
 40
2.0
 40
3.0
 40
3.0
 40
3.0
 40
4.0
 40
4.0
 40
4.0
 40
4.0
 10
217.3143838974943
 20
41.22564899685505
 10
216.7621350912088
 20
41.22564899685505
 10
216.3144449329006
 20
41.67333915516326
 10
216.3142726781263
 20
42.22567408883594
 10
216.3142726781263
 20
42.77792289512149
 10
216.7621350912088
 20
43.22561305342971
 10
217.3143838974943
 20
43.22561305342971
 10
217.8666327037799
 20
43.22561305342971
 10
218.3143228620881
 20
42.77792289512149
 10
218.3143228620881
 20
42.22567408883594
 10
218.3143228620881
 20
41.67333915516326
 10
217.8666327037799
 20
41.22564899685505
 10
217.3143838974943
 20
41.22564899685505
 97
        0
 97
        0
 92
        1
 93
        1
 72
     4
 94
        3
 73
     0
 74
     1
 95
       17
 96
       13
 40
0.0
 40
0.0
 40
0.0
 40
0.0
 40
1.0
 40
1.0
 40
1.0
 40
2.0
 40
2.0
 40
2.0
 40
3.0
 40
3.0
 40
3.0
 40
4.0
 40
4.0
 40
4.0
 40
4.0
 10
221.3100056412871
 20
32.43876070695107
 10
220.619608506043
 20
32.43876070695107
 10
220.0599527444642
 20
32.99841646852991
 10
220.0599527444642
 20
33.68872747638684
 10
220.0599527444642
 20
34.37912461163091
 10
220.619608506043
 20
34.93878037320975
 10
221.3100056412871
 20
34.93878037320975
 10
222.0002305217569
 20
34.93878037320975
 10
222.5598862833357
 20
34.37912461163091
 10
222.5598862833357
 20
33.68872747638684
 10
222.5598862833357
 20
32.99841646852991
 10
222.0002305217569
 20
32.43876070695107
 10
221.3100056412871
 20
32.43876070695107
 97
        0
 97
        0
 75
     2
 76
     1
 98
        0
  0
ENDSEC
  0
SECTION
  2
OBJECTS
  0
DICTIONARY
  5
C
330
0
100
AcDbDictionary
281
     1
  3
ACAD_GROUP
350
D
  3
ACAD_LAYOUT
350
1A
  3
ACAD_MATERIAL
350
3B
  3
ACAD_MLEADERSTYLE
350
64
  3
ACAD_MLINESTYLE
350
17
  3
ACAD_PLOTSETTINGS
350
19
  3
ACAD_PLOTSTYLENAME
350
E
  3
ACAD_TABLESTYLE
350
63
  3
ACAD_VISUALSTYLE
350
2A
  0
SUN
  5
3F
330
29
100
AcDbSun
 90
        1
290
     0
 63
     7
421
 16777215
 40
1.0
291
     1
 91
  2455826
 92
 54000000
292
     0
 70
     2
 71
   256
280
     1
  0
DICTIONARY
  5
D
102
{ACAD_REACTORS
330
C
102
}
330
C
100
AcDbDictionary
281
     1
  0
DICTIONARY
  5
1A
102
{ACAD_REACTORS
330
C
102
}
330
C
100
AcDbDictionary
281
     1
  3
Layout1
350
1E
  3
Layout2
350
26
  3
Model
350
22
  0
DICTIONARY
  5
3B
102
{ACAD_REACTORS
330
C
102
}
330
C
100
AcDbDictionary
281
     1
  3
ByBlock
350
3D
  3
ByLayer
350
3C
  3
Global
350
3E
  0
DICTIONARY
  5
64
102
{ACAD_REACTORS
330
C
102
}
330
C
100
AcDbDictionary
281
     1
  0
DICTIONARY
  5
17
102
{ACAD_REACTORS
330
C
102
}
330
C
100
AcDbDictionary
281
     1
  3
Standard
350
18
  0
DICTIONARY
  5
19
102
{ACAD_REACTORS
330
C
102
}
330
C
100
AcDbDictionary
281
     1
  0
ACDBDICTIONARYWDFLT
  5
E
102
{ACAD_REACTORS
330
C
102
}
330
C
100
AcDbDictionary
281
     1
  3
Normal
350
F
100
AcDbDictionaryWithDefault
340
F
  0
DICTIONARY
  5
63
102
{ACAD_REACTORS
330
C
102
}
330
C
100
AcDbDictionary
281
     1
  0
DICTIONARY
  5
2A
102
{ACAD_REACTORS
330
C
102
}
330
C
100
AcDbDictionary
281
     1
  3
2dWireframe
350
2F
  3
3D Hidden
350
31
  3
3dWireframe
350
30
  3
Basic
350
32
  3
Brighten
350
36
  3
ColorChange
350
3A
  3
Conceptual
350
34
  3
Dim
350
35
  3
Facepattern
350
39
  3
Flat
350
2B
  3
FlatWithEdges
350
2C
  3
Gouraud
350
2D
  3
GouraudWithEdges
350
2E
  3
Linepattern
350
38
  3
Realistic
350
33
  3
Thicken
350
37
  0
LAYOUT
  5
1E
102
{ACAD_REACTORS
330
1A
102
}
330
1A
100
AcDbPlotSettings
  1

  2
none_device
  4

  6

 40
0.0
 41
0.0
 42
0.0
 43
0.0
 44
0.0
 45
0.0
 46
0.0
 47
0.0
 48
0.0
 49
0.0
140
0.0
141
0.0
142
1.0
143
1.0
 70
   688
 72
     0
 73
     0
 74
     5
  7

 75
    16
 76
     0
 77
     2
 78
   300
147
1.0
148
0.0
149
0.0
100
AcDbLayout
  1
Layout1
 70
     1
 71
     1
 10
0.0
 20
0.0
 11
12.0
 21
9.0
 12
0.0
 22
0.0
 32
0.0
 14
1.000000000000000E+20
 24
1.000000000000000E+20
 34
1.000000000000000E+20
 15
-1.000000000000000E+20
 25
-1.000000000000000E+20
 35
-1.000000000000000E+20
146
0.0
 13
0.0
 23
0.0
 33
0.0
 16
1.0
 26
0.0
 36
0.0
 17
0.0
 27
1.0
 37
0.0
 76
     0
330
1B
  0
LAYOUT
  5
26
102
{ACAD_REACTORS
330
1A
102
}
330
1A
100
AcDbPlotSettings
  1

  2
none_device
  4

  6

 40
0.0
 41
0.0
 42
0.0
 43
0.0
 44
0.0
 45
0.0
 46
0.0
 47
0.0
 48
0.0
 49
0.0
140
0.0
141
0.0
142
1.0
143
1.0
 70
   688
 72
     0
 73
     0
 74
     5
  7

 75
    16
 76
     0
 77
     2
 78
   300
147
1.0
148
0.0
149
0.0
100
AcDbLayout
  1
Layout2
 70
     1
 71
     2
 10
0.0
 20
0.0
 11
0.0
 21
0.0
 12
0.0
 22
0.0
 32
0.0
 14
0.0
 24
0.0
 34
0.0
 15
0.0
 25
0.0
 35
0.0
146
0.0
 13
0.0
 23
0.0
 33
0.0
 16
1.0
 26
0.0
 36
0.0
 17
0.0
 27
1.0
 37
0.0
 76
     0
330
23
  0
LAYOUT
  5
22
102
{ACAD_REACTORS
330
1A
102
}
330
1A
100
AcDbPlotSettings
  1

  2
none_device
  4

  6

 40
0.0
 41
0.0
 42
0.0
 43
0.0
 44
0.0
 45
0.0
 46
0.0
 47
0.0
 48
0.0
 49
0.0
140
0.0
141
0.0
142
1.0
143
1.0
 70
  1712
 72
     0
 73
     0
 74
     0
  7

 75
     0
 76
     0
 77
     2
 78
   300
147
1.0
148
0.0
149
0.0
100
AcDbLayout
  1
Model
 70
     1
 71
     0
 10
0.0
 20
0.0
 11
12.0
 21
9.0
 12
0.0
 22
0.0
 32
0.0
 14
1.000000000000000E+20
 24
1.000000000000000E+20
 34
1.000000000000000E+20
 15
-1.000000000000000E+20
 25
-1.000000000000000E+20
 35
-1.000000000000000E+20
146
0.0
 13
0.0
 23
0.0
 33
0.0
 16
1.0
 26
0.0
 36
0.0
 17
0.0
 27
1.0
 37
0.0
 76
     0
330
1F
331
29
  0
MATERIAL
  5
3D
102
{ACAD_REACTORS
330
3B
102
}
330
3B
100
AcDbMaterial
  1
ByBlock
 72
     1
 94
      127
  0
MATERIAL
  5
3C
102
{ACAD_REACTORS
330
3B
102
}
330
3B
100
AcDbMaterial
  1
ByLayer
 72
     1
 94
      127
  0
MATERIAL
  5
3E
102
{ACAD_REACTORS
330
3B
102
}
330
3B
100
AcDbMaterial
  1
Global
 72
     1
 94
      127
  0
MLINESTYLE
  5
18
102
{ACAD_REACTORS
330
17
102
}
330
17
100
AcDbMlineStyle
  2
Standard
 70
     0
  3

 62
   256
 51
90.0
 52
90.0
 71
     2
 49
0.5
 62
   256
  6
BYLAYER
 49
-0.5
 62
   256
  6
BYLAYER
  0
ACDBPLACEHOLDER
  5
F
102
{ACAD_REACTORS
330
E
102
}
330
E
  0
VISUALSTYLE
  5
2F
102
{ACAD_REACTORS
330
2A
102
}
330
2A
100
AcDbVisualStyle
  2
2dWireframe
 70
     4
177
     2
291
     0
 71
     0
176
     1
 72
     2
176
     1
 73
     0
176
     1
 90
        0
176
     1
 40
-0.6
176
     1
 41
-30.0
176
     1
 62
     5
 63
     7
421
 16777215
176
     1
 74
     1
176
     1
 91
        4
176
     1
 64
     7
176
     1
 65
   257
176
     1
 75
     1
176
     1
175
     1
176
     1
 42
1.0
176
     1
 92
        0
176
     1
 66
   257
176
     1
 43
1.0
176
     1
 76
     1
176
     1
 77
     6
176
     1
 78
     2
176
     1
 67
     7
176
     1
 79
     5
176
     1
170
     0
176
     1
171
     0
176
     1
290
     0
176
     1
 93
        1
176
     1
 44
0.0
176
     1
173
     0
176
     1
  0
VISUALSTYLE
  5
31
102
{ACAD_REACTORS
330
2A
102
}
330
2A
100
AcDbVisualStyle
  2
3D Hidden
 70
     6
177
     2
291
     0
 71
     1
176
     1
 72
     2
176
     1
 73
     2
176
     1
 90
        0
176
     1
 40
-0.6
176
     1
 41
-30.0
176
     1
 62
     5
 63
     7
421
 16777215
176
     1
 74
     2
176
     1
 91
        2
176
     1
 64
     7
176
     1
 65
   257
176
     1
 75
     2
176
     1
175
     1
176
     1
 42
40.0
176
     1
 92
        0
176
     1
 66
   257
176
     1
 43
1.0
176
     1
 76
     1
176
     1
 77
     6
176
     1
 78
     2
176
     1
 67
     7
176
     1
 79
     3
176
     1
170
     0
176
     1
171
     0
176
     1
290
     0
176
     1
 93
        1
176
     1
 44
0.0
176
     1
173
     0
176
     1
  0
VISUALSTYLE
  5
30
102
{ACAD_REACTORS
330
2A
102
}
330
2A
100
AcDbVisualStyle
  2
3dWireframe
 70
     5
177
     2
291
     0
 71
     0
176
     1
 72
     2
176
     1
 73
     0
176
     1
 90
        0
176
     1
 40
-0.6
176
     1
 41
-30.0
176
     1
 62
     5
 63
     7
421
 16777215
176
     1
 74
     1
176
     1
 91
        4
176
     1
 64
     7
176
     1
 65
   257
176
     1
 75
     1
176
     1
175
     1
176
     1
 42
1.0
176
     1
 92
        0
176
     1
 66
   257
176
     1
 43
1.0
176
     1
 76
     1
176
     1
 77
     6
176
     1
 78
     2
176
     1
 67
     7
176
     1
 79
     5
176
     1
170
     0
176
     1
171
     0
176
     1
290
     0
176
     1
 93
        1
176
     1
 44
0.0
176
     1
173
     0
176
     1
  0
VISUALSTYLE
  5
32
102
{ACAD_REACTORS
330
2A
102
}
330
2A
100
AcDbVisualStyle
  2
Basic
 70
     7
177
     2
291
     1
 71
     1
176
     1
 72
     0
176
     1
 73
     1
176
     1
 90
        0
176
     1
 40
-0.6
176
     1
 41
-30.0
176
     1
 62
     5
 63
     7
421
 16777215
176
     1
 74
     0
176
     1
 91
        4
176
     1
 64
     7
176
     1
 65
   257
176
     1
 75
     1
176
     1
175
     1
176
     1
 42
1.0
176
     1
 92
        8
176
     1
 66
     7
176
     1
 43
1.0
176
     1
 76
     1
176
     1
 77
     6
176
     1
 78
     2
176
     1
 67
     7
176
     1
 79
     5
176
     1
170
     0
176
     1
171
     0
176
     1
290
     0
176
     1
 93
        1
176
     1
 44
0.0
176
     1
173
     0
176
     1
  0
VISUALSTYLE
  5
36
102
{ACAD_REACTORS
330
2A
102
}
330
2A
100
AcDbVisualStyle
  2
Brighten
 70
    12
177
     2
291
     1
 71
     2
176
     1
 72
     2
176
     1
 73
     0
176
     1
 90
        0
176
     1
 40
-0.6
176
     1
 41
-30.0
176
     1
 62
     5
 63
     7
421
 16777215
176
     1
 74
     1
176
     1
 91
        4
176
     1
 64
     7
176
     1
 65
   257
176
     1
 75
     1
176
     1
175
     1
176
     1
 42
1.0
176
     1
 92
        8
176
     1
 66
     7
176
     1
 43
1.0
176
     1
 76
     1
176
     1
 77
     6
176
     1
 78
     2
176
     1
 67
     7
176
     1
 79
     5
176
     1
170
     0
176
     1
171
     0
176
     1
290
     0
176
     1
 93
        1
176
     1
 44
50.0
176
     1
173
     0
176
     1
  0
VISUALSTYLE
  5
3A
102
{ACAD_REACTORS
330
2A
102
}
330
2A
100
AcDbVisualStyle
  2
ColorChange
 70
    16
177
     2
291
     1
 71
     2
176
     1
 72
     2
176
     1
 73
     3
176
     1
 90
        0
176
     1
 40
-0.6
176
     1
 41
-30.0
176
     1
 62
     5
 63
     8
421
  8421504
176
     1
 74
     1
176
     1
 91
        4
176
     1
 64
     7
176
     1
 65
   257
176
     1
 75
     1
176
     1
175
     1
176
     1
 42
1.0
176
     1
 92
        8
176
     1
 66
     8
424
  8421504
176
     1
 43
1.0
176
     1
 76
     1
176
     1
 77
     6
176
     1
 78
     2
176
     1
 67
     7
176
     1
 79
     5
176
     1
170
     0
176
     1
171
     0
176
     1
290
     0
176
     1
 93
        1
176
     1
 44
0.0
176
     1
173
     0
176
     1
  0
VISUALSTYLE
  5
34
102
{ACAD_REACTORS
330
2A
102
}
330
2A
100
AcDbVisualStyle
  2
Conceptual
 70
     9
177
     2
291
     0
 71
     3
176
     1
 72
     2
176
     1
 73
     0
176
     1
 90
        0
176
     1
 40
-0.6
176
     1
 41
-30.0
176
     1
 62
     5
 63
     7
421
 16777215
176
     1
 74
     2
176
     1
 91
        2
176
     1
 64
     7
176
     1
 65
   257
176
     1
 75
     1
176
     1
175
     1
176
     1
 42
40.0
176
     1
 92
        8
176
     1
 66
     7
176
     1
 43
1.0
176
     1
 76
     1
176
     1
 77
     6
176
     1
 78
     2
176
     1
 67
     7
176
     1
 79
     3
176
     1
170
     0
176
     1
171
     0
176
     1
290
     0
176
     1
 93
        1
176
     1
 44
0.0
176
     1
173
     0
176
     1
  0
VISUALSTYLE
  5
35
102
{ACAD_REACTORS
330
2A
102
}
330
2A
100
AcDbVisualStyle
  2
Dim
 70
    11
177
     2
291
     1
 71
     2
176
     1
 72
     2
176
     1
 73
     0
176
     1
 90
        0
176
     1
 40
-0.6
176
     1
 41
-30.0
176
     1
 62
     5
 63
     7
421
 16777215
176
     1
 74
     1
176
     1
 91
        4
176
     1
 64
     7
176
     1
 65
   257
176
     1
 75
     1
176
     1
175
     1
176
     1
 42
1.0
176
     1
 92
        8
176
     1
 66
     7
176
     1
 43
1.0
176
     1
 76
     1
176
     1
 77
     6
176
     1
 78
     2
176
     1
 67
     7
176
     1
 79
     5
176
     1
170
     0
176
     1
171
     0
176
     1
290
     0
176
     1
 93
        1
176
     1
 44
-50.0
176
     1
173
     0
176
     1
  0
VISUALSTYLE
  5
39
102
{ACAD_REACTORS
330
2A
102
}
330
2A
100
AcDbVisualStyle
  2
Facepattern
 70
    15
177
     2
291
     1
 71
     2
176
     1
 72
     2
176
     1
 73
     0
176
     1
 90
        0
176
     1
 40
-0.6
176
     1
 41
-30.0
176
     1
 62
     5
 63
     7
421
 16777215
176
     1
 74
     1
176
     1
 91
        4
176
     1
 64
     7
176
     1
 65
   257
176
     1
 75
     1
176
     1
175
     1
176
     1
 42
1.0
176
     1
 92
        8
176
     1
 66
     7
176
     1
 43
1.0
176
     1
 76
     1
176
     1
 77
     6
176
     1
 78
     2
176
     1
 67
     7
176
     1
 79
     5
176
     1
170
     0
176
     1
171
     0
176
     1
290
     0
176
     1
 93
        1
176
     1
 44
0.0
176
     1
173
     0
176
     1
  0
VISUALSTYLE
  5
2B
102
{ACAD_REACTORS
330
2A
102
}
330
2A
100
AcDbVisualStyle
  2
Flat
 70
     0
177
     2
291
     1
 71
     2
176
     1
 72
     1
176
     1
 73
     1
176
     1
 90
        2
176
     1
 40
-0.6
176
     1
 41
30.0
176
     1
 62
     5
 63
     7
421
 16777215
176
     1
 74
     0
176
     1
 91
        4
176
     1
 64
     7
176
     1
 65
   257
176
     1
 75
     1
176
     1
175
     1
176
     1
 42
1.0
176
     1
 92
        8
176
     1
 66
     7
176
     1
 43
1.0
176
     1
 76
     1
176
     1
 77
     6
176
     1
 78
     2
176
     1
 67
     7
176
     1
 79
     5
176
     1
170
     0
176
     1
171
     0
176
     1
290
     0
176
     1
 93
       13
176
     1
 44
0.0
176
     1
173
     0
176
     1
  0
VISUALSTYLE
  5
2C
102
{ACAD_REACTORS
330
2A
102
}
330
2A
100
AcDbVisualStyle
  2
FlatWithEdges
 70
     1
177
     2
291
     1
 71
     2
176
     1
 72
     1
176
     1
 73
     1
176
     1
 90
        2
176
     1
 40
-0.6
176
     1
 41
30.0
176
     1
 62
     5
 63
     7
421
 16777215
176
     1
 74
     1
176
     1
 91
        4
176
     1
 64
     7
176
     1
 65
   257
176
     1
 75
     1
176
     1
175
     1
176
     1
 42
1.0
176
     1
 92
        0
176
     1
 66
   257
176
     1
 43
1.0
176
     1
 76
     1
176
     1
 77
     6
176
     1
 78
     2
176
     1
 67
     7
176
     1
 79
     5
176
     1
170
     0
176
     1
171
     0
176
     1
290
     0
176
     1
 93
       13
176
     1
 44
0.0
176
     1
173
     0
176
     1
  0
VISUALSTYLE
  5
2D
102
{ACAD_REACTORS
330
2A
102
}
330
2A
100
AcDbVisualStyle
  2
Gouraud
 70
     2
177
     2
291
     1
 71
     2
176
     1
 72
     2
176
     1
 73
     1
176
     1
 90
        2
176
     1
 40
-0.6
176
     1
 41
30.0
176
     1
 62
     5
 63
     7
421
 16777215
176
     1
 74
     0
176
     1
 91
        4
176
     1
 64
     7
176
     1
 65
   257
176
     1
 75
     1
176
     1
175
     1
176
     1
 42
1.0
176
     1
 92
        0
176
     1
 66
     7
176
     1
 43
1.0
176
     1
 76
     1
176
     1
 77
     6
176
     1
 78
     2
176
     1
 67
     7
176
     1
 79
     5
176
     1
170
     0
176
     1
171
     0
176
     1
290
     0
176
     1
 93
       13
176
     1
 44
0.0
176
     1
173
     0
176
     1
  0
VISUALSTYLE
  5
2E
102
{ACAD_REACTORS
330
2A
102
}
330
2A
100
AcDbVisualStyle
  2
GouraudWithEdges
 70
     3
177
     2
291
     1
 71
     2
176
     1
 72
     2
176
     1
 73
     1
176
     1
 90
        2
176
     1
 40
-0.6
176
     1
 41
30.0
176
     1
 62
     5
 63
     7
421
 16777215
176
     1
 74
     1
176
     1
 91
        4
176
     1
 64
     7
176
     1
 65
   257
176
     1
 75
     1
176
     1
175
     1
176
     1
 42
1.0
176
     1
 92
        0
176
     1
 66
   257
176
     1
 43
1.0
176
     1
 76
     1
176
     1
 77
     6
176
     1
 78
     2
176
     1
 67
     7
176
     1
 79
     5
176
     1
170
     0
176
     1
171
     0
176
     1
290
     0
176
     1
 93
       13
176
     1
 44
0.0
176
     1
173
     0
176
     1
  0
VISUALSTYLE
  5
38
102
{ACAD_REACTORS
330
2A
102
}
330
2A
100
AcDbVisualStyle
  2
Linepattern
 70
    14
177
     2
291
     1
 71
     2
176
     1
 72
     2
176
     1
 73
     0
176
     1
 90
        0
176
     1
 40
-0.6
176
     1
 41
-30.0
176
     1
 62
     5
 63
     7
421
 16777215
176
     1
 74
     1
176
     1
 91
        4
176
     1
 64
     7
176
     1
 65
   257
176
     1
 75
     7
176
     1
175
     7
176
     1
 42
1.0
176
     1
 92
        8
176
     1
 66
     7
176
     1
 43
1.0
176
     1
 76
     1
176
     1
 77
     6
176
     1
 78
     2
176
     1
 67
     7
176
     1
 79
     5
176
     1
170
     0
176
     1
171
     0
176
     1
290
     0
176
     1
 93
        1
176
     1
 44
0.0
176
     1
173
     0
176
     1
  0
VISUALSTYLE
  5
33
102
{ACAD_REACTORS
330
2A
102
}
330
2A
100
AcDbVisualStyle
  2
Realistic
 70
     8
177
     2
291
     0
 71
     2
176
     1
 72
     2
176
     1
 73
     0
176
     1
 90
        0
176
     1
 40
-0.6
176
     1
 41
-30.0
176
     1
 62
     5
 63
     7
421
 16777215
176
     1
 74
     1
176
     1
 91
        0
176
     1
 64
     7
176
     1
 65
   257
176
     1
 75
     1
176
     1
175
     1
176
     1
 42
1.0
176
     1
 92
        8
176
     1
 66
     8
424
  7895160
176
     1
 43
1.0
176
     1
 76
     1
176
     1
 77
     6
176
     1
 78
     2
176
     1
 67
     7
176
     1
 79
     5
176
     1
170
     0
176
     1
171
     0
176
     1
290
     0
176
     1
 93
       13
176
     1
 44
0.0
176
     1
173
     0
176
     1
  0
VISUALSTYLE
  5
37
102
{ACAD_REACTORS
330
2A
102
}
330
2A
100
AcDbVisualStyle
  2
Thicken
 70
    13
177
     2
291
     1
 71
     2
176
     1
 72
     2
176
     1
 73
     0
176
     1
 90
        0
176
     1
 40
-0.6
176
     1
 41
-30.0
176
     1
 62
     5
 63
     7
421
 16777215
176
     1
 74
     1
176
     1
 91
        4
176
     1
 64
     7
176
     1
 65
   257
176
     1
 75
     1
176
     1
175
     1
176
     1
 42
1.0
176
     1
 92
       12
176
     1
 66
     7
176
     1
 43
1.0
176
     1
 76
     1
176
     1
 77
     6
176
     1
 78
     2
176
     1
 67
     7
176
     1
 79
     5
176
     1
170
     0
176
     1
171
     0
176
     1
290
     0
176
     1
 93
        1
176
     1
 44
0.0
176
     1
173
     0
176
     1
  0
ENDSEC
  0
EOF
