  0
SECTION
  2
HEADER
  9
$ACADVER
  1
AC1024
  9
$ACADMAINTVER
 70
     6
  9
$DWGCODEPAGE
  3
UNDEFINED
  9
$INSBASE
 10
0.0
 20
0.0
 30
0.0
  9
$EXTMIN
 10
1.000000000000000E+20
 20
1.000000000000000E+20
 30
1.000000000000000E+20
  9
$EXTMAX
 10
-1.000000000000000E+20
 20
-1.000000000000000E+20
 30
-1.000000000000000E+20
  9
$LIMMIN
 10
0.0
 20
0.0
  9
$LIMMAX
 10
12.0
 20
9.0
  9
$ORTHOMODE
 70
     0
  9
$REGENMODE
 70
     1
  9
$FILLMODE
 70
     1
  9
$QTEXTMODE
 70
     0
  9
$MIRRTEXT
 70
     1
  9
$LTSCALE
 40
1.0
  9
$ATTMODE
 70
     1
  9
$TEXTSIZE
 40
0.2
  9
$TRACEWID
 40
0.05
  9
$TEXTSTYLE
  7
Standard
  9
$CLAYER
  8
0
  9
$CELTYPE
  6
ByLayer
  9
$CECOLOR
 62
   256
  9
$CELTSCALE
 40
1.0
  9
$DISPSILH
 70
     0
  9
$DIMSCALE
 40
1.0
  9
$DIMASZ
 40
0.18
  9
$DIMEXO
 40
0.0625
  9
$DIMDLI
 40
0.38
  9
$DIMRND
 40
0.0
  9
$DIMDLE
 40
0.0
  9
$DIMEXE
 40
0.18
  9
$DIMTP
 40
0.0
  9
$DIMTM
 40
0.0
  9
$DIMTXT
 40
0.18
  9
$DIMCEN
 40
0.09
  9
$DIMTSZ
 40
0.0
  9
$DIMTOL
 70
     0
  9
$DIMLIM
 70
     0
  9
$DIMTIH
 70
     1
  9
$DIMTOH
 70
     1
  9
$DIMSE1
 70
     0
  9
$DIMSE2
 70
     0
  9
$DIMTAD
 70
     0
  9
$DIMZIN
 70
     0
  9
$DIMBLK
  1

  9
$DIMASO
 70
     1
  9
$DIMSHO
 70
     1
  9
$DIMPOST
  1

  9
$DIMAPOST
  1

  9
$DIMALT
 70
     0
  9
$DIMALTD
 70
     2
  9
$DIMALTF
 40
25.4
  9
$DIMLFAC
 40
1.0
  9
$DIMTOFL
 70
     0
  9
$DIMTVP
 40
0.0
  9
$DIMTIX
 70
     0
  9
$DIMSOXD
 70
     0
  9
$DIMSAH
 70
     0
  9
$DIMBLK1
  1

  9
$DIMBLK2
  1

  9
$DIMSTYLE
  2
Standard
  9
$DIMCLRD
 70
     0
  9
$DIMCLRE
 70
     0
  9
$DIMCLRT
 70
     0
  9
$DIMTFAC
 40
1.0
  9
$DIMGAP
 40
0.09
  9
$DIMJUST
 70
     0
  9
$DIMSD1
 70
     0
  9
$DIMSD2
 70
     0
  9
$DIMTOLJ
 70
     1
  9
$DIMTZIN
 70
     0
  9
$DIMALTZ
 70
     0
  9
$DIMALTTZ
 70
     0
  9
$DIMUPT
 70
     0
  9
$DIMDEC
 70
     4
  9
$DIMTDEC
 70
     4
  9
$DIMALTU
 70
     2
  9
$DIMALTTD
 70
     2
  9
$DIMTXSTY
  7
Standard
  9
$DIMAUNIT
 70
     0
  9
$DIMADEC
 70
     0
  9
$DIMALTRND
 40
0.0
  9
$DIMAZIN
 70
     0
  9
$DIMDSEP
 70
    46
  9
$DIMATFIT
 70
     3
  9
$DIMFRAC
 70
     0
  9
$DIMLDRBLK
  1

  9
$DIMLUNIT
 70
     2
  9
$DIMLWD
 70
    -2
  9
$DIMLWE
 70
    -2
  9
$DIMTMOVE
 70
     0
  9
$DIMFXL
 40
1.0
  9
$DIMFXLON
 70
     0
  9
$DIMJOGANG
 40
0.7853981633974483
  9
$DIMTFILL
 70
     0
  9
$DIMTFILLCLR
 70
     0
  9
$DIMARCSYM
 70
     0
  9
$DIMLTYPE
  6

  9
$DIMLTEX1
  6

  9
$DIMLTEX2
  6

  9
$DIMTXTDIRECTION
 70
     0
  9
$LUNITS
 70
     2
  9
$LUPREC
 70
     4
  9
$SKETCHINC
 40
0.1
  9
$FILLETRAD
 40
0.5
  9
$AUNITS
 70
     0
  9
$AUPREC
 70
     0
  9
$MENU
  1
.
  9
$ELEVATION
 40
0.0
  9
$PELEVATION
 40
0.0
  9
$THICKNESS
 40
0.0
  9
$LIMCHECK
 70
     0
  9
$CHAMFERA
 40
0.5
  9
$CHAMFERB
 40
0.5
  9
$CHAMFERC
 40
1.0
  9
$CHAMFERD
 40
0.0
  9
$SKPOLY
 70
     0
  9
$TDCREATE
 40
2458133.003310174
  9
$TDUCREATE
 40
2458133.211643518
  9
$TDUPDATE
 40
2458133.003310174
  9
$TDUUPDATE
 40
2458133.211643518
  9
$TDINDWG
 40
0.0000000116
  9
$TDUSRTIMER
 40
0.0000000116
  9
$USRTIMER
 70
     1
  9
$ANGBASE
 50
0.0
  9
$ANGDIR
 70
     0
  9
$PDMODE
 70
     0
  9
$PDSIZE
 40
0.0
  9
$PLINEWID
 40
0.0
  9
$SPLFRAME
 70
     0
  9
$SPLINETYPE
 70
     6
  9
$SPLINESEGS
 70
     8
  9
$HANDSEED
  5
53
  9
$SURFTAB1
 70
     6
  9
$SURFTAB2
 70
     6
  9
$SURFTYPE
 70
     6
  9
$SURFU
 70
     6
  9
$SURFV
 70
     6
  9
$UCSBASE
  2

  9
$UCSNAME
  2

  9
$UCSORG
 10
0.0
 20
0.0
 30
0.0
  9
$UCSXDIR
 10
1.0
 20
0.0
 30
0.0
  9
$UCSYDIR
 10
0.0
 20
1.0
 30
0.0
  9
$UCSORTHOREF
  2

  9
$UCSORTHOVIEW
 70
     0
  9
$UCSORGTOP
 10
0.0
 20
0.0
 30
0.0
  9
$UCSORGBOTTOM
 10
0.0
 20
0.0
 30
0.0
  9
$UCSORGLEFT
 10
0.0
 20
0.0
 30
0.0
  9
$UCSORGRIGHT
 10
0.0
 20
0.0
 30
0.0
  9
$UCSORGFRONT
 10
0.0
 20
0.0
 30
0.0
  9
$UCSORGBACK
 10
0.0
 20
0.0
 30
0.0
  9
$PUCSBASE
  2

  9
$PUCSNAME
  2

  9
$PUCSORG
 10
0.0
 20
0.0
 30
0.0
  9
$PUCSXDIR
 10
1.0
 20
0.0
 30
0.0
  9
$PUCSYDIR
 10
0.0
 20
1.0
 30
0.0
  9
$PUCSORTHOREF
  2

  9
$PUCSORTHOVIEW
 70
     0
  9
$PUCSORGTOP
 10
0.0
 20
0.0
 30
0.0
  9
$PUCSORGBOTTOM
 10
0.0
 20
0.0
 30
0.0
  9
$PUCSORGLEFT
 10
0.0
 20
0.0
 30
0.0
  9
$PUCSORGRIGHT
 10
0.0
 20
0.0
 30
0.0
  9
$PUCSORGFRONT
 10
0.0
 20
0.0
 30
0.0
  9
$PUCSORGBACK
 10
0.0
 20
0.0
 30
0.0
  9
$USERI1
 70
     0
  9
$USERI2
 70
     0
  9
$USERI3
 70
     0
  9
$USERI4
 70
     0
  9
$USERI5
 70
     0
  9
$USERR1
 40
0.0
  9
$USERR2
 40
0.0
  9
$USERR3
 40
0.0
  9
$USERR4
 40
0.0
  9
$USERR5
 40
0.0
  9
$WORLDVIEW
 70
     1
  9
$SHADEDGE
 70
     3
  9
$SHADEDIF
 70
    70
  9
$TILEMODE
 70
     1
  9
$MAXACTVP
 70
    64
  9
$PINSBASE
 10
0.0
 20
0.0
 30
0.0
  9
$PLIMCHECK
 70
     0
  9
$PEXTMIN
 10
1.000000000000000E+20
 20
1.000000000000000E+20
 30
1.000000000000000E+20
  9
$PEXTMAX
 10
-1.000000000000000E+20
 20
-1.000000000000000E+20
 30
-1.000000000000000E+20
  9
$PLIMMIN
 10
0.0
 20
0.0
  9
$PLIMMAX
 10
12.0
 20
9.0
  9
$UNITMODE
 70
     0
  9
$VISRETAIN
 70
     1
  9
$PLINEGEN
 70
     0
  9
$PSLTSCALE
 70
     1
  9
$TREEDEPTH
 70
  3020
  9
$CMLSTYLE
  2
Standard
  9
$CMLJUST
 70
     0
  9
$CMLSCALE
 40
1.0
  9
$PROXYGRAPHICS
 70
     1
  9
$MEASUREMENT
 70
     0
  9
$CELWEIGHT
370
    -1
  9
$ENDCAPS
280
     0
  9
$JOINSTYLE
280
     0
  9
$LWDISPLAY
290
     1
  9
$INSUNITS
 70
     1
  9
$HYPERLINKBASE
  1

  9
$STYLESHEET
  1

  9
$XEDIT
290
     1
  9
$CEPSNTYPE
380
     0
  9
$PSTYLEMODE
290
     1
  9
$FINGERPRINTGUID
  2
{92B41EF9-F3D0-67FC-8B19-C046724B6E19}
  9
$VERSIONGUID
  2
{FAEB1C32-E019-11D5-929B-00C0DF256EC4}
  9
$EXTNAMES
290
     1
  9
$PSVPSCALE
 40
0.0
  9
$OLESTARTUP
290
     0
  9
$SORTENTS
280
   127
  9
$INDEXCTL
280
     0
  9
$HIDETEXT
280
     1
  9
$XCLIPFRAME
280
     2
  9
$HALOGAP
280
     0
  9
$OBSCOLOR
 70
   257
  9
$OBSLTYPE
280
     0
  9
$INTERSECTIONDISPLAY
280
     0
  9
$INTERSECTIONCOLOR
 70
   257
  9
$DIMASSOC
280
     2
  9
$PROJECTNAME
  1

  9
$CAMERADISPLAY
290
     0
  9
$LENSLENGTH
 40
50.0
  9
$CAMERAHEIGHT
 40
0.0
  9
$STEPSPERSEC
 40
2.0
  9
$STEPSIZE
 40
6.0
  9
$3DDWFPREC
 40
2.0
  9
$PSOLWIDTH
 40
0.25
  9
$PSOLHEIGHT
 40
4.0
  9
$LOFTANG1
 40
1.570796326794897
  9
$LOFTANG2
 40
1.570796326794897
  9
$LOFTMAG1
 40
0.0
  9
$LOFTMAG2
 40
0.0
  9
$LOFTPARAM
 70
     7
  9
$LOFTNORMALS
280
     1
  9
$LATITUDE
 40
37.795
  9
$LONGITUDE
 40
-122.394
  9
$NORTHDIRECTION
 40
0.0
  9
$TIMEZONE
 70
 -8000
  9
$LIGHTGLYPHDISPLAY
280
     1
  9
$TILEMODELIGHTSYNCH
280
     1
  9
$CMATERIAL
347
3C
  9
$SOLIDHIST
280
     1
  9
$SHOWHIST
280
     1
  9
$DWFFRAME
280
     2
  9
$DGNFRAME
280
     2
  9
$REALWORLDSCALE
290
     1
  9
$INTERFERECOLOR
 62
   256
  9
$CSHADOW
280
     0
  9
$SHADOWPLANELOCATION
 40
0.0
  0
ENDSEC
  0
SECTION
  2
CLASSES
  0
CLASS
  1
ACDBDICTIONARYWDFLT
  2
AcDbDictionaryWithDefault
  3
ObjectDBX Classes
 90
        0
 91
        4
280
     0
281
     0
  0
CLASS
  1
VISUALSTYLE
  2
AcDbVisualStyle
  3
ObjectDBX Classes
 90
     4095
 91
        4
280
     0
281
     0
  0
CLASS
  1
MATERIAL
  2
AcDbMaterial
  3
ObjectDBX Classes
 90
     1153
 91
        4
280
     0
281
     0
  0
CLASS
  1
SUN
  2
AcDbSun
  3
SCENEOE
 90
     1024
 91
        4
280
     0
281
     0
  0
ENDSEC
  0
SECTION
  2
TABLES
  0
TABLE
  2
VPORT
  5
8
330
0
100
AcDbSymbolTable
 70
     1
  0
VPORT
  5
29
330
8
100
AcDbSymbolTableRecord
100
AcDbViewportTableRecord
  2
*Active
 70
     0
 10
0.0
 20
0.0
 11
1.0
 21
1.0
 12
0.0
 22
0.0
 13
0.0
 23
0.0
 14
0.5
 24
0.5
 15
0.5
 25
0.5
 16
0.0
 26
0.0
 36
1.0
 17
149.9993471847223
 27
-149.9993471847223
 37
0.0
 40
299.9986943694446
 41
1.0
 42
50.0
 43
0.0
 44
0.0
 50
0.0
 51
0.0
 71
     0
 72
   100
 73
     1
 74
     3
 75
     0
 76
     0
 77
     0
 78
     0
281
     0
 65
     1
110
0.0
120
0.0
130
0.0
111
1.0
121
0.0
131
0.0
112
0.0
122
1.0
132
0.0
 79
     0
146
0.0
 60
     3
 61
     5
292
     1
282
     1
141
0.0
142
0.0
 63
   250
361
3F
  0
ENDTAB
  0
TABLE
  2
LTYPE
  5
5
330
0
100
AcDbSymbolTable
 70
     1
  0
LTYPE
  5
14
330
5
100
AcDbSymbolTableRecord
100
AcDbLinetypeTableRecord
  2
ByBlock
 70
     0
  3

 72
    65
 73
     0
 40
0.0
  0
LTYPE
  5
15
330
5
100
AcDbSymbolTableRecord
100
AcDbLinetypeTableRecord
  2
ByLayer
 70
     0
  3

 72
    65
 73
     0
 40
0.0
  0
LTYPE
  5
16
330
5
100
AcDbSymbolTableRecord
100
AcDbLinetypeTableRecord
  2
Continuous
 70
     0
  3
Solid line
 72
    65
 73
     0
 40
0.0
  0
ENDTAB
  0
TABLE
  2
LAYER
  5
2
330
0
100
AcDbSymbolTable
 70
     2
  0
LAYER
  5
10
330
2
100
AcDbSymbolTableRecord
100
AcDbLayerTableRecord
  2
0
 70
     0
 62
     7
  6
Continuous
370
    -3
390
F
347
3E
  0
LAYER
  5
40
330
2
100
AcDbSymbolTableRecord
100
AcDbLayerTableRecord
  2
Layer 1
 70
     0
 62
     7
  6
Continuous
370
    -3
390
F
347
3E
  0
ENDTAB
  0
TABLE
  2
STYLE
  5
3
330
0
100
AcDbSymbolTable
 70
     1
  0
STYLE
  5
11
330
3
100
AcDbSymbolTableRecord
100
AcDbTextStyleTableRecord
  2
Standard
 70
     0
 40
0.0
 41
1.0
 50
0.0
 71
     0
 42
0.2
  3
txt
  4

  0
ENDTAB
  0
TABLE
  2
VIEW
  5
6
330
0
100
AcDbSymbolTable
 70
     0
  0
ENDTAB
  0
TABLE
  2
UCS
  5
7
330
0
100
AcDbSymbolTable
 70
     0
  0
ENDTAB
  0
TABLE
  2
APPID
  5
9
330
0
100
AcDbSymbolTable
 70
     1
  0
APPID
  5
12
330
9
100
AcDbSymbolTableRecord
100
AcDbRegAppTableRecord
  2
ACAD
 70
     0
  0
ENDTAB
  0
TABLE
  2
DIMSTYLE
  5
A
330
0
100
AcDbSymbolTable
 70
     1
100
AcDbDimStyleTable
  0
DIMSTYLE
105
27
330
A
100
AcDbSymbolTableRecord
100
AcDbDimStyleTableRecord
  2
Standard
 70
     0
178
     0
340
11
  0
ENDTAB
  0
TABLE
  2
BLOCK_RECORD
  5
1
330
0
100
AcDbSymbolTable
 70
     1
  0
BLOCK_RECORD
  5
1F
330
1
100
AcDbSymbolTableRecord
100
AcDbBlockTableRecord
  2
*Model_Space
340
22
 70
     0
280
     1
281
     0
  0
BLOCK_RECORD
  5
1B
330
1
100
AcDbSymbolTableRecord
100
AcDbBlockTableRecord
  2
*Paper_Space
340
1E
 70
     0
280
     1
281
     0
  0
BLOCK_RECORD
  5
23
330
1
100
AcDbSymbolTableRecord
100
AcDbBlockTableRecord
  2
*Paper_Space0
340
26
 70
     0
280
     1
281
     0
  0
ENDTAB
  0
ENDSEC
  0
SECTION
  2
BLOCKS
  0
BLOCK
  5
20
330
1F
100
AcDbEntity
  8
0
100
AcDbBlockBegin
  2
*Model_Space
 70
     0
 10
0.0
 20
0.0
 30
0.0
  3
*Model_Space
  1

  0
ENDBLK
  5
21
330
1F
100
AcDbEntity
  8
0
100
AcDbBlockEnd
  0
BLOCK
  5
1C
330
1B
100
AcDbEntity
 67
     1
  8
0
100
AcDbBlockBegin
  2
*Paper_Space
 70
     0
 10
0.0
 20
0.0
 30
0.0
  3
*Paper_Space
  1

  0
ENDBLK
  5
1D
330
1B
100
AcDbEntity
 67
     1
  8
0
100
AcDbBlockEnd
  0
BLOCK
  5
24
330
23
100
AcDbEntity
  8
0
100
AcDbBlockBegin
  2
*Paper_Space0
 70
     0
 10
0.0
 20
0.0
 30
0.0
  3
*Paper_Space0
  1

  0
ENDBLK
  5
25
330
23
100
AcDbEntity
  8
0
100
AcDbBlockEnd
  0
ENDSEC
  0
SECTION
  2
ENTITIES
  0
SPLINE
  5
41
330
1F
100
AcDbEntity
  8
Layer 1
370
     0
100
AcDbSpline
210
0.0
220
0.0
230
1.0
 70
    11
 71
     3
 72
    83
 73
    79
 74
     0
 42
0.0000000001
 43
0.0000000001
 12
1.0
 22
0.0
 32
0.0
 13
1.0
 23
0.0
 33
0.0
 40
0.0
 40
0.0
 40
0.0
 40
0.0
 40
1.0
 40
1.0
 40
1.0
 40
2.0
 40
2.0
 40
2.0
 40
3.0
 40
3.0
 40
3.0
 40
4.0
 40
4.0
 40
4.0
 40
5.0
 40
5.0
 40
5.0
 40
6.0
 40
6.0
 40
6.0
 40
7.0
 40
7.0
 40
7.0
 40
8.0
 40
8.0
 40
8.0
 40
9.0
 40
9.0
 40
9.0
 40
10.0
 40
10.0
 40
10.0
 40
11.0
 40
11.0
 40
11.0
 40
12.0
 40
12.0
 40
12.0
 40
13.0
 40
13.0
 40
13.0
 40
14.0
 40
14.0
 40
14.0
 40
15.0
 40
15.0
 40
15.0
 40
16.0
 40
16.0
 40
16.0
 40
17.0
 40
17.0
 40
17.0
 40
18.0
 40
18.0
 40
18.0
 40
19.0
 40
19.0
 40
19.0
 40
20.0
 40
20.0
 40
20.0
 40
21.0
 40
21.0
 40
21.0
 40
22.0
 40
22.0
 40
22.0
 40
23.0
 40
23.0
 40
23.0
 40
24.0
 40
24.0
 40
24.0
 40
25.0
 40
25.0
 40
25.0
 40
26.0
 40
26.0
 40
26.0
 40
26.0
 10
161.0030825897604
 20
-112.7261938819922
 30
0.0
 10
161.0030825897604
 20
-112.7261938819922
 30
0.0
 10
159.8012027072563
 20
-112.7261938819922
 30
0.0
 10
159.8012027072563
 20
-112.7261938819922
 30
0.0
 10
158.7557023548721
 20
-112.7261938819922
 30
0.0
 10
157.8866770187178
 20
-113.5313988242803
 30
0.0
 10
157.8070091856194
 20
-114.5738416544247
 30
0.0
 10
157.8070091856194
 20
-114.5738416544247
 30
0.0
 10
157.3972772130763
 20
-117.7347941932899
 30
0.0
 10
157.3972772130763
 20
-117.7347941932899
 30
0.0
 10
157.2646801382502
 20
-118.757738675063
 30
0.0
 10
157.1981746859906
 20
-119.7881680831702
 30
0.0
 10
157.1981746859906
 20
-120.8196705780974
 30
0.0
 10
157.1981746859906
 20
-120.8196705780974
 30
0.0
 10
157.1981746859906
 20
-123.7260831683066
 30
0.0
 10
157.1981746859906
 20
-123.7260831683066
 30
0.0
 10
157.1981746859906
 20
-124.8306566003817
 30
0.0
 10
156.3027409977969
 20
-125.7260902885754
 30
0.0
 10
155.1981675657211
 20
-125.7260902885754
 30
0.0
 10
155.1981675657211
 20
-125.7260902885754
 30
0.0
 10
144.6981499359518
 20
-125.7260902885754
 30
0.0
 10
144.6981499359518
 20
-125.7260902885754
 30
0.0
 10
143.593576503876
 20
-125.7260902885754
 30
0.0
 10
142.6981428156823
 20
-124.8306566003817
 30
0.0
 10
142.6981428156823
 20
-123.7260831683066
 30
0.0
 10
142.6981428156823
 20
-123.7260831683066
 30
0.0
 10
142.6981428156823
 20
-120.8196705780974
 30
0.0
 10
142.6981428156823
 20
-120.8196705780974
 30
0.0
 10
142.6981428156823
 20
-119.7881680831702
 30
0.0
 10
142.6316373634227
 20
-118.757738675063
 30
0.0
 10
142.4990402885966
 20
-117.7347941932899
 30
0.0
 10
142.4990402885966
 20
-117.7347941932899
 30
0.0
 10
142.0893083160534
 20
-114.5738416544247
 30
0.0
 10
142.0893083160534
 20
-114.5738416544247
 30
0.0
 10
142.0096404829551
 20
-113.5313988242803
 30
0.0
 10
141.1406151468008
 20
-112.7261938819922
 30
0.0
 10
140.0951147944166
 20
-112.7261938819922
 30
0.0
 10
140.0951147944166
 20
-112.7261938819922
 30
0.0
 10
139.1433210392272
 20
-112.7261938819922
 30
0.0
 10
139.1433210392272
 20
-112.7261938819922
 30
0.0
 10
137.48642521598
 20
-112.7261938819922
 30
0.0
 10
135.8932457633569
 20
-114.069373334689
 30
0.0
 10
135.8932457633569
 20
-115.726269157933
 30
0.0
 10
135.8932457633569
 20
-115.726269157933
 30
0.0
 10
135.8932457633569
 20
-185.3497127441546
 30
0.0
 10
135.8932457633569
 20
-185.3497127441546
 30
0.0
 10
135.8932457633569
 20
-187.0065610005602
 30
0.0
 10
137.2363866555062
 20
-188.3497018927101
 30
0.0
 10
138.8932349119124
 20
-188.3497018927101
 30
0.0
 10
138.8932349119124
 20
-188.3497018927101
 30
0.0
 10
140.1132262491969
 20
-188.3497018927101
 30
0.0
 10
140.1132262491969
 20
-188.3497018927101
 30
0.0
 10
140.795304293547
 20
-188.3497018927101
 30
0.0
 10
141.4558426957877
 20
-188.1210596110311
 30
0.0
 10
141.9909623315165
 20
-187.6981205680853
 30
0.0
 10
143.1253105463252
 20
-186.8015731115772
 30
0.0
 10
145.2171537813808
 20
-185.1368956962399
 30
0.0
 10
146.9235957566066
 20
-183.7149959606417
 30
0.0
 10
148.6441561725757
 20
-182.2813319767158
 30
0.0
 10
151.1398255999225
 20
-182.2750842067578
 30
0.0
 10
152.8670934776357
 20
-183.7006599649747
 30
0.0
 10
154.5986986101499
 20
-185.1298154142137
 30
0.0
 10
156.7262503900622
 20
-186.8082428892038
 30
0.0
 10
157.8716956261399
 20
-187.7059110884145
 30
0.0
 10
158.4052232173503
 20
-188.1240286351519
 30
0.0
 10
159.0616732196502
 20
-188.3497018927101
 30
0.0
 10
159.7395183151328
 20
-188.3497018927101
 30
0.0
 10
159.7395183151328
 20
-188.3497018927101
 30
0.0
 10
161.0030825897604
 20
-188.3497018927101
 30
0.0
 10
161.0030825897604
 20
-188.3497018927101
 30
0.0
 10
162.6599308461667
 20
-188.3497018927101
 30
0.0
 10
164.003071738316
 20
-187.0065610005602
 30
0.0
 10
164.003071738316
 20
-185.3497127441546
 30
0.0
 10
164.003071738316
 20
-185.3497127441546
 30
0.0
 10
164.003071738316
 20
-115.7261830305478
 30
0.0
 10
164.003071738316
 20
-115.7261830305478
 30
0.0
 10
164.003071738316
 20
-114.0693347741415
 30
0.0
 10
162.6599308461667
 20
-112.7261938819922
 30
0.0
 10
161.0030825897604
 20
-112.7261938819922
 30
0.0
  0
SPLINE
  5
42
330
1F
100
AcDbEntity
  8
Layer 1
370
     0
100
AcDbSpline
210
0.0
220
0.0
230
1.0
 70
    11
 71
     3
 72
    23
 73
    19
 74
     0
 42
0.0000000001
 43
0.0000000001
 12
1.0
 22
0.0
 32
0.0
 13
1.0
 23
0.0
 33
0.0
 40
0.0
 40
0.0
 40
0.0
 40
0.0
 40
1.0
 40
1.0
 40
1.0
 40
2.0
 40
2.0
 40
2.0
 40
3.0
 40
3.0
 40
3.0
 40
4.0
 40
4.0
 40
4.0
 40
5.0
 40
5.0
 40
5.0
 40
6.0
 40
6.0
 40
6.0
 40
6.0
 10
157.4271337652424
 20
-143.8947093933369
 30
0.0
 10
158.2590080529594
 20
-143.1467016488415
 30
0.0
 10
159.6814664469709
 20
-143.6764722836803
 30
0.0
 10
159.6814664469709
 20
-144.7343362224883
 30
0.0
 10
159.6814664469709
 20
-144.7343362224883
 30
0.0
 10
159.6814664469709
 20
-153.5138132507296
 30
0.0
 10
159.6814664469709
 20
-153.5138132507296
 30
0.0
 10
159.6814664469709
 20
-154.5716567342853
 30
0.0
 10
158.2590080529594
 20
-155.101468279628
 30
0.0
 10
157.4271337652424
 20
-154.3534400798771
 30
0.0
 10
157.4271337652424
 20
-154.3534400798771
 30
0.0
 10
152.5450372766611
 20
-149.963660655249
 30
0.0
 10
152.5450372766611
 20
-149.963660655249
 30
0.0
 10
152.0293194016297
 20
-149.4999604922651
 30
0.0
 10
152.0293194016297
 20
-148.7481480704428
 30
0.0
 10
152.5450372766611
 20
-148.2844479074596
 30
0.0
 10
152.5450372766611
 20
-148.2844479074596
 30
0.0
 10
157.4271337652424
 20
-143.8947093933369
 30
0.0
 10
157.4271337652424
 20
-143.8947093933369
 30
0.0
  0
SPLINE
  5
43
330
1F
100
AcDbEntity
  8
Layer 1
370
     0
100
AcDbSpline
210
0.0
220
0.0
230
1.0
 70
    11
 71
     3
 72
    23
 73
    19
 74
     0
 42
0.0000000001
 43
0.0000000001
 12
1.0
 22
0.0
 32
0.0
 13
1.0
 23
0.0
 33
0.0
 40
0.0
 40
0.0
 40
0.0
 40
0.0
 40
1.0
 40
1.0
 40
1.0
 40
2.0
 40
2.0
 40
2.0
 40
3.0
 40
3.0
 40
3.0
 40
4.0
 40
4.0
 40
4.0
 40
5.0
 40
5.0
 40
5.0
 40
6.0
 40
6.0
 40
6.0
 40
6.0
 10
154.8302164820926
 20
-159.7119803549592
 30
0.0
 10
154.8302164820926
 20
-159.7119803549592
 30
0.0
 10
145.0661053259494
 20
-159.7119803549592
 30
0.0
 10
145.0661053259494
 20
-159.7119803549592
 30
0.0
 10
143.8896009113675
 20
-159.7119803549592
 30
0.0
 10
143.3004077623737
 20
-158.4329542051049
 30
0.0
 10
144.1322820500862
 20
-157.6849464606095
 30
0.0
 10
144.1322820500862
 20
-157.6849464606095
 30
0.0
 10
149.014378538668
 20
-153.2952079464906
 30
0.0
 10
149.014378538668
 20
-153.2952079464906
 30
0.0
 10
149.5300964136995
 20
-152.8314873282526
 30
0.0
 10
150.3662253943419
 20
-152.8314873282526
 30
0.0
 10
150.8819432693739
 20
-153.2952079464906
 30
0.0
 10
150.8819432693739
 20
-153.2952079464906
 30
0.0
 10
155.7640397579551
 20
-157.6849669158649
 30
0.0
 10
155.7640397579551
 20
-157.6849669158649
 30
0.0
 10
156.5959958666883
 20
-158.4329746603603
 30
0.0
 10
156.0068027176906
 20
-159.7119803549592
 30
0.0
 10
154.8302164820926
 20
-159.7119803549592
 30
0.0
  0
SPLINE
  5
44
330
1F
100
AcDbEntity
  8
Layer 1
370
     0
100
AcDbSpline
210
0.0
220
0.0
230
1.0
 70
    11
 71
     3
 72
    23
 73
    19
 74
     0
 42
0.0000000001
 43
0.0000000001
 12
1.0
 22
0.0
 32
0.0
 13
1.0
 23
0.0
 33
0.0
 40
0.0
 40
0.0
 40
0.0
 40
0.0
 40
1.0
 40
1.0
 40
1.0
 40
2.0
 40
2.0
 40
2.0
 40
3.0
 40
3.0
 40
3.0
 40
4.0
 40
4.0
 40
4.0
 40
5.0
 40
5.0
 40
5.0
 40
6.0
 40
6.0
 40
6.0
 40
6.0
 10
155.7640365281761
 20
-165.4526459509626
 30
0.0
 10
155.7640365281761
 20
-165.4526459509626
 30
0.0
 10
150.881940039598
 20
-169.4416660305313
 30
0.0
 10
150.881940039598
 20
-169.4416660305313
 30
0.0
 10
150.3662221645628
 20
-169.8630851825793
 30
0.0
 10
149.5300931839236
 20
-169.8630851825793
 30
0.0
 10
149.0143753088883
 20
-169.4416660305313
 30
0.0
 10
149.0143753088883
 20
-169.4416660305313
 30
0.0
 10
144.1322788203103
 20
-165.4526459509626
 30
0.0
 10
144.1322788203103
 20
-165.4526459509626
 30
0.0
 10
143.3003636220875
 20
-164.7729178457995
 30
0.0
 10
143.889556771082
 20
-163.6106911988198
 30
0.0
 10
145.0661020961736
 20
-163.6106911988198
 30
0.0
 10
145.0661020961736
 20
-163.6106911988198
 30
0.0
 10
154.8302541628232
 20
-163.6106911988198
 30
0.0
 10
154.8302541628232
 20
-163.6106911988198
 30
0.0
 10
156.0067585774051
 20
-163.6106911988198
 30
0.0
 10
156.5959108158925
 20
-164.7729587563091
 30
0.0
 10
155.7640365281761
 20
-165.4526459509626
 30
0.0
  0
SPLINE
  5
45
330
1F
100
AcDbEntity
  8
Layer 1
370
     0
100
AcDbSpline
210
0.0
220
0.0
230
1.0
 70
    11
 71
     3
 72
    23
 73
    19
 74
     0
 42
0.0000000001
 43
0.0000000001
 12
1.0
 22
0.0
 32
0.0
 13
1.0
 23
0.0
 33
0.0
 40
0.0
 40
0.0
 40
0.0
 40
0.0
 40
1.0
 40
1.0
 40
1.0
 40
2.0
 40
2.0
 40
2.0
 40
3.0
 40
3.0
 40
3.0
 40
4.0
 40
4.0
 40
4.0
 40
5.0
 40
5.0
 40
5.0
 40
6.0
 40
6.0
 40
6.0
 40
6.0
 10
144.1323638711061
 20
-140.5631416468433
 30
0.0
 10
143.3004077623737
 20
-139.815133902348
 30
0.0
 10
143.8896009113675
 20
-138.5361486630007
 30
0.0
 10
145.0661053259494
 20
-138.5361486630007
 30
0.0
 10
145.0661053259494
 20
-138.5361486630007
 30
0.0
 10
154.8302983031087
 20
-138.5361486630007
 30
0.0
 10
154.8302983031087
 20
-138.5361486630007
 30
0.0
 10
156.0068027176906
 20
-138.5361486630007
 30
0.0
 10
156.5959958666883
 20
-139.815133902348
 30
0.0
 10
155.7640397579551
 20
-140.5631621020981
 30
0.0
 10
155.7640397579551
 20
-140.5631621020981
 30
0.0
 10
150.8819432693739
 20
-144.9529006162202
 30
0.0
 10
150.8819432693739
 20
-144.9529006162202
 30
0.0
 10
150.3662253943419
 20
-145.4166416897105
 30
0.0
 10
149.5300964136995
 20
-145.4166416897105
 30
0.0
 10
149.014378538668
 20
-144.9528801609654
 30
0.0
 10
149.014378538668
 20
-144.9528801609654
 30
0.0
 10
144.1323638711061
 20
-140.5631416468433
 30
0.0
 10
144.1323638711061
 20
-140.5631416468433
 30
0.0
  0
SPLINE
  5
46
330
1F
100
AcDbEntity
  8
Layer 1
370
     0
100
AcDbSpline
210
0.0
220
0.0
230
1.0
 70
    11
 71
     3
 72
    23
 73
    19
 74
     0
 42
0.0000000001
 43
0.0000000001
 12
1.0
 22
0.0
 32
0.0
 13
1.0
 23
0.0
 33
0.0
 40
0.0
 40
0.0
 40
0.0
 40
0.0
 40
1.0
 40
1.0
 40
1.0
 40
2.0
 40
2.0
 40
2.0
 40
3.0
 40
3.0
 40
3.0
 40
4.0
 40
4.0
 40
4.0
 40
5.0
 40
5.0
 40
5.0
 40
6.0
 40
6.0
 40
6.0
 40
6.0
 10
143.4481679077355
 20
-128.7742461783841
 30
0.0
 10
143.4481679077355
 20
-128.7742461783841
 30
0.0
 10
156.4481495939374
 20
-128.7742461783841
 30
0.0
 10
156.4481495939374
 20
-128.7742461783841
 30
0.0
 10
157.0004845276113
 20
-128.7742461783841
 30
0.0
 10
157.4481746859196
 20
-129.2219794003846
 30
0.0
 10
157.4481746859196
 20
-129.7742712703631
 30
0.0
 10
157.4481746859196
 20
-130.3265200766487
 30
0.0
 10
157.0004845276113
 20
-130.7742532986498
 30
0.0
 10
156.4481495939374
 20
-130.7742532986498
 30
0.0
 10
156.4481495939374
 20
-130.7742532986498
 30
0.0
 10
143.4481679077355
 20
-130.7742532986498
 30
0.0
 10
143.4481679077355
 20
-130.7742532986498
 30
0.0
 10
142.89591910145
 20
-130.7742532986498
 30
0.0
 10
142.4481858794456
 20
-130.3265200766487
 30
0.0
 10
142.4481858794456
 20
-129.7742712703631
 30
0.0
 10
142.4481858794456
 20
-129.2219794003846
 30
0.0
 10
142.89591910145
 20
-128.7742461783841
 30
0.0
 10
143.4481679077355
 20
-128.7742461783841
 30
0.0
  0
SPLINE
  5
47
330
1F
100
AcDbEntity
  8
Layer 1
370
     0
100
AcDbSpline
210
0.0
220
0.0
230
1.0
 70
    11
 71
     3
 72
    29
 73
    25
 74
     0
 42
0.0000000001
 43
0.0000000001
 12
1.0
 22
0.0
 32
0.0
 13
1.0
 23
0.0
 33
0.0
 40
0.0
 40
0.0
 40
0.0
 40
0.0
 40
1.0
 40
1.0
 40
1.0
 40
2.0
 40
2.0
 40
2.0
 40
3.0
 40
3.0
 40
3.0
 40
4.0
 40
4.0
 40
4.0
 40
5.0
 40
5.0
 40
5.0
 40
6.0
 40
6.0
 40
6.0
 40
7.0
 40
7.0
 40
7.0
 40
8.0
 40
8.0
 40
8.0
 40
8.0
 10
142.4481858794456
 20
-134.2742119295035
 30
0.0
 10
142.4481858794456
 20
-133.721963123218
 30
0.0
 10
142.89591910145
 20
-133.2742729649098
 30
0.0
 10
143.4481679077355
 20
-133.2742729649098
 30
0.0
 10
143.4481679077355
 20
-133.2742729649098
 30
0.0
 10
156.4481495939374
 20
-133.2742729649098
 30
0.0
 10
156.4481495939374
 20
-133.2742729649098
 30
0.0
 10
157.0004845276113
 20
-133.2742729649098
 30
0.0
 10
157.4481746859196
 20
-133.721963123218
 30
0.0
 10
157.4481746859196
 20
-134.2742119295035
 30
0.0
 10
157.4481746859196
 20
-134.2742119295035
 30
0.0
 10
157.4481746859196
 20
-134.2742549931965
 30
0.0
 10
157.4481746859196
 20
-134.2742549931965
 30
0.0
 10
157.4481746859196
 20
-134.8265468631749
 30
0.0
 10
157.0004845276113
 20
-135.2742370214831
 30
0.0
 10
156.4481495939374
 20
-135.2742370214831
 30
0.0
 10
156.4481495939374
 20
-135.2742370214831
 30
0.0
 10
143.4481679077355
 20
-135.2742370214831
 30
0.0
 10
143.4481679077355
 20
-135.2742370214831
 30
0.0
 10
142.89591910145
 20
-135.2742370214831
 30
0.0
 10
142.4481858794456
 20
-134.8265468631749
 30
0.0
 10
142.4481858794456
 20
-134.2742549931965
 30
0.0
 10
142.4481858794456
 20
-134.2742549931965
 30
0.0
 10
142.4481858794456
 20
-134.2742119295035
 30
0.0
 10
142.4481858794456
 20
-134.2742119295035
 30
0.0
  0
SPLINE
  5
48
330
1F
100
AcDbEntity
  8
Layer 1
370
     0
100
AcDbSpline
210
0.0
220
0.0
230
1.0
 70
    11
 71
     3
 72
    23
 73
    19
 74
     0
 42
0.0000000001
 43
0.0000000001
 12
1.0
 22
0.0
 32
0.0
 13
1.0
 23
0.0
 33
0.0
 40
0.0
 40
0.0
 40
0.0
 40
0.0
 40
1.0
 40
1.0
 40
1.0
 40
2.0
 40
2.0
 40
2.0
 40
3.0
 40
3.0
 40
3.0
 40
4.0
 40
4.0
 40
4.0
 40
5.0
 40
5.0
 40
5.0
 40
6.0
 40
6.0
 40
6.0
 40
6.0
 10
142.4692698638157
 20
-143.8946889380853
 30
0.0
 10
142.4692698638157
 20
-143.8946889380853
 30
0.0
 10
147.351366352397
 20
-148.2844479074596
 30
0.0
 10
147.351366352397
 20
-148.2844479074596
 30
0.0
 10
147.8670842274322
 20
-148.7481480704428
 30
0.0
 10
147.8670842274322
 20
-149.4999604922651
 30
0.0
 10
147.351366352397
 20
-149.963660655249
 30
0.0
 10
147.351366352397
 20
-149.963660655249
 30
0.0
 10
142.4692698638157
 20
-154.3533991693714
 30
0.0
 10
142.4692698638157
 20
-154.3533991693714
 30
0.0
 10
141.6373137550826
 20
-155.1014478243725
 30
0.0
 10
140.2149371820871
 20
-154.5716362790273
 30
0.0
 10
140.2149371820871
 20
-153.5137723402199
 30
0.0
 10
140.2149371820871
 20
-153.5137723402199
 30
0.0
 10
140.2149371820871
 20
-144.7343157672329
 30
0.0
 10
140.2149371820871
 20
-144.7343157672329
 30
0.0
 10
140.2149371820871
 20
-143.6764518284255
 30
0.0
 10
141.6373955761026
 20
-143.1466607383351
 30
0.0
 10
142.4692698638157
 20
-143.8946889380853
 30
0.0
  0
SPLINE
  5
49
330
1F
100
AcDbEntity
  8
Layer 1
370
     0
100
AcDbSpline
210
0.0
220
0.0
230
1.0
 70
    11
 71
     3
 72
    17
 73
    13
 74
     0
 42
0.0000000001
 43
0.0000000001
 12
1.0
 22
0.0
 32
0.0
 13
1.0
 23
0.0
 33
0.0
 40
0.0
 40
0.0
 40
0.0
 40
0.0
 40
1.0
 40
1.0
 40
1.0
 40
2.0
 40
2.0
 40
2.0
 40
3.0
 40
3.0
 40
3.0
 40
4.0
 40
4.0
 40
4.0
 40
4.0
 10
139.2854312279938
 20
-114.4518144056434
 30
0.0
 10
140.1138905648112
 20
-114.4518144056434
 30
0.0
 10
140.7854258022716
 20
-115.1233927067961
 30
0.0
 10
140.7854258022716
 20
-115.9518089799212
 30
0.0
 10
140.7854258022716
 20
-116.7801821893495
 30
0.0
 10
140.1138905648112
 20
-117.4518035541989
 30
0.0
 10
139.2854312279938
 20
-117.4518035541989
 30
0.0
 10
138.4570580185655
 20
-117.4518035541989
 30
0.0
 10
137.785436653716
 20
-116.7801821893495
 30
0.0
 10
137.785436653716
 20
-115.9518089799212
 30
0.0
 10
137.785436653716
 20
-115.1233927067961
 30
0.0
 10
138.4570580185655
 20
-114.4518144056434
 30
0.0
 10
139.2854312279938
 20
-114.4518144056434
 30
0.0
  0
SPLINE
  5
4A
330
1F
100
AcDbEntity
  8
Layer 1
370
     0
100
AcDbSpline
210
0.0
220
0.0
230
1.0
 70
    11
 71
     3
 72
    17
 73
    13
 74
     0
 42
0.0000000001
 43
0.0000000001
 12
1.0
 22
0.0
 32
0.0
 13
1.0
 23
0.0
 33
0.0
 40
0.0
 40
0.0
 40
0.0
 40
0.0
 40
1.0
 40
1.0
 40
1.0
 40
2.0
 40
2.0
 40
2.0
 40
3.0
 40
3.0
 40
3.0
 40
4.0
 40
4.0
 40
4.0
 40
4.0
 10
139.2854312279938
 20
-186.6472065725063
 30
0.0
 10
138.4570580185655
 20
-186.6472065725063
 30
0.0
 10
137.785436653716
 20
-185.9756282713491
 30
0.0
 10
137.785436653716
 20
-185.147168934535
 30
0.0
 10
137.785436653716
 20
-184.3187957251066
 30
0.0
 10
138.4570580185655
 20
-183.6471743602572
 30
0.0
 10
139.2854312279938
 20
-183.6471743602572
 30
0.0
 10
140.1138905648112
 20
-183.6471743602572
 30
0.0
 10
140.7854258022716
 20
-184.3187957251066
 30
0.0
 10
140.7854258022716
 20
-185.147168934535
 30
0.0
 10
140.7854258022716
 20
-185.9756282713491
 30
0.0
 10
140.1138905648112
 20
-186.6472065725063
 30
0.0
 10
139.2854312279938
 20
-186.6472065725063
 30
0.0
  0
SPLINE
  5
4B
330
1F
100
AcDbEntity
  8
Layer 1
370
     0
100
AcDbSpline
210
0.0
220
0.0
230
1.0
 70
    11
 71
     3
 72
    23
 73
    19
 74
     0
 42
0.0000000001
 43
0.0000000001
 12
1.0
 22
0.0
 32
0.0
 13
1.0
 23
0.0
 33
0.0
 40
0.0
 40
0.0
 40
0.0
 40
0.0
 40
1.0
 40
1.0
 40
1.0
 40
2.0
 40
2.0
 40
2.0
 40
3.0
 40
3.0
 40
3.0
 40
4.0
 40
4.0
 40
4.0
 40
5.0
 40
5.0
 40
5.0
 40
6.0
 40
6.0
 40
6.0
 40
6.0
 10
142.4692257235296
 20
-177.9840666597707
 30
0.0
 10
141.6373105253068
 20
-178.6637947649339
 30
0.0
 10
140.2148521312952
 20
-178.1823598963466
 30
0.0
 10
140.2148521312952
 20
-177.2210856690205
 30
0.0
 10
140.2148521312952
 20
-177.2210856690205
 30
0.0
 10
140.2148521312952
 20
-169.243045509882
 30
0.0
 10
140.2148521312952
 20
-169.243045509882
 30
0.0
 10
140.2148521312952
 20
-168.2817712825571
 30
0.0
 10
141.6373105253068
 20
-167.8003364139724
 30
0.0
 10
142.4692666340399
 20
-168.480064519133
 30
0.0
 10
142.4692666340399
 20
-168.480064519133
 30
0.0
 10
147.3513222121115
 20
-172.46912550921
 30
0.0
 10
147.3513222121115
 20
-172.46912550921
 30
0.0
 10
147.8669991766364
 20
-172.8905037507522
 30
0.0
 10
147.8669991766364
 20
-173.5736683386599
 30
0.0
 10
147.3513222121115
 20
-173.9950465802021
 30
0.0
 10
147.3513222121115
 20
-173.9950465802021
 30
0.0
 10
142.4692257235296
 20
-177.9840666597707
 30
0.0
 10
142.4692257235296
 20
-177.9840666597707
 30
0.0
  0
SPLINE
  5
4C
330
1F
100
AcDbEntity
  8
Layer 1
370
     0
100
AcDbSpline
210
0.0
220
0.0
230
1.0
 70
    11
 71
     3
 72
    17
 73
    13
 74
     0
 42
0.0000000001
 43
0.0000000001
 12
1.0
 22
0.0
 32
0.0
 13
1.0
 23
0.0
 33
0.0
 40
0.0
 40
0.0
 40
0.0
 40
0.0
 40
1.0
 40
1.0
 40
1.0
 40
2.0
 40
2.0
 40
2.0
 40
3.0
 40
3.0
 40
3.0
 40
4.0
 40
4.0
 40
4.0
 40
4.0
 10
149.9481113807873
 20
-179.9920662272649
 30
0.0
 10
148.8435440423125
 20
-179.9920662272649
 30
0.0
 10
147.9480941557946
 20
-179.096616340747
 30
0.0
 10
147.9480941557946
 20
-177.9920490022761
 30
0.0
 10
147.9480941557946
 20
-176.8874816638052
 30
0.0
 10
148.8435440423125
 20
-175.9920662282671
 30
0.0
 10
149.9481113807873
 20
-175.9920662282671
 30
0.0
 10
151.0526787192581
 20
-175.9920662282671
 30
0.0
 10
151.9480941547963
 20
-176.8874816638052
 30
0.0
 10
151.9480941547963
 20
-177.9920490022761
 30
0.0
 10
151.9480941547963
 20
-179.096616340747
 30
0.0
 10
151.0526787192581
 20
-179.9920662272649
 30
0.0
 10
149.9481113807873
 20
-179.9920662272649
 30
0.0
  0
SPLINE
  5
4D
330
1F
100
AcDbEntity
  8
Layer 1
370
     0
100
AcDbSpline
210
0.0
220
0.0
230
1.0
 70
    11
 71
     3
 72
    23
 73
    19
 74
     0
 42
0.0000000001
 43
0.0000000001
 12
1.0
 22
0.0
 32
0.0
 13
1.0
 23
0.0
 33
0.0
 40
0.0
 40
0.0
 40
0.0
 40
0.0
 40
1.0
 40
1.0
 40
1.0
 40
2.0
 40
2.0
 40
2.0
 40
3.0
 40
3.0
 40
3.0
 40
4.0
 40
4.0
 40
4.0
 40
5.0
 40
5.0
 40
5.0
 40
6.0
 40
6.0
 40
6.0
 40
6.0
 10
157.4270487144472
 20
-177.9841075702804
 30
0.0
 10
157.4270487144472
 20
-177.9841075702804
 30
0.0
 10
152.5449522258685
 20
-173.9950465802021
 30
0.0
 10
152.5449522258685
 20
-173.9950465802021
 30
0.0
 10
152.0292343508339
 20
-173.5736683386599
 30
0.0
 10
152.0292343508339
 20
-172.8905037507522
 30
0.0
 10
152.5449522258685
 20
-172.46912550921
 30
0.0
 10
152.5449522258685
 20
-172.46912550921
 30
0.0
 10
157.4270896249568
 20
-168.4801054296427
 30
0.0
 10
157.4270896249568
 20
-168.4801054296427
 30
0.0
 10
158.2590048231797
 20
-167.8003364139724
 30
0.0
 10
159.6814223066848
 20
-168.2817712825571
 30
0.0
 10
159.6814223066848
 20
-169.2430864203916
 30
0.0
 10
159.6814223066848
 20
-169.2430864203916
 30
0.0
 10
159.6814223066848
 20
-177.2211265795314
 30
0.0
 10
159.6814223066848
 20
-177.2211265795314
 30
0.0
 10
159.6814223066848
 20
-178.1824008068563
 30
0.0
 10
158.2590048231797
 20
-178.6637947649339
 30
0.0
 10
157.4270487144472
 20
-177.9841075702804
 30
0.0
  0
SPLINE
  5
4E
330
1F
100
AcDbEntity
  8
Layer 1
370
     0
100
AcDbSpline
210
0.0
220
0.0
230
1.0
 70
    11
 71
     3
 72
    17
 73
    13
 74
     0
 42
0.0000000001
 43
0.0000000001
 12
1.0
 22
0.0
 32
0.0
 13
1.0
 23
0.0
 33
0.0
 40
0.0
 40
0.0
 40
0.0
 40
0.0
 40
1.0
 40
1.0
 40
1.0
 40
2.0
 40
2.0
 40
2.0
 40
3.0
 40
3.0
 40
3.0
 40
4.0
 40
4.0
 40
4.0
 40
4.0
 10
160.5133039440575
 20
-186.6241244327551
 30
0.0
 10
159.6849307346291
 20
-186.6241244327551
 30
0.0
 10
159.0133093697797
 20
-185.952546131598
 30
0.0
 10
159.0133093697797
 20
-185.1240867947838
 30
0.0
 10
159.0133093697797
 20
-184.2957135853555
 30
0.0
 10
159.6849307346291
 20
-183.624092220506
 30
0.0
 10
160.5133039440575
 20
-183.624092220506
 30
0.0
 10
161.3417202171781
 20
-183.624092220506
 30
0.0
 10
162.0132985183352
 20
-184.2957135853555
 30
0.0
 10
162.0132985183352
 20
-185.1240867947838
 30
0.0
 10
162.0132985183352
 20
-185.952546131598
 30
0.0
 10
161.3417202171781
 20
-186.6241244327551
 30
0.0
 10
160.5133039440575
 20
-186.6241244327551
 30
0.0
  0
SPLINE
  5
4F
330
1F
100
AcDbEntity
  8
Layer 1
370
     0
100
AcDbSpline
210
0.0
220
0.0
230
1.0
 70
    11
 71
     3
 72
    17
 73
    13
 74
     0
 42
0.0000000001
 43
0.0000000001
 12
1.0
 22
0.0
 32
0.0
 13
1.0
 23
0.0
 33
0.0
 40
0.0
 40
0.0
 40
0.0
 40
0.0
 40
1.0
 40
1.0
 40
1.0
 40
2.0
 40
2.0
 40
2.0
 40
3.0
 40
3.0
 40
3.0
 40
4.0
 40
4.0
 40
4.0
 40
4.0
 10
160.6108862736791
 20
-117.4518035541989
 30
0.0
 10
159.7825130642508
 20
-117.4518035541989
 30
0.0
 10
159.1108916994013
 20
-116.7801821893495
 30
0.0
 10
159.1108916994013
 20
-115.9518089799212
 30
0.0
 10
159.1108916994013
 20
-115.1233927067961
 30
0.0
 10
159.7825130642508
 20
-114.4518144056434
 30
0.0
 10
160.6108862736791
 20
-114.4518144056434
 30
0.0
 10
161.4393025467997
 20
-114.4518144056434
 30
0.0
 10
162.1108808479569
 20
-115.1233927067961
 30
0.0
 10
162.1108808479569
 20
-115.9518089799212
 30
0.0
 10
162.1108808479569
 20
-116.7801821893495
 30
0.0
 10
161.4393025467997
 20
-117.4518035541989
 30
0.0
 10
160.6108862736791
 20
-117.4518035541989
 30
0.0
  0
HATCH
  5
50
330
1F
100
AcDbEntity
  8
Layer 1
 62
   231
420
 16739272
100
AcDbHatch
 10
0.0
 20
0.0
 30
0.0
210
0.0
220
0.0
230
1.0
  2
SOLID
 70
     1
 71
     0
 91
       15
 92
        1
 93
        1
 72
     4
 94
        3
 73
     0
 74
     1
 95
       83
 96
       79
 40
0.0
 40
0.0
 40
0.0
 40
0.0
 40
1.0
 40
1.0
 40
1.0
 40
2.0
 40
2.0
 40
2.0
 40
3.0
 40
3.0
 40
3.0
 40
4.0
 40
4.0
 40
4.0
 40
5.0
 40
5.0
 40
5.0
 40
6.0
 40
6.0
 40
6.0
 40
7.0
 40
7.0
 40
7.0
 40
8.0
 40
8.0
 40
8.0
 40
9.0
 40
9.0
 40
9.0
 40
10.0
 40
10.0
 40
10.0
 40
11.0
 40
11.0
 40
11.0
 40
12.0
 40
12.0
 40
12.0
 40
13.0
 40
13.0
 40
13.0
 40
14.0
 40
14.0
 40
14.0
 40
15.0
 40
15.0
 40
15.0
 40
16.0
 40
16.0
 40
16.0
 40
17.0
 40
17.0
 40
17.0
 40
18.0
 40
18.0
 40
18.0
 40
19.0
 40
19.0
 40
19.0
 40
20.0
 40
20.0
 40
20.0
 40
21.0
 40
21.0
 40
21.0
 40
22.0
 40
22.0
 40
22.0
 40
23.0
 40
23.0
 40
23.0
 40
24.0
 40
24.0
 40
24.0
 40
25.0
 40
25.0
 40
25.0
 40
26.0
 40
26.0
 40
26.0
 40
26.0
 10
161.0030825897604
 20
-112.7261938819922
 10
161.0030825897604
 20
-112.7261938819922
 10
159.8012027072563
 20
-112.7261938819922
 10
159.8012027072563
 20
-112.7261938819922
 10
158.7557023548721
 20
-112.7261938819922
 10
157.8866770187178
 20
-113.5313988242803
 10
157.8070091856194
 20
-114.5738416544247
 10
157.8070091856194
 20
-114.5738416544247
 10
157.3972772130763
 20
-117.7347941932899
 10
157.3972772130763
 20
-117.7347941932899
 10
157.2646801382502
 20
-118.757738675063
 10
157.1981746859906
 20
-119.7881680831702
 10
157.1981746859906
 20
-120.8196705780974
 10
157.1981746859906
 20
-120.8196705780974
 10
157.1981746859906
 20
-123.7260831683066
 10
157.1981746859906
 20
-123.7260831683066
 10
157.1981746859906
 20
-124.8306566003817
 10
156.3027409977969
 20
-125.7260902885754
 10
155.1981675657211
 20
-125.7260902885754
 10
155.1981675657211
 20
-125.7260902885754
 10
144.6981499359518
 20
-125.7260902885754
 10
144.6981499359518
 20
-125.7260902885754
 10
143.593576503876
 20
-125.7260902885754
 10
142.6981428156823
 20
-124.8306566003817
 10
142.6981428156823
 20
-123.7260831683066
 10
142.6981428156823
 20
-123.7260831683066
 10
142.6981428156823
 20
-120.8196705780974
 10
142.6981428156823
 20
-120.8196705780974
 10
142.6981428156823
 20
-119.7881680831702
 10
142.6316373634227
 20
-118.757738675063
 10
142.4990402885966
 20
-117.7347941932899
 10
142.4990402885966
 20
-117.7347941932899
 10
142.0893083160534
 20
-114.5738416544247
 10
142.0893083160534
 20
-114.5738416544247
 10
142.0096404829551
 20
-113.5313988242803
 10
141.1406151468008
 20
-112.7261938819922
 10
140.0951147944166
 20
-112.7261938819922
 10
140.0951147944166
 20
-112.7261938819922
 10
139.1433210392272
 20
-112.7261938819922
 10
139.1433210392272
 20
-112.7261938819922
 10
137.48642521598
 20
-112.7261938819922
 10
135.8932457633569
 20
-114.069373334689
 10
135.8932457633569
 20
-115.726269157933
 10
135.8932457633569
 20
-115.726269157933
 10
135.8932457633569
 20
-185.3497127441546
 10
135.8932457633569
 20
-185.3497127441546
 10
135.8932457633569
 20
-187.0065610005602
 10
137.2363866555062
 20
-188.3497018927101
 10
138.8932349119124
 20
-188.3497018927101
 10
138.8932349119124
 20
-188.3497018927101
 10
140.1132262491969
 20
-188.3497018927101
 10
140.1132262491969
 20
-188.3497018927101
 10
140.795304293547
 20
-188.3497018927101
 10
141.4558426957877
 20
-188.1210596110311
 10
141.9909623315165
 20
-187.6981205680853
 10
143.1253105463252
 20
-186.8015731115772
 10
145.2171537813808
 20
-185.1368956962399
 10
146.9235957566066
 20
-183.7149959606417
 10
148.6441561725757
 20
-182.2813319767158
 10
151.1398255999225
 20
-182.2750842067578
 10
152.8670934776357
 20
-183.7006599649747
 10
154.5986986101499
 20
-185.1298154142137
 10
156.7262503900622
 20
-186.8082428892038
 10
157.8716956261399
 20
-187.7059110884145
 10
158.4052232173503
 20
-188.1240286351519
 10
159.0616732196502
 20
-188.3497018927101
 10
159.7395183151328
 20
-188.3497018927101
 10
159.7395183151328
 20
-188.3497018927101
 10
161.0030825897604
 20
-188.3497018927101
 10
161.0030825897604
 20
-188.3497018927101
 10
162.6599308461667
 20
-188.3497018927101
 10
164.003071738316
 20
-187.0065610005602
 10
164.003071738316
 20
-185.3497127441546
 10
164.003071738316
 20
-185.3497127441546
 10
164.003071738316
 20
-115.7261830305478
 10
164.003071738316
 20
-115.7261830305478
 10
164.003071738316
 20
-114.0693347741415
 10
162.6599308461667
 20
-112.7261938819922
 10
161.0030825897604
 20
-112.7261938819922
 97
        0
 97
        0
 92
        1
 93
        1
 72
     4
 94
        3
 73
     0
 74
     1
 95
       23
 96
       19
 40
0.0
 40
0.0
 40
0.0
 40
0.0
 40
1.0
 40
1.0
 40
1.0
 40
2.0
 40
2.0
 40
2.0
 40
3.0
 40
3.0
 40
3.0
 40
4.0
 40
4.0
 40
4.0
 40
5.0
 40
5.0
 40
5.0
 40
6.0
 40
6.0
 40
6.0
 40
6.0
 10
157.4271337652424
 20
-143.8947093933369
 10
158.2590080529594
 20
-143.1467016488415
 10
159.6814664469709
 20
-143.6764722836803
 10
159.6814664469709
 20
-144.7343362224883
 10
159.6814664469709
 20
-144.7343362224883
 10
159.6814664469709
 20
-153.5138132507296
 10
159.6814664469709
 20
-153.5138132507296
 10
159.6814664469709
 20
-154.5716567342853
 10
158.2590080529594
 20
-155.101468279628
 10
157.4271337652424
 20
-154.3534400798771
 10
157.4271337652424
 20
-154.3534400798771
 10
152.5450372766611
 20
-149.963660655249
 10
152.5450372766611
 20
-149.963660655249
 10
152.0293194016297
 20
-149.4999604922651
 10
152.0293194016297
 20
-148.7481480704428
 10
152.5450372766611
 20
-148.2844479074596
 10
152.5450372766611
 20
-148.2844479074596
 10
157.4271337652424
 20
-143.8947093933369
 10
157.4271337652424
 20
-143.8947093933369
 97
        0
 97
        0
 92
        1
 93
        1
 72
     4
 94
        3
 73
     0
 74
     1
 95
       23
 96
       19
 40
0.0
 40
0.0
 40
0.0
 40
0.0
 40
1.0
 40
1.0
 40
1.0
 40
2.0
 40
2.0
 40
2.0
 40
3.0
 40
3.0
 40
3.0
 40
4.0
 40
4.0
 40
4.0
 40
5.0
 40
5.0
 40
5.0
 40
6.0
 40
6.0
 40
6.0
 40
6.0
 10
154.8302164820926
 20
-159.7119803549592
 10
154.8302164820926
 20
-159.7119803549592
 10
145.0661053259494
 20
-159.7119803549592
 10
145.0661053259494
 20
-159.7119803549592
 10
143.8896009113675
 20
-159.7119803549592
 10
143.3004077623737
 20
-158.4329542051049
 10
144.1322820500862
 20
-157.6849464606095
 10
144.1322820500862
 20
-157.6849464606095
 10
149.014378538668
 20
-153.2952079464906
 10
149.014378538668
 20
-153.2952079464906
 10
149.5300964136995
 20
-152.8314873282526
 10
150.3662253943419
 20
-152.8314873282526
 10
150.8819432693739
 20
-153.2952079464906
 10
150.8819432693739
 20
-153.2952079464906
 10
155.7640397579551
 20
-157.6849669158649
 10
155.7640397579551
 20
-157.6849669158649
 10
156.5959958666883
 20
-158.4329746603603
 10
156.0068027176906
 20
-159.7119803549592
 10
154.8302164820926
 20
-159.7119803549592
 97
        0
 97
        0
 92
        1
 93
        1
 72
     4
 94
        3
 73
     0
 74
     1
 95
       23
 96
       19
 40
0.0
 40
0.0
 40
0.0
 40
0.0
 40
1.0
 40
1.0
 40
1.0
 40
2.0
 40
2.0
 40
2.0
 40
3.0
 40
3.0
 40
3.0
 40
4.0
 40
4.0
 40
4.0
 40
5.0
 40
5.0
 40
5.0
 40
6.0
 40
6.0
 40
6.0
 40
6.0
 10
155.7640365281761
 20
-165.4526459509626
 10
155.7640365281761
 20
-165.4526459509626
 10
150.881940039598
 20
-169.4416660305313
 10
150.881940039598
 20
-169.4416660305313
 10
150.3662221645628
 20
-169.8630851825793
 10
149.5300931839236
 20
-169.8630851825793
 10
149.0143753088883
 20
-169.4416660305313
 10
149.0143753088883
 20
-169.4416660305313
 10
144.1322788203103
 20
-165.4526459509626
 10
144.1322788203103
 20
-165.4526459509626
 10
143.3003636220875
 20
-164.7729178457995
 10
143.889556771082
 20
-163.6106911988198
 10
145.0661020961736
 20
-163.6106911988198
 10
145.0661020961736
 20
-163.6106911988198
 10
154.8302541628232
 20
-163.6106911988198
 10
154.8302541628232
 20
-163.6106911988198
 10
156.0067585774051
 20
-163.6106911988198
 10
156.5959108158925
 20
-164.7729587563091
 10
155.7640365281761
 20
-165.4526459509626
 97
        0
 97
        0
 92
        1
 93
        1
 72
     4
 94
        3
 73
     0
 74
     1
 95
       23
 96
       19
 40
0.0
 40
0.0
 40
0.0
 40
0.0
 40
1.0
 40
1.0
 40
1.0
 40
2.0
 40
2.0
 40
2.0
 40
3.0
 40
3.0
 40
3.0
 40
4.0
 40
4.0
 40
4.0
 40
5.0
 40
5.0
 40
5.0
 40
6.0
 40
6.0
 40
6.0
 40
6.0
 10
144.1323638711061
 20
-140.5631416468433
 10
143.3004077623737
 20
-139.815133902348
 10
143.8896009113675
 20
-138.5361486630007
 10
145.0661053259494
 20
-138.5361486630007
 10
145.0661053259494
 20
-138.5361486630007
 10
154.8302983031087
 20
-138.5361486630007
 10
154.8302983031087
 20
-138.5361486630007
 10
156.0068027176906
 20
-138.5361486630007
 10
156.5959958666883
 20
-139.815133902348
 10
155.7640397579551
 20
-140.5631621020981
 10
155.7640397579551
 20
-140.5631621020981
 10
150.8819432693739
 20
-144.9529006162202
 10
150.8819432693739
 20
-144.9529006162202
 10
150.3662253943419
 20
-145.4166416897105
 10
149.5300964136995
 20
-145.4166416897105
 10
149.014378538668
 20
-144.9528801609654
 10
149.014378538668
 20
-144.9528801609654
 10
144.1323638711061
 20
-140.5631416468433
 10
144.1323638711061
 20
-140.5631416468433
 97
        0
 97
        0
 92
        1
 93
        1
 72
     4
 94
        3
 73
     0
 74
     1
 95
       23
 96
       19
 40
0.0
 40
0.0
 40
0.0
 40
0.0
 40
1.0
 40
1.0
 40
1.0
 40
2.0
 40
2.0
 40
2.0
 40
3.0
 40
3.0
 40
3.0
 40
4.0
 40
4.0
 40
4.0
 40
5.0
 40
5.0
 40
5.0
 40
6.0
 40
6.0
 40
6.0
 40
6.0
 10
143.4481679077355
 20
-128.7742461783841
 10
143.4481679077355
 20
-128.7742461783841
 10
156.4481495939374
 20
-128.7742461783841
 10
156.4481495939374
 20
-128.7742461783841
 10
157.0004845276113
 20
-128.7742461783841
 10
157.4481746859196
 20
-129.2219794003846
 10
157.4481746859196
 20
-129.7742712703631
 10
157.4481746859196
 20
-130.3265200766487
 10
157.0004845276113
 20
-130.7742532986498
 10
156.4481495939374
 20
-130.7742532986498
 10
156.4481495939374
 20
-130.7742532986498
 10
143.4481679077355
 20
-130.7742532986498
 10
143.4481679077355
 20
-130.7742532986498
 10
142.89591910145
 20
-130.7742532986498
 10
142.4481858794456
 20
-130.3265200766487
 10
142.4481858794456
 20
-129.7742712703631
 10
142.4481858794456
 20
-129.2219794003846
 10
142.89591910145
 20
-128.7742461783841
 10
143.4481679077355
 20
-128.7742461783841
 97
        0
 97
        0
 92
        1
 93
        1
 72
     4
 94
        3
 73
     0
 74
     1
 95
       29
 96
       25
 40
0.0
 40
0.0
 40
0.0
 40
0.0
 40
1.0
 40
1.0
 40
1.0
 40
2.0
 40
2.0
 40
2.0
 40
3.0
 40
3.0
 40
3.0
 40
4.0
 40
4.0
 40
4.0
 40
5.0
 40
5.0
 40
5.0
 40
6.0
 40
6.0
 40
6.0
 40
7.0
 40
7.0
 40
7.0
 40
8.0
 40
8.0
 40
8.0
 40
8.0
 10
142.4481858794456
 20
-134.2742119295035
 10
142.4481858794456
 20
-133.721963123218
 10
142.89591910145
 20
-133.2742729649098
 10
143.4481679077355
 20
-133.2742729649098
 10
143.4481679077355
 20
-133.2742729649098
 10
156.4481495939374
 20
-133.2742729649098
 10
156.4481495939374
 20
-133.2742729649098
 10
157.0004845276113
 20
-133.2742729649098
 10
157.4481746859196
 20
-133.721963123218
 10
157.4481746859196
 20
-134.2742119295035
 10
157.4481746859196
 20
-134.2742119295035
 10
157.4481746859196
 20
-134.2742549931965
 10
157.4481746859196
 20
-134.2742549931965
 10
157.4481746859196
 20
-134.8265468631749
 10
157.0004845276113
 20
-135.2742370214831
 10
156.4481495939374
 20
-135.2742370214831
 10
156.4481495939374
 20
-135.2742370214831
 10
143.4481679077355
 20
-135.2742370214831
 10
143.4481679077355
 20
-135.2742370214831
 10
142.89591910145
 20
-135.2742370214831
 10
142.4481858794456
 20
-134.8265468631749
 10
142.4481858794456
 20
-134.2742549931965
 10
142.4481858794456
 20
-134.2742549931965
 10
142.4481858794456
 20
-134.2742119295035
 10
142.4481858794456
 20
-134.2742119295035
 97
        0
 97
        0
 92
        1
 93
        1
 72
     4
 94
        3
 73
     0
 74
     1
 95
       23
 96
       19
 40
0.0
 40
0.0
 40
0.0
 40
0.0
 40
1.0
 40
1.0
 40
1.0
 40
2.0
 40
2.0
 40
2.0
 40
3.0
 40
3.0
 40
3.0
 40
4.0
 40
4.0
 40
4.0
 40
5.0
 40
5.0
 40
5.0
 40
6.0
 40
6.0
 40
6.0
 40
6.0
 10
142.4692698638157
 20
-143.8946889380853
 10
142.4692698638157
 20
-143.8946889380853
 10
147.351366352397
 20
-148.2844479074596
 10
147.351366352397
 20
-148.2844479074596
 10
147.8670842274322
 20
-148.7481480704428
 10
147.8670842274322
 20
-149.4999604922651
 10
147.351366352397
 20
-149.963660655249
 10
147.351366352397
 20
-149.963660655249
 10
142.4692698638157
 20
-154.3533991693714
 10
142.4692698638157
 20
-154.3533991693714
 10
141.6373137550826
 20
-155.1014478243725
 10
140.2149371820871
 20
-154.5716362790273
 10
140.2149371820871
 20
-153.5137723402199
 10
140.2149371820871
 20
-153.5137723402199
 10
140.2149371820871
 20
-144.7343157672329
 10
140.2149371820871
 20
-144.7343157672329
 10
140.2149371820871
 20
-143.6764518284255
 10
141.6373955761026
 20
-143.1466607383351
 10
142.4692698638157
 20
-143.8946889380853
 97
        0
 97
        0
 92
        1
 93
        1
 72
     4
 94
        3
 73
     0
 74
     1
 95
       17
 96
       13
 40
0.0
 40
0.0
 40
0.0
 40
0.0
 40
1.0
 40
1.0
 40
1.0
 40
2.0
 40
2.0
 40
2.0
 40
3.0
 40
3.0
 40
3.0
 40
4.0
 40
4.0
 40
4.0
 40
4.0
 10
139.2854312279938
 20
-114.4518144056434
 10
140.1138905648112
 20
-114.4518144056434
 10
140.7854258022716
 20
-115.1233927067961
 10
140.7854258022716
 20
-115.9518089799212
 10
140.7854258022716
 20
-116.7801821893495
 10
140.1138905648112
 20
-117.4518035541989
 10
139.2854312279938
 20
-117.4518035541989
 10
138.4570580185655
 20
-117.4518035541989
 10
137.785436653716
 20
-116.7801821893495
 10
137.785436653716
 20
-115.9518089799212
 10
137.785436653716
 20
-115.1233927067961
 10
138.4570580185655
 20
-114.4518144056434
 10
139.2854312279938
 20
-114.4518144056434
 97
        0
 97
        0
 92
        1
 93
        1
 72
     4
 94
        3
 73
     0
 74
     1
 95
       17
 96
       13
 40
0.0
 40
0.0
 40
0.0
 40
0.0
 40
1.0
 40
1.0
 40
1.0
 40
2.0
 40
2.0
 40
2.0
 40
3.0
 40
3.0
 40
3.0
 40
4.0
 40
4.0
 40
4.0
 40
4.0
 10
139.2854312279938
 20
-186.6472065725063
 10
138.4570580185655
 20
-186.6472065725063
 10
137.785436653716
 20
-185.9756282713491
 10
137.785436653716
 20
-185.147168934535
 10
137.785436653716
 20
-184.3187957251066
 10
138.4570580185655
 20
-183.6471743602572
 10
139.2854312279938
 20
-183.6471743602572
 10
140.1138905648112
 20
-183.6471743602572
 10
140.7854258022716
 20
-184.3187957251066
 10
140.7854258022716
 20
-185.147168934535
 10
140.7854258022716
 20
-185.9756282713491
 10
140.1138905648112
 20
-186.6472065725063
 10
139.2854312279938
 20
-186.6472065725063
 97
        0
 97
        0
 92
        1
 93
        1
 72
     4
 94
        3
 73
     0
 74
     1
 95
       23
 96
       19
 40
0.0
 40
0.0
 40
0.0
 40
0.0
 40
1.0
 40
1.0
 40
1.0
 40
2.0
 40
2.0
 40
2.0
 40
3.0
 40
3.0
 40
3.0
 40
4.0
 40
4.0
 40
4.0
 40
5.0
 40
5.0
 40
5.0
 40
6.0
 40
6.0
 40
6.0
 40
6.0
 10
142.4692257235296
 20
-177.9840666597707
 10
141.6373105253068
 20
-178.6637947649339
 10
140.2148521312952
 20
-178.1823598963466
 10
140.2148521312952
 20
-177.2210856690205
 10
140.2148521312952
 20
-177.2210856690205
 10
140.2148521312952
 20
-169.243045509882
 10
140.2148521312952
 20
-169.243045509882
 10
140.2148521312952
 20
-168.2817712825571
 10
141.6373105253068
 20
-167.8003364139724
 10
142.4692666340399
 20
-168.480064519133
 10
142.4692666340399
 20
-168.480064519133
 10
147.3513222121115
 20
-172.46912550921
 10
147.3513222121115
 20
-172.46912550921
 10
147.8669991766364
 20
-172.8905037507522
 10
147.8669991766364
 20
-173.5736683386599
 10
147.3513222121115
 20
-173.9950465802021
 10
147.3513222121115
 20
-173.9950465802021
 10
142.4692257235296
 20
-177.9840666597707
 10
142.4692257235296
 20
-177.9840666597707
 97
        0
 97
        0
 92
        1
 93
        1
 72
     4
 94
        3
 73
     0
 74
     1
 95
       17
 96
       13
 40
0.0
 40
0.0
 40
0.0
 40
0.0
 40
1.0
 40
1.0
 40
1.0
 40
2.0
 40
2.0
 40
2.0
 40
3.0
 40
3.0
 40
3.0
 40
4.0
 40
4.0
 40
4.0
 40
4.0
 10
149.9481113807873
 20
-179.9920662272649
 10
148.8435440423125
 20
-179.9920662272649
 10
147.9480941557946
 20
-179.096616340747
 10
147.9480941557946
 20
-177.9920490022761
 10
147.9480941557946
 20
-176.8874816638052
 10
148.8435440423125
 20
-175.9920662282671
 10
149.9481113807873
 20
-175.9920662282671
 10
151.0526787192581
 20
-175.9920662282671
 10
151.9480941547963
 20
-176.8874816638052
 10
151.9480941547963
 20
-177.9920490022761
 10
151.9480941547963
 20
-179.096616340747
 10
151.0526787192581
 20
-179.9920662272649
 10
149.9481113807873
 20
-179.9920662272649
 97
        0
 97
        0
 92
        1
 93
        1
 72
     4
 94
        3
 73
     0
 74
     1
 95
       23
 96
       19
 40
0.0
 40
0.0
 40
0.0
 40
0.0
 40
1.0
 40
1.0
 40
1.0
 40
2.0
 40
2.0
 40
2.0
 40
3.0
 40
3.0
 40
3.0
 40
4.0
 40
4.0
 40
4.0
 40
5.0
 40
5.0
 40
5.0
 40
6.0
 40
6.0
 40
6.0
 40
6.0
 10
157.4270487144472
 20
-177.9841075702804
 10
157.4270487144472
 20
-177.9841075702804
 10
152.5449522258685
 20
-173.9950465802021
 10
152.5449522258685
 20
-173.9950465802021
 10
152.0292343508339
 20
-173.5736683386599
 10
152.0292343508339
 20
-172.8905037507522
 10
152.5449522258685
 20
-172.46912550921
 10
152.5449522258685
 20
-172.46912550921
 10
157.4270896249568
 20
-168.4801054296427
 10
157.4270896249568
 20
-168.4801054296427
 10
158.2590048231797
 20
-167.8003364139724
 10
159.6814223066848
 20
-168.2817712825571
 10
159.6814223066848
 20
-169.2430864203916
 10
159.6814223066848
 20
-169.2430864203916
 10
159.6814223066848
 20
-177.2211265795314
 10
159.6814223066848
 20
-177.2211265795314
 10
159.6814223066848
 20
-178.1824008068563
 10
158.2590048231797
 20
-178.6637947649339
 10
157.4270487144472
 20
-177.9841075702804
 97
        0
 97
        0
 92
        1
 93
        1
 72
     4
 94
        3
 73
     0
 74
     1
 95
       17
 96
       13
 40
0.0
 40
0.0
 40
0.0
 40
0.0
 40
1.0
 40
1.0
 40
1.0
 40
2.0
 40
2.0
 40
2.0
 40
3.0
 40
3.0
 40
3.0
 40
4.0
 40
4.0
 40
4.0
 40
4.0
 10
160.5133039440575
 20
-186.6241244327551
 10
159.6849307346291
 20
-186.6241244327551
 10
159.0133093697797
 20
-185.952546131598
 10
159.0133093697797
 20
-185.1240867947838
 10
159.0133093697797
 20
-184.2957135853555
 10
159.6849307346291
 20
-183.624092220506
 10
160.5133039440575
 20
-183.624092220506
 10
161.3417202171781
 20
-183.624092220506
 10
162.0132985183352
 20
-184.2957135853555
 10
162.0132985183352
 20
-185.1240867947838
 10
162.0132985183352
 20
-185.952546131598
 10
161.3417202171781
 20
-186.6241244327551
 10
160.5133039440575
 20
-186.6241244327551
 97
        0
 97
        0
 92
        1
 93
        1
 72
     4
 94
        3
 73
     0
 74
     1
 95
       17
 96
       13
 40
0.0
 40
0.0
 40
0.0
 40
0.0
 40
1.0
 40
1.0
 40
1.0
 40
2.0
 40
2.0
 40
2.0
 40
3.0
 40
3.0
 40
3.0
 40
4.0
 40
4.0
 40
4.0
 40
4.0
 10
160.6108862736791
 20
-117.4518035541989
 10
159.7825130642508
 20
-117.4518035541989
 10
159.1108916994013
 20
-116.7801821893495
 10
159.1108916994013
 20
-115.9518089799212
 10
159.1108916994013
 20
-115.1233927067961
 10
159.7825130642508
 20
-114.4518144056434
 10
160.6108862736791
 20
-114.4518144056434
 10
161.4393025467997
 20
-114.4518144056434
 10
162.1108808479569
 20
-115.1233927067961
 10
162.1108808479569
 20
-115.9518089799212
 10
162.1108808479569
 20
-116.7801821893495
 10
161.4393025467997
 20
-117.4518035541989
 10
160.6108862736791
 20
-117.4518035541989
 97
        0
 97
        0
 75
     2
 76
     1
 98
        0
  0
ENDSEC
  0
SECTION
  2
OBJECTS
  0
DICTIONARY
  5
C
330
0
100
AcDbDictionary
281
     1
  3
ACAD_GROUP
350
D
  3
ACAD_LAYOUT
350
1A
  3
ACAD_MATERIAL
350
3B
  3
ACAD_MLEADERSTYLE
350
52
  3
ACAD_MLINESTYLE
350
17
  3
ACAD_PLOTSETTINGS
350
19
  3
ACAD_PLOTSTYLENAME
350
E
  3
ACAD_TABLESTYLE
350
51
  3
ACAD_VISUALSTYLE
350
2A
  0
SUN
  5
3F
330
29
100
AcDbSun
 90
        1
290
     0
 63
     7
421
 16777215
 40
1.0
291
     1
 91
  2455826
 92
 54000000
292
     0
 70
     2
 71
   256
280
     1
  0
DICTIONARY
  5
D
102
{ACAD_REACTORS
330
C
102
}
330
C
100
AcDbDictionary
281
     1
  0
DICTIONARY
  5
1A
102
{ACAD_REACTORS
330
C
102
}
330
C
100
AcDbDictionary
281
     1
  3
Layout1
350
1E
  3
Layout2
350
26
  3
Model
350
22
  0
DICTIONARY
  5
3B
102
{ACAD_REACTORS
330
C
102
}
330
C
100
AcDbDictionary
281
     1
  3
ByBlock
350
3D
  3
ByLayer
350
3C
  3
Global
350
3E
  0
DICTIONARY
  5
52
102
{ACAD_REACTORS
330
C
102
}
330
C
100
AcDbDictionary
281
     1
  0
DICTIONARY
  5
17
102
{ACAD_REACTORS
330
C
102
}
330
C
100
AcDbDictionary
281
     1
  3
Standard
350
18
  0
DICTIONARY
  5
19
102
{ACAD_REACTORS
330
C
102
}
330
C
100
AcDbDictionary
281
     1
  0
ACDBDICTIONARYWDFLT
  5
E
102
{ACAD_REACTORS
330
C
102
}
330
C
100
AcDbDictionary
281
     1
  3
Normal
350
F
100
AcDbDictionaryWithDefault
340
F
  0
DICTIONARY
  5
51
102
{ACAD_REACTORS
330
C
102
}
330
C
100
AcDbDictionary
281
     1
  0
DICTIONARY
  5
2A
102
{ACAD_REACTORS
330
C
102
}
330
C
100
AcDbDictionary
281
     1
  3
2dWireframe
350
2F
  3
3D Hidden
350
31
  3
3dWireframe
350
30
  3
Basic
350
32
  3
Brighten
350
36
  3
ColorChange
350
3A
  3
Conceptual
350
34
  3
Dim
350
35
  3
Facepattern
350
39
  3
Flat
350
2B
  3
FlatWithEdges
350
2C
  3
Gouraud
350
2D
  3
GouraudWithEdges
350
2E
  3
Linepattern
350
38
  3
Realistic
350
33
  3
Thicken
350
37
  0
LAYOUT
  5
1E
102
{ACAD_REACTORS
330
1A
102
}
330
1A
100
AcDbPlotSettings
  1

  2
none_device
  4

  6

 40
0.0
 41
0.0
 42
0.0
 43
0.0
 44
0.0
 45
0.0
 46
0.0
 47
0.0
 48
0.0
 49
0.0
140
0.0
141
0.0
142
1.0
143
1.0
 70
   688
 72
     0
 73
     0
 74
     5
  7

 75
    16
 76
     0
 77
     2
 78
   300
147
1.0
148
0.0
149
0.0
100
AcDbLayout
  1
Layout1
 70
     1
 71
     1
 10
0.0
 20
0.0
 11
12.0
 21
9.0
 12
0.0
 22
0.0
 32
0.0
 14
1.000000000000000E+20
 24
1.000000000000000E+20
 34
1.000000000000000E+20
 15
-1.000000000000000E+20
 25
-1.000000000000000E+20
 35
-1.000000000000000E+20
146
0.0
 13
0.0
 23
0.0
 33
0.0
 16
1.0
 26
0.0
 36
0.0
 17
0.0
 27
1.0
 37
0.0
 76
     0
330
1B
  0
LAYOUT
  5
26
102
{ACAD_REACTORS
330
1A
102
}
330
1A
100
AcDbPlotSettings
  1

  2
none_device
  4

  6

 40
0.0
 41
0.0
 42
0.0
 43
0.0
 44
0.0
 45
0.0
 46
0.0
 47
0.0
 48
0.0
 49
0.0
140
0.0
141
0.0
142
1.0
143
1.0
 70
   688
 72
     0
 73
     0
 74
     5
  7

 75
    16
 76
     0
 77
     2
 78
   300
147
1.0
148
0.0
149
0.0
100
AcDbLayout
  1
Layout2
 70
     1
 71
     2
 10
0.0
 20
0.0
 11
0.0
 21
0.0
 12
0.0
 22
0.0
 32
0.0
 14
0.0
 24
0.0
 34
0.0
 15
0.0
 25
0.0
 35
0.0
146
0.0
 13
0.0
 23
0.0
 33
0.0
 16
1.0
 26
0.0
 36
0.0
 17
0.0
 27
1.0
 37
0.0
 76
     0
330
23
  0
LAYOUT
  5
22
102
{ACAD_REACTORS
330
1A
102
}
330
1A
100
AcDbPlotSettings
  1

  2
none_device
  4

  6

 40
0.0
 41
0.0
 42
0.0
 43
0.0
 44
0.0
 45
0.0
 46
0.0
 47
0.0
 48
0.0
 49
0.0
140
0.0
141
0.0
142
1.0
143
1.0
 70
  1712
 72
     0
 73
     0
 74
     0
  7

 75
     0
 76
     0
 77
     2
 78
   300
147
1.0
148
0.0
149
0.0
100
AcDbLayout
  1
Model
 70
     1
 71
     0
 10
0.0
 20
0.0
 11
12.0
 21
9.0
 12
0.0
 22
0.0
 32
0.0
 14
1.000000000000000E+20
 24
1.000000000000000E+20
 34
1.000000000000000E+20
 15
-1.000000000000000E+20
 25
-1.000000000000000E+20
 35
-1.000000000000000E+20
146
0.0
 13
0.0
 23
0.0
 33
0.0
 16
1.0
 26
0.0
 36
0.0
 17
0.0
 27
1.0
 37
0.0
 76
     0
330
1F
331
29
  0
MATERIAL
  5
3D
102
{ACAD_REACTORS
330
3B
102
}
330
3B
100
AcDbMaterial
  1
ByBlock
 72
     1
 94
      127
  0
MATERIAL
  5
3C
102
{ACAD_REACTORS
330
3B
102
}
330
3B
100
AcDbMaterial
  1
ByLayer
 72
     1
 94
      127
  0
MATERIAL
  5
3E
102
{ACAD_REACTORS
330
3B
102
}
330
3B
100
AcDbMaterial
  1
Global
 72
     1
 94
      127
  0
MLINESTYLE
  5
18
102
{ACAD_REACTORS
330
17
102
}
330
17
100
AcDbMlineStyle
  2
Standard
 70
     0
  3

 62
   256
 51
90.0
 52
90.0
 71
     2
 49
0.5
 62
   256
  6
BYLAYER
 49
-0.5
 62
   256
  6
BYLAYER
  0
ACDBPLACEHOLDER
  5
F
102
{ACAD_REACTORS
330
E
102
}
330
E
  0
VISUALSTYLE
  5
2F
102
{ACAD_REACTORS
330
2A
102
}
330
2A
100
AcDbVisualStyle
  2
2dWireframe
 70
     4
177
     2
291
     0
 71
     0
176
     1
 72
     2
176
     1
 73
     0
176
     1
 90
        0
176
     1
 40
-0.6
176
     1
 41
-30.0
176
     1
 62
     5
 63
     7
421
 16777215
176
     1
 74
     1
176
     1
 91
        4
176
     1
 64
     7
176
     1
 65
   257
176
     1
 75
     1
176
     1
175
     1
176
     1
 42
1.0
176
     1
 92
        0
176
     1
 66
   257
176
     1
 43
1.0
176
     1
 76
     1
176
     1
 77
     6
176
     1
 78
     2
176
     1
 67
     7
176
     1
 79
     5
176
     1
170
     0
176
     1
171
     0
176
     1
290
     0
176
     1
 93
        1
176
     1
 44
0.0
176
     1
173
     0
176
     1
  0
VISUALSTYLE
  5
31
102
{ACAD_REACTORS
330
2A
102
}
330
2A
100
AcDbVisualStyle
  2
3D Hidden
 70
     6
177
     2
291
     0
 71
     1
176
     1
 72
     2
176
     1
 73
     2
176
     1
 90
        0
176
     1
 40
-0.6
176
     1
 41
-30.0
176
     1
 62
     5
 63
     7
421
 16777215
176
     1
 74
     2
176
     1
 91
        2
176
     1
 64
     7
176
     1
 65
   257
176
     1
 75
     2
176
     1
175
     1
176
     1
 42
40.0
176
     1
 92
        0
176
     1
 66
   257
176
     1
 43
1.0
176
     1
 76
     1
176
     1
 77
     6
176
     1
 78
     2
176
     1
 67
     7
176
     1
 79
     3
176
     1
170
     0
176
     1
171
     0
176
     1
290
     0
176
     1
 93
        1
176
     1
 44
0.0
176
     1
173
     0
176
     1
  0
VISUALSTYLE
  5
30
102
{ACAD_REACTORS
330
2A
102
}
330
2A
100
AcDbVisualStyle
  2
3dWireframe
 70
     5
177
     2
291
     0
 71
     0
176
     1
 72
     2
176
     1
 73
     0
176
     1
 90
        0
176
     1
 40
-0.6
176
     1
 41
-30.0
176
     1
 62
     5
 63
     7
421
 16777215
176
     1
 74
     1
176
     1
 91
        4
176
     1
 64
     7
176
     1
 65
   257
176
     1
 75
     1
176
     1
175
     1
176
     1
 42
1.0
176
     1
 92
        0
176
     1
 66
   257
176
     1
 43
1.0
176
     1
 76
     1
176
     1
 77
     6
176
     1
 78
     2
176
     1
 67
     7
176
     1
 79
     5
176
     1
170
     0
176
     1
171
     0
176
     1
290
     0
176
     1
 93
        1
176
     1
 44
0.0
176
     1
173
     0
176
     1
  0
VISUALSTYLE
  5
32
102
{ACAD_REACTORS
330
2A
102
}
330
2A
100
AcDbVisualStyle
  2
Basic
 70
     7
177
     2
291
     1
 71
     1
176
     1
 72
     0
176
     1
 73
     1
176
     1
 90
        0
176
     1
 40
-0.6
176
     1
 41
-30.0
176
     1
 62
     5
 63
     7
421
 16777215
176
     1
 74
     0
176
     1
 91
        4
176
     1
 64
     7
176
     1
 65
   257
176
     1
 75
     1
176
     1
175
     1
176
     1
 42
1.0
176
     1
 92
        8
176
     1
 66
     7
176
     1
 43
1.0
176
     1
 76
     1
176
     1
 77
     6
176
     1
 78
     2
176
     1
 67
     7
176
     1
 79
     5
176
     1
170
     0
176
     1
171
     0
176
     1
290
     0
176
     1
 93
        1
176
     1
 44
0.0
176
     1
173
     0
176
     1
  0
VISUALSTYLE
  5
36
102
{ACAD_REACTORS
330
2A
102
}
330
2A
100
AcDbVisualStyle
  2
Brighten
 70
    12
177
     2
291
     1
 71
     2
176
     1
 72
     2
176
     1
 73
     0
176
     1
 90
        0
176
     1
 40
-0.6
176
     1
 41
-30.0
176
     1
 62
     5
 63
     7
421
 16777215
176
     1
 74
     1
176
     1
 91
        4
176
     1
 64
     7
176
     1
 65
   257
176
     1
 75
     1
176
     1
175
     1
176
     1
 42
1.0
176
     1
 92
        8
176
     1
 66
     7
176
     1
 43
1.0
176
     1
 76
     1
176
     1
 77
     6
176
     1
 78
     2
176
     1
 67
     7
176
     1
 79
     5
176
     1
170
     0
176
     1
171
     0
176
     1
290
     0
176
     1
 93
        1
176
     1
 44
50.0
176
     1
173
     0
176
     1
  0
VISUALSTYLE
  5
3A
102
{ACAD_REACTORS
330
2A
102
}
330
2A
100
AcDbVisualStyle
  2
ColorChange
 70
    16
177
     2
291
     1
 71
     2
176
     1
 72
     2
176
     1
 73
     3
176
     1
 90
        0
176
     1
 40
-0.6
176
     1
 41
-30.0
176
     1
 62
     5
 63
     8
421
  8421504
176
     1
 74
     1
176
     1
 91
        4
176
     1
 64
     7
176
     1
 65
   257
176
     1
 75
     1
176
     1
175
     1
176
     1
 42
1.0
176
     1
 92
        8
176
     1
 66
     8
424
  8421504
176
     1
 43
1.0
176
     1
 76
     1
176
     1
 77
     6
176
     1
 78
     2
176
     1
 67
     7
176
     1
 79
     5
176
     1
170
     0
176
     1
171
     0
176
     1
290
     0
176
     1
 93
        1
176
     1
 44
0.0
176
     1
173
     0
176
     1
  0
VISUALSTYLE
  5
34
102
{ACAD_REACTORS
330
2A
102
}
330
2A
100
AcDbVisualStyle
  2
Conceptual
 70
     9
177
     2
291
     0
 71
     3
176
     1
 72
     2
176
     1
 73
     0
176
     1
 90
        0
176
     1
 40
-0.6
176
     1
 41
-30.0
176
     1
 62
     5
 63
     7
421
 16777215
176
     1
 74
     2
176
     1
 91
        2
176
     1
 64
     7
176
     1
 65
   257
176
     1
 75
     1
176
     1
175
     1
176
     1
 42
40.0
176
     1
 92
        8
176
     1
 66
     7
176
     1
 43
1.0
176
     1
 76
     1
176
     1
 77
     6
176
     1
 78
     2
176
     1
 67
     7
176
     1
 79
     3
176
     1
170
     0
176
     1
171
     0
176
     1
290
     0
176
     1
 93
        1
176
     1
 44
0.0
176
     1
173
     0
176
     1
  0
VISUALSTYLE
  5
35
102
{ACAD_REACTORS
330
2A
102
}
330
2A
100
AcDbVisualStyle
  2
Dim
 70
    11
177
     2
291
     1
 71
     2
176
     1
 72
     2
176
     1
 73
     0
176
     1
 90
        0
176
     1
 40
-0.6
176
     1
 41
-30.0
176
     1
 62
     5
 63
     7
421
 16777215
176
     1
 74
     1
176
     1
 91
        4
176
     1
 64
     7
176
     1
 65
   257
176
     1
 75
     1
176
     1
175
     1
176
     1
 42
1.0
176
     1
 92
        8
176
     1
 66
     7
176
     1
 43
1.0
176
     1
 76
     1
176
     1
 77
     6
176
     1
 78
     2
176
     1
 67
     7
176
     1
 79
     5
176
     1
170
     0
176
     1
171
     0
176
     1
290
     0
176
     1
 93
        1
176
     1
 44
-50.0
176
     1
173
     0
176
     1
  0
VISUALSTYLE
  5
39
102
{ACAD_REACTORS
330
2A
102
}
330
2A
100
AcDbVisualStyle
  2
Facepattern
 70
    15
177
     2
291
     1
 71
     2
176
     1
 72
     2
176
     1
 73
     0
176
     1
 90
        0
176
     1
 40
-0.6
176
     1
 41
-30.0
176
     1
 62
     5
 63
     7
421
 16777215
176
     1
 74
     1
176
     1
 91
        4
176
     1
 64
     7
176
     1
 65
   257
176
     1
 75
     1
176
     1
175
     1
176
     1
 42
1.0
176
     1
 92
        8
176
     1
 66
     7
176
     1
 43
1.0
176
     1
 76
     1
176
     1
 77
     6
176
     1
 78
     2
176
     1
 67
     7
176
     1
 79
     5
176
     1
170
     0
176
     1
171
     0
176
     1
290
     0
176
     1
 93
        1
176
     1
 44
0.0
176
     1
173
     0
176
     1
  0
VISUALSTYLE
  5
2B
102
{ACAD_REACTORS
330
2A
102
}
330
2A
100
AcDbVisualStyle
  2
Flat
 70
     0
177
     2
291
     1
 71
     2
176
     1
 72
     1
176
     1
 73
     1
176
     1
 90
        2
176
     1
 40
-0.6
176
     1
 41
30.0
176
     1
 62
     5
 63
     7
421
 16777215
176
     1
 74
     0
176
     1
 91
        4
176
     1
 64
     7
176
     1
 65
   257
176
     1
 75
     1
176
     1
175
     1
176
     1
 42
1.0
176
     1
 92
        8
176
     1
 66
     7
176
     1
 43
1.0
176
     1
 76
     1
176
     1
 77
     6
176
     1
 78
     2
176
     1
 67
     7
176
     1
 79
     5
176
     1
170
     0
176
     1
171
     0
176
     1
290
     0
176
     1
 93
       13
176
     1
 44
0.0
176
     1
173
     0
176
     1
  0
VISUALSTYLE
  5
2C
102
{ACAD_REACTORS
330
2A
102
}
330
2A
100
AcDbVisualStyle
  2
FlatWithEdges
 70
     1
177
     2
291
     1
 71
     2
176
     1
 72
     1
176
     1
 73
     1
176
     1
 90
        2
176
     1
 40
-0.6
176
     1
 41
30.0
176
     1
 62
     5
 63
     7
421
 16777215
176
     1
 74
     1
176
     1
 91
        4
176
     1
 64
     7
176
     1
 65
   257
176
     1
 75
     1
176
     1
175
     1
176
     1
 42
1.0
176
     1
 92
        0
176
     1
 66
   257
176
     1
 43
1.0
176
     1
 76
     1
176
     1
 77
     6
176
     1
 78
     2
176
     1
 67
     7
176
     1
 79
     5
176
     1
170
     0
176
     1
171
     0
176
     1
290
     0
176
     1
 93
       13
176
     1
 44
0.0
176
     1
173
     0
176
     1
  0
VISUALSTYLE
  5
2D
102
{ACAD_REACTORS
330
2A
102
}
330
2A
100
AcDbVisualStyle
  2
Gouraud
 70
     2
177
     2
291
     1
 71
     2
176
     1
 72
     2
176
     1
 73
     1
176
     1
 90
        2
176
     1
 40
-0.6
176
     1
 41
30.0
176
     1
 62
     5
 63
     7
421
 16777215
176
     1
 74
     0
176
     1
 91
        4
176
     1
 64
     7
176
     1
 65
   257
176
     1
 75
     1
176
     1
175
     1
176
     1
 42
1.0
176
     1
 92
        0
176
     1
 66
     7
176
     1
 43
1.0
176
     1
 76
     1
176
     1
 77
     6
176
     1
 78
     2
176
     1
 67
     7
176
     1
 79
     5
176
     1
170
     0
176
     1
171
     0
176
     1
290
     0
176
     1
 93
       13
176
     1
 44
0.0
176
     1
173
     0
176
     1
  0
VISUALSTYLE
  5
2E
102
{ACAD_REACTORS
330
2A
102
}
330
2A
100
AcDbVisualStyle
  2
GouraudWithEdges
 70
     3
177
     2
291
     1
 71
     2
176
     1
 72
     2
176
     1
 73
     1
176
     1
 90
        2
176
     1
 40
-0.6
176
     1
 41
30.0
176
     1
 62
     5
 63
     7
421
 16777215
176
     1
 74
     1
176
     1
 91
        4
176
     1
 64
     7
176
     1
 65
   257
176
     1
 75
     1
176
     1
175
     1
176
     1
 42
1.0
176
     1
 92
        0
176
     1
 66
   257
176
     1
 43
1.0
176
     1
 76
     1
176
     1
 77
     6
176
     1
 78
     2
176
     1
 67
     7
176
     1
 79
     5
176
     1
170
     0
176
     1
171
     0
176
     1
290
     0
176
     1
 93
       13
176
     1
 44
0.0
176
     1
173
     0
176
     1
  0
VISUALSTYLE
  5
38
102
{ACAD_REACTORS
330
2A
102
}
330
2A
100
AcDbVisualStyle
  2
Linepattern
 70
    14
177
     2
291
     1
 71
     2
176
     1
 72
     2
176
     1
 73
     0
176
     1
 90
        0
176
     1
 40
-0.6
176
     1
 41
-30.0
176
     1
 62
     5
 63
     7
421
 16777215
176
     1
 74
     1
176
     1
 91
        4
176
     1
 64
     7
176
     1
 65
   257
176
     1
 75
     7
176
     1
175
     7
176
     1
 42
1.0
176
     1
 92
        8
176
     1
 66
     7
176
     1
 43
1.0
176
     1
 76
     1
176
     1
 77
     6
176
     1
 78
     2
176
     1
 67
     7
176
     1
 79
     5
176
     1
170
     0
176
     1
171
     0
176
     1
290
     0
176
     1
 93
        1
176
     1
 44
0.0
176
     1
173
     0
176
     1
  0
VISUALSTYLE
  5
33
102
{ACAD_REACTORS
330
2A
102
}
330
2A
100
AcDbVisualStyle
  2
Realistic
 70
     8
177
     2
291
     0
 71
     2
176
     1
 72
     2
176
     1
 73
     0
176
     1
 90
        0
176
     1
 40
-0.6
176
     1
 41
-30.0
176
     1
 62
     5
 63
     7
421
 16777215
176
     1
 74
     1
176
     1
 91
        0
176
     1
 64
     7
176
     1
 65
   257
176
     1
 75
     1
176
     1
175
     1
176
     1
 42
1.0
176
     1
 92
        8
176
     1
 66
     8
424
  7895160
176
     1
 43
1.0
176
     1
 76
     1
176
     1
 77
     6
176
     1
 78
     2
176
     1
 67
     7
176
     1
 79
     5
176
     1
170
     0
176
     1
171
     0
176
     1
290
     0
176
     1
 93
       13
176
     1
 44
0.0
176
     1
173
     0
176
     1
  0
VISUALSTYLE
  5
37
102
{ACAD_REACTORS
330
2A
102
}
330
2A
100
AcDbVisualStyle
  2
Thicken
 70
    13
177
     2
291
     1
 71
     2
176
     1
 72
     2
176
     1
 73
     0
176
     1
 90
        0
176
     1
 40
-0.6
176
     1
 41
-30.0
176
     1
 62
     5
 63
     7
421
 16777215
176
     1
 74
     1
176
     1
 91
        4
176
     1
 64
     7
176
     1
 65
   257
176
     1
 75
     1
176
     1
175
     1
176
     1
 42
1.0
176
     1
 92
       12
176
     1
 66
     7
176
     1
 43
1.0
176
     1
 76
     1
176
     1
 77
     6
176
     1
 78
     2
176
     1
 67
     7
176
     1
 79
     5
176
     1
170
     0
176
     1
171
     0
176
     1
290
     0
176
     1
 93
        1
176
     1
 44
0.0
176
     1
173
     0
176
     1
  0
ENDSEC
  0
EOF
