  0
SECTION
  2
HEADER
  9
$ACADVER
  1
AC1024
  9
$ACADMAINTVER
 70
     6
  9
$DWGCODEPAGE
  3
UNDEFINED
  9
$INSBASE
 10
0.0
 20
0.0
 30
0.0
  9
$EXTMIN
 10
1.000000000000000E+20
 20
1.000000000000000E+20
 30
1.000000000000000E+20
  9
$EXTMAX
 10
-1.000000000000000E+20
 20
-1.000000000000000E+20
 30
-1.000000000000000E+20
  9
$LIMMIN
 10
0.0
 20
0.0
  9
$LIMMAX
 10
12.0
 20
9.0
  9
$ORTHOMODE
 70
     0
  9
$REGENMODE
 70
     1
  9
$FILLMODE
 70
     1
  9
$QTEXTMODE
 70
     0
  9
$MIRRTEXT
 70
     1
  9
$LTSCALE
 40
1.0
  9
$ATTMODE
 70
     1
  9
$TEXTSIZE
 40
0.2
  9
$TRACEWID
 40
0.05
  9
$TEXTSTYLE
  7
Standard
  9
$CLAYER
  8
0
  9
$CELTYPE
  6
ByLayer
  9
$CECOLOR
 62
   256
  9
$CELTSCALE
 40
1.0
  9
$DISPSILH
 70
     0
  9
$DIMSCALE
 40
1.0
  9
$DIMASZ
 40
0.18
  9
$DIMEXO
 40
0.0625
  9
$DIMDLI
 40
0.38
  9
$DIMRND
 40
0.0
  9
$DIMDLE
 40
0.0
  9
$DIMEXE
 40
0.18
  9
$DIMTP
 40
0.0
  9
$DIMTM
 40
0.0
  9
$DIMTXT
 40
0.18
  9
$DIMCEN
 40
0.09
  9
$DIMTSZ
 40
0.0
  9
$DIMTOL
 70
     0
  9
$DIMLIM
 70
     0
  9
$DIMTIH
 70
     1
  9
$DIMTOH
 70
     1
  9
$DIMSE1
 70
     0
  9
$DIMSE2
 70
     0
  9
$DIMTAD
 70
     0
  9
$DIMZIN
 70
     0
  9
$DIMBLK
  1

  9
$DIMASO
 70
     1
  9
$DIMSHO
 70
     1
  9
$DIMPOST
  1

  9
$DIMAPOST
  1

  9
$DIMALT
 70
     0
  9
$DIMALTD
 70
     2
  9
$DIMALTF
 40
25.4
  9
$DIMLFAC
 40
1.0
  9
$DIMTOFL
 70
     0
  9
$DIMTVP
 40
0.0
  9
$DIMTIX
 70
     0
  9
$DIMSOXD
 70
     0
  9
$DIMSAH
 70
     0
  9
$DIMBLK1
  1

  9
$DIMBLK2
  1

  9
$DIMSTYLE
  2
Standard
  9
$DIMCLRD
 70
     0
  9
$DIMCLRE
 70
     0
  9
$DIMCLRT
 70
     0
  9
$DIMTFAC
 40
1.0
  9
$DIMGAP
 40
0.09
  9
$DIMJUST
 70
     0
  9
$DIMSD1
 70
     0
  9
$DIMSD2
 70
     0
  9
$DIMTOLJ
 70
     1
  9
$DIMTZIN
 70
     0
  9
$DIMALTZ
 70
     0
  9
$DIMALTTZ
 70
     0
  9
$DIMUPT
 70
     0
  9
$DIMDEC
 70
     4
  9
$DIMTDEC
 70
     4
  9
$DIMALTU
 70
     2
  9
$DIMALTTD
 70
     2
  9
$DIMTXSTY
  7
Standard
  9
$DIMAUNIT
 70
     0
  9
$DIMADEC
 70
     0
  9
$DIMALTRND
 40
0.0
  9
$DIMAZIN
 70
     0
  9
$DIMDSEP
 70
    46
  9
$DIMATFIT
 70
     3
  9
$DIMFRAC
 70
     0
  9
$DIMLDRBLK
  1

  9
$DIMLUNIT
 70
     2
  9
$DIMLWD
 70
    -2
  9
$DIMLWE
 70
    -2
  9
$DIMTMOVE
 70
     0
  9
$DIMFXL
 40
1.0
  9
$DIMFXLON
 70
     0
  9
$DIMJOGANG
 40
0.7853981633974483
  9
$DIMTFILL
 70
     0
  9
$DIMTFILLCLR
 70
     0
  9
$DIMARCSYM
 70
     0
  9
$DIMLTYPE
  6

  9
$DIMLTEX1
  6

  9
$DIMLTEX2
  6

  9
$DIMTXTDIRECTION
 70
     0
  9
$LUNITS
 70
     2
  9
$LUPREC
 70
     4
  9
$SKETCHINC
 40
0.1
  9
$FILLETRAD
 40
0.5
  9
$AUNITS
 70
     0
  9
$AUPREC
 70
     0
  9
$MENU
  1
.
  9
$ELEVATION
 40
0.0
  9
$PELEVATION
 40
0.0
  9
$THICKNESS
 40
0.0
  9
$LIMCHECK
 70
     0
  9
$CHAMFERA
 40
0.5
  9
$CHAMFERB
 40
0.5
  9
$CHAMFERC
 40
1.0
  9
$CHAMFERD
 40
0.0
  9
$SKPOLY
 70
     0
  9
$TDCREATE
 40
2458133.003645822
  9
$TDUCREATE
 40
2458133.211979167
  9
$TDUPDATE
 40
2458133.003645822
  9
$TDUUPDATE
 40
2458133.211979167
  9
$TDINDWG
 40
0.0000000116
  9
$TDUSRTIMER
 40
0.0000000116
  9
$USRTIMER
 70
     1
  9
$ANGBASE
 50
0.0
  9
$ANGDIR
 70
     0
  9
$PDMODE
 70
     0
  9
$PDSIZE
 40
0.0
  9
$PLINEWID
 40
0.0
  9
$SPLFRAME
 70
     0
  9
$SPLINETYPE
 70
     6
  9
$SPLINESEGS
 70
     8
  9
$HANDSEED
  5
71
  9
$SURFTAB1
 70
     6
  9
$SURFTAB2
 70
     6
  9
$SURFTYPE
 70
     6
  9
$SURFU
 70
     6
  9
$SURFV
 70
     6
  9
$UCSBASE
  2

  9
$UCSNAME
  2

  9
$UCSORG
 10
0.0
 20
0.0
 30
0.0
  9
$UCSXDIR
 10
1.0
 20
0.0
 30
0.0
  9
$UCSYDIR
 10
0.0
 20
1.0
 30
0.0
  9
$UCSORTHOREF
  2

  9
$UCSORTHOVIEW
 70
     0
  9
$UCSORGTOP
 10
0.0
 20
0.0
 30
0.0
  9
$UCSORGBOTTOM
 10
0.0
 20
0.0
 30
0.0
  9
$UCSORGLEFT
 10
0.0
 20
0.0
 30
0.0
  9
$UCSORGRIGHT
 10
0.0
 20
0.0
 30
0.0
  9
$UCSORGFRONT
 10
0.0
 20
0.0
 30
0.0
  9
$UCSORGBACK
 10
0.0
 20
0.0
 30
0.0
  9
$PUCSBASE
  2

  9
$PUCSNAME
  2

  9
$PUCSORG
 10
0.0
 20
0.0
 30
0.0
  9
$PUCSXDIR
 10
1.0
 20
0.0
 30
0.0
  9
$PUCSYDIR
 10
0.0
 20
1.0
 30
0.0
  9
$PUCSORTHOREF
  2

  9
$PUCSORTHOVIEW
 70
     0
  9
$PUCSORGTOP
 10
0.0
 20
0.0
 30
0.0
  9
$PUCSORGBOTTOM
 10
0.0
 20
0.0
 30
0.0
  9
$PUCSORGLEFT
 10
0.0
 20
0.0
 30
0.0
  9
$PUCSORGRIGHT
 10
0.0
 20
0.0
 30
0.0
  9
$PUCSORGFRONT
 10
0.0
 20
0.0
 30
0.0
  9
$PUCSORGBACK
 10
0.0
 20
0.0
 30
0.0
  9
$USERI1
 70
     0
  9
$USERI2
 70
     0
  9
$USERI3
 70
     0
  9
$USERI4
 70
     0
  9
$USERI5
 70
     0
  9
$USERR1
 40
0.0
  9
$USERR2
 40
0.0
  9
$USERR3
 40
0.0
  9
$USERR4
 40
0.0
  9
$USERR5
 40
0.0
  9
$WORLDVIEW
 70
     1
  9
$SHADEDGE
 70
     3
  9
$SHADEDIF
 70
    70
  9
$TILEMODE
 70
     1
  9
$MAXACTVP
 70
    64
  9
$PINSBASE
 10
0.0
 20
0.0
 30
0.0
  9
$PLIMCHECK
 70
     0
  9
$PEXTMIN
 10
1.000000000000000E+20
 20
1.000000000000000E+20
 30
1.000000000000000E+20
  9
$PEXTMAX
 10
-1.000000000000000E+20
 20
-1.000000000000000E+20
 30
-1.000000000000000E+20
  9
$PLIMMIN
 10
0.0
 20
0.0
  9
$PLIMMAX
 10
12.0
 20
9.0
  9
$UNITMODE
 70
     0
  9
$VISRETAIN
 70
     1
  9
$PLINEGEN
 70
     0
  9
$PSLTSCALE
 70
     1
  9
$TREEDEPTH
 70
  3020
  9
$CMLSTYLE
  2
Standard
  9
$CMLJUST
 70
     0
  9
$CMLSCALE
 40
1.0
  9
$PROXYGRAPHICS
 70
     1
  9
$MEASUREMENT
 70
     0
  9
$CELWEIGHT
370
    -1
  9
$ENDCAPS
280
     0
  9
$JOINSTYLE
280
     0
  9
$LWDISPLAY
290
     1
  9
$INSUNITS
 70
     1
  9
$HYPERLINKBASE
  1

  9
$STYLESHEET
  1

  9
$XEDIT
290
     1
  9
$CEPSNTYPE
380
     0
  9
$PSTYLEMODE
290
     1
  9
$FINGERPRINTGUID
  2
{08F3B11C-83EA-B65C-9FD1-5542353D60B1}
  9
$VERSIONGUID
  2
{FAEB1C32-E019-11D5-929B-00C0DF256EC4}
  9
$EXTNAMES
290
     1
  9
$PSVPSCALE
 40
0.0
  9
$OLESTARTUP
290
     0
  9
$SORTENTS
280
   127
  9
$INDEXCTL
280
     0
  9
$HIDETEXT
280
     1
  9
$XCLIPFRAME
280
     2
  9
$HALOGAP
280
     0
  9
$OBSCOLOR
 70
   257
  9
$OBSLTYPE
280
     0
  9
$INTERSECTIONDISPLAY
280
     0
  9
$INTERSECTIONCOLOR
 70
   257
  9
$DIMASSOC
280
     2
  9
$PROJECTNAME
  1

  9
$CAMERADISPLAY
290
     0
  9
$LENSLENGTH
 40
50.0
  9
$CAMERAHEIGHT
 40
0.0
  9
$STEPSPERSEC
 40
2.0
  9
$STEPSIZE
 40
6.0
  9
$3DDWFPREC
 40
2.0
  9
$PSOLWIDTH
 40
0.25
  9
$PSOLHEIGHT
 40
4.0
  9
$LOFTANG1
 40
1.570796326794897
  9
$LOFTANG2
 40
1.570796326794897
  9
$LOFTMAG1
 40
0.0
  9
$LOFTMAG2
 40
0.0
  9
$LOFTPARAM
 70
     7
  9
$LOFTNORMALS
280
     1
  9
$LATITUDE
 40
37.795
  9
$LONGITUDE
 40
-122.394
  9
$NORTHDIRECTION
 40
0.0
  9
$TIMEZONE
 70
 -8000
  9
$LIGHTGLYPHDISPLAY
280
     1
  9
$TILEMODELIGHTSYNCH
280
     1
  9
$CMATERIAL
347
3C
  9
$SOLIDHIST
280
     1
  9
$SHOWHIST
280
     1
  9
$DWFFRAME
280
     2
  9
$DGNFRAME
280
     2
  9
$REALWORLDSCALE
290
     1
  9
$INTERFERECOLOR
 62
   256
  9
$CSHADOW
280
     0
  9
$SHADOWPLANELOCATION
 40
0.0
  0
ENDSEC
  0
SECTION
  2
CLASSES
  0
CLASS
  1
ACDBDICTIONARYWDFLT
  2
AcDbDictionaryWithDefault
  3
ObjectDBX Classes
 90
        0
 91
        4
280
     0
281
     0
  0
CLASS
  1
VISUALSTYLE
  2
AcDbVisualStyle
  3
ObjectDBX Classes
 90
     4095
 91
        4
280
     0
281
     0
  0
CLASS
  1
MATERIAL
  2
AcDbMaterial
  3
ObjectDBX Classes
 90
     1153
 91
        4
280
     0
281
     0
  0
CLASS
  1
SUN
  2
AcDbSun
  3
SCENEOE
 90
     1024
 91
        4
280
     0
281
     0
  0
ENDSEC
  0
SECTION
  2
TABLES
  0
TABLE
  2
VPORT
  5
8
330
0
100
AcDbSymbolTable
 70
     1
  0
VPORT
  5
29
330
8
100
AcDbSymbolTableRecord
100
AcDbViewportTableRecord
  2
*Active
 70
     0
 10
0.0
 20
0.0
 11
1.0
 21
1.0
 12
0.0
 22
0.0
 13
0.0
 23
0.0
 14
0.5
 24
0.5
 15
0.5
 25
0.5
 16
0.0
 26
0.0
 36
1.0
 17
149.9993471847223
 27
-149.9993471847223
 37
0.0
 40
299.9986943694446
 41
1.0
 42
50.0
 43
0.0
 44
0.0
 50
0.0
 51
0.0
 71
     0
 72
   100
 73
     1
 74
     3
 75
     0
 76
     0
 77
     0
 78
     0
281
     0
 65
     1
110
0.0
120
0.0
130
0.0
111
1.0
121
0.0
131
0.0
112
0.0
122
1.0
132
0.0
 79
     0
146
0.0
 60
     3
 61
     5
292
     1
282
     1
141
0.0
142
0.0
 63
   250
361
3F
  0
ENDTAB
  0
TABLE
  2
LTYPE
  5
5
330
0
100
AcDbSymbolTable
 70
     1
  0
LTYPE
  5
14
330
5
100
AcDbSymbolTableRecord
100
AcDbLinetypeTableRecord
  2
ByBlock
 70
     0
  3

 72
    65
 73
     0
 40
0.0
  0
LTYPE
  5
15
330
5
100
AcDbSymbolTableRecord
100
AcDbLinetypeTableRecord
  2
ByLayer
 70
     0
  3

 72
    65
 73
     0
 40
0.0
  0
LTYPE
  5
16
330
5
100
AcDbSymbolTableRecord
100
AcDbLinetypeTableRecord
  2
Continuous
 70
     0
  3
Solid line
 72
    65
 73
     0
 40
0.0
  0
ENDTAB
  0
TABLE
  2
LAYER
  5
2
330
0
100
AcDbSymbolTable
 70
     2
  0
LAYER
  5
10
330
2
100
AcDbSymbolTableRecord
100
AcDbLayerTableRecord
  2
0
 70
     0
 62
     7
  6
Continuous
370
    -3
390
F
347
3E
  0
LAYER
  5
40
330
2
100
AcDbSymbolTableRecord
100
AcDbLayerTableRecord
  2
Layer 1
 70
     0
 62
     7
  6
Continuous
370
    -3
390
F
347
3E
  0
ENDTAB
  0
TABLE
  2
STYLE
  5
3
330
0
100
AcDbSymbolTable
 70
     1
  0
STYLE
  5
11
330
3
100
AcDbSymbolTableRecord
100
AcDbTextStyleTableRecord
  2
Standard
 70
     0
 40
0.0
 41
1.0
 50
0.0
 71
     0
 42
0.2
  3
txt
  4

  0
ENDTAB
  0
TABLE
  2
VIEW
  5
6
330
0
100
AcDbSymbolTable
 70
     0
  0
ENDTAB
  0
TABLE
  2
UCS
  5
7
330
0
100
AcDbSymbolTable
 70
     0
  0
ENDTAB
  0
TABLE
  2
APPID
  5
9
330
0
100
AcDbSymbolTable
 70
     1
  0
APPID
  5
12
330
9
100
AcDbSymbolTableRecord
100
AcDbRegAppTableRecord
  2
ACAD
 70
     0
  0
ENDTAB
  0
TABLE
  2
DIMSTYLE
  5
A
330
0
100
AcDbSymbolTable
 70
     1
100
AcDbDimStyleTable
  0
DIMSTYLE
105
27
330
A
100
AcDbSymbolTableRecord
100
AcDbDimStyleTableRecord
  2
Standard
 70
     0
178
     0
340
11
  0
ENDTAB
  0
TABLE
  2
BLOCK_RECORD
  5
1
330
0
100
AcDbSymbolTable
 70
     1
  0
BLOCK_RECORD
  5
1F
330
1
100
AcDbSymbolTableRecord
100
AcDbBlockTableRecord
  2
*Model_Space
340
22
 70
     0
280
     1
281
     0
  0
BLOCK_RECORD
  5
1B
330
1
100
AcDbSymbolTableRecord
100
AcDbBlockTableRecord
  2
*Paper_Space
340
1E
 70
     0
280
     1
281
     0
  0
BLOCK_RECORD
  5
23
330
1
100
AcDbSymbolTableRecord
100
AcDbBlockTableRecord
  2
*Paper_Space0
340
26
 70
     0
280
     1
281
     0
  0
ENDTAB
  0
ENDSEC
  0
SECTION
  2
BLOCKS
  0
BLOCK
  5
20
330
1F
100
AcDbEntity
  8
0
100
AcDbBlockBegin
  2
*Model_Space
 70
     0
 10
0.0
 20
0.0
 30
0.0
  3
*Model_Space
  1

  0
ENDBLK
  5
21
330
1F
100
AcDbEntity
  8
0
100
AcDbBlockEnd
  0
BLOCK
  5
1C
330
1B
100
AcDbEntity
 67
     1
  8
0
100
AcDbBlockBegin
  2
*Paper_Space
 70
     0
 10
0.0
 20
0.0
 30
0.0
  3
*Paper_Space
  1

  0
ENDBLK
  5
1D
330
1B
100
AcDbEntity
 67
     1
  8
0
100
AcDbBlockEnd
  0
BLOCK
  5
24
330
23
100
AcDbEntity
  8
0
100
AcDbBlockBegin
  2
*Paper_Space0
 70
     0
 10
0.0
 20
0.0
 30
0.0
  3
*Paper_Space0
  1

  0
ENDBLK
  5
25
330
23
100
AcDbEntity
  8
0
100
AcDbBlockEnd
  0
ENDSEC
  0
SECTION
  2
ENTITIES
  0
SPLINE
  5
41
330
1F
100
AcDbEntity
  8
Layer 1
370
     0
100
AcDbSpline
210
0.0
220
0.0
230
1.0
 70
    11
 71
     3
 72
   239
 73
   235
 74
     0
 42
0.0000000001
 43
0.0000000001
 12
1.0
 22
0.0
 32
0.0
 13
1.0
 23
0.0
 33
0.0
 40
0.0
 40
0.0
 40
0.0
 40
0.0
 40
1.0
 40
1.0
 40
1.0
 40
2.0
 40
2.0
 40
2.0
 40
3.0
 40
3.0
 40
3.0
 40
4.0
 40
4.0
 40
4.0
 40
5.0
 40
5.0
 40
5.0
 40
6.0
 40
6.0
 40
6.0
 40
7.0
 40
7.0
 40
7.0
 40
8.0
 40
8.0
 40
8.0
 40
9.0
 40
9.0
 40
9.0
 40
10.0
 40
10.0
 40
10.0
 40
11.0
 40
11.0
 40
11.0
 40
12.0
 40
12.0
 40
12.0
 40
13.0
 40
13.0
 40
13.0
 40
14.0
 40
14.0
 40
14.0
 40
15.0
 40
15.0
 40
15.0
 40
16.0
 40
16.0
 40
16.0
 40
17.0
 40
17.0
 40
17.0
 40
18.0
 40
18.0
 40
18.0
 40
19.0
 40
19.0
 40
19.0
 40
20.0
 40
20.0
 40
20.0
 40
21.0
 40
21.0
 40
21.0
 40
22.0
 40
22.0
 40
22.0
 40
23.0
 40
23.0
 40
23.0
 40
24.0
 40
24.0
 40
24.0
 40
25.0
 40
25.0
 40
25.0
 40
26.0
 40
26.0
 40
26.0
 40
27.0
 40
27.0
 40
27.0
 40
28.0
 40
28.0
 40
28.0
 40
29.0
 40
29.0
 40
29.0
 40
30.0
 40
30.0
 40
30.0
 40
31.0
 40
31.0
 40
31.0
 40
32.0
 40
32.0
 40
32.0
 40
33.0
 40
33.0
 40
33.0
 40
34.0
 40
34.0
 40
34.0
 40
35.0
 40
35.0
 40
35.0
 40
36.0
 40
36.0
 40
36.0
 40
37.0
 40
37.0
 40
37.0
 40
38.0
 40
38.0
 40
38.0
 40
39.0
 40
39.0
 40
39.0
 40
40.0
 40
40.0
 40
40.0
 40
41.0
 40
41.0
 40
41.0
 40
42.0
 40
42.0
 40
42.0
 40
43.0
 40
43.0
 40
43.0
 40
44.0
 40
44.0
 40
44.0
 40
45.0
 40
45.0
 40
45.0
 40
46.0
 40
46.0
 40
46.0
 40
47.0
 40
47.0
 40
47.0
 40
48.0
 40
48.0
 40
48.0
 40
49.0
 40
49.0
 40
49.0
 40
50.0
 40
50.0
 40
50.0
 40
51.0
 40
51.0
 40
51.0
 40
52.0
 40
52.0
 40
52.0
 40
53.0
 40
53.0
 40
53.0
 40
54.0
 40
54.0
 40
54.0
 40
55.0
 40
55.0
 40
55.0
 40
56.0
 40
56.0
 40
56.0
 40
57.0
 40
57.0
 40
57.0
 40
58.0
 40
58.0
 40
58.0
 40
59.0
 40
59.0
 40
59.0
 40
60.0
 40
60.0
 40
60.0
 40
61.0
 40
61.0
 40
61.0
 40
62.0
 40
62.0
 40
62.0
 40
63.0
 40
63.0
 40
63.0
 40
64.0
 40
64.0
 40
64.0
 40
65.0
 40
65.0
 40
65.0
 40
66.0
 40
66.0
 40
66.0
 40
67.0
 40
67.0
 40
67.0
 40
68.0
 40
68.0
 40
68.0
 40
69.0
 40
69.0
 40
69.0
 40
70.0
 40
70.0
 40
70.0
 40
71.0
 40
71.0
 40
71.0
 40
72.0
 40
72.0
 40
72.0
 40
73.0
 40
73.0
 40
73.0
 40
74.0
 40
74.0
 40
74.0
 40
75.0
 40
75.0
 40
75.0
 40
76.0
 40
76.0
 40
76.0
 40
77.0
 40
77.0
 40
77.0
 40
78.0
 40
78.0
 40
78.0
 40
78.0
 10
205.5980690096854
 20
-183.5244563968451
 30
0.0
 10
205.5980690096854
 20
-183.5244563968451
 30
0.0
 10
199.3607666973335
 20
-178.8464473648089
 30
0.0
 10
199.3607666973335
 20
-178.8464473648089
 30
0.0
 10
198.0185144325873
 20
-177.8397689321747
 30
0.0
 10
196.5544349787451
 20
-176.9993809522402
 30
0.0
 10
194.9865720234079
 20
-176.4020013950979
 30
0.0
 10
190.7974651044223
 20
-174.8058240612413
 30
0.0
 10
186.8524432005698
 20
-172.6312797909517
 30
0.0
 10
183.2662710551989
 20
-169.9416506819248
 30
0.0
 10
183.2662710551989
 20
-169.9416506819248
 30
0.0
 10
178.3713071349817
 20
-166.2703846780683
 30
0.0
 10
178.3713071349817
 20
-166.2703846780683
 30
0.0
 10
174.3423971560634
 20
-163.2486914279557
 30
0.0
 10
170.4275198377074
 20
-160.0808184700346
 30
0.0
 10
166.6299480206204
 20
-156.7775963232367
 30
0.0
 10
164.8397902790987
 20
-155.2204992912883
 30
0.0
 10
163.816984493221
 20
-152.9596984427892
 30
0.0
 10
163.816984493221
 20
-150.5871257776354
 30
0.0
 10
163.816984493221
 20
-150.5871257776354
 30
0.0
 10
163.816984493221
 20
-150.5871042457912
 30
0.0
 10
163.816984493221
 20
-150.5871042457912
 30
0.0
 10
163.816984493221
 20
-148.2145100487922
 30
0.0
 10
164.8398333427916
 20
-145.9536876684451
 30
0.0
 10
166.6299910843165
 20
-144.3965906364974
 30
0.0
 10
170.4267877549142
 20
-141.0941221043369
 30
0.0
 10
174.3408899267879
 20
-137.9269381655135
 30
0.0
 10
178.3689816955311
 20
-134.9058908708049
 30
0.0
 10
178.3689816955311
 20
-134.9058908708049
 30
0.0
 10
182.9374366911318
 20
-131.4795280922568
 30
0.0
 10
182.9374366911318
 20
-131.4795280922568
 30
0.0
 10
186.6729106620953
 20
-128.6778903162632
 30
0.0
 10
190.7380802709978
 20
-126.3129614567205
 30
0.0
 10
195.1128347729423
 20
-124.680459897342
 30
0.0
 10
196.5000885974634
 20
-124.1627912369871
 30
0.0
 10
197.8056936589879
 20
-123.448924388751
 30
0.0
 10
198.9900313594277
 20
-122.5606711134197
 30
0.0
 10
198.9900313594277
 20
-122.5606711134197
 30
0.0
 10
205.5762787807432
 20
-117.6209855474352
 30
0.0
 10
205.5762787807432
 20
-117.6209855474352
 30
0.0
 10
207.4030406617969
 20
-116.2509356684923
 30
0.0
 10
210.2538571758411
 20
-110.106371020234
 30
0.0
 10
207.9272980672629
 20
-107.0042563223856
 30
0.0
 10
205.6007389586884
 20
-103.9021631563886
 30
0.0
 10
198.8821137433542
 20
-104.8896997772354
 30
0.0
 10
197.0553518623005
 20
-106.2597496561783
 30
0.0
 10
197.0553518623005
 20
-106.2597496561783
 30
0.0
 10
190.8181787410299
 20
-110.9376510289767
 30
0.0
 10
190.8181787410299
 20
-110.9376510289767
 30
0.0
 10
189.4759695399766
 20
-111.9443294616148
 30
0.0
 10
188.2592479419715
 20
-113.1145422705651
 30
0.0
 10
187.2467343788566
 20
-114.4524020385696
 30
0.0
 10
184.5414300853712
 20
-118.0270115822168
 30
0.0
 10
181.3492476724317
 20
-121.2053920813705
 30
0.0
 10
177.7629893996756
 20
-123.8950857859389
 30
0.0
 10
177.7629893996756
 20
-123.8950857859389
 30
0.0
 10
172.8680254794584
 20
-127.5663302579474
 30
0.0
 10
172.8680254794584
 20
-127.5663302579474
 30
0.0
 10
171.6684862951867
 20
-128.4659523483794
 30
0.0
 10
170.4590424613975
 20
-129.3517725250261
 30
0.0
 10
169.2402107424084
 20
-130.2241783611247
 30
0.0
 10
166.9723043844684
 20
-131.8475719493154
 30
0.0
 10
163.816984493221
 20
-130.2082663263515
 30
0.0
 10
163.816984493221
 20
-127.4192246807272
 30
0.0
 10
163.816984493221
 20
-127.4192246807272
 30
0.0
 10
163.816984493221
 20
-115.6960599768967
 30
0.0
 10
163.816984493221
 20
-115.6960599768967
 30
0.0
 10
163.816984493221
 20
-115.6666690060382
 30
0.0
 10
163.8134532703505
 20
-115.6382039045926
 30
0.0
 10
163.8125919964792
 20
-115.6090282522012
 30
0.0
 10
163.8125919964792
 20
-115.6090282522012
 30
0.0
 10
163.8125919964792
 20
-115.2316826373331
 30
0.0
 10
163.8125919964792
 20
-115.2316826373331
 30
0.0
 10
163.8125919964792
 20
-113.7696056452411
 30
0.0
 10
162.758565032767
 20
-112.5204570859818
 30
0.0
 10
161.3173093365127
 20
-112.274477268335
 30
0.0
 10
161.3173093365127
 20
-112.274477268335
 30
0.0
 10
151.33092492603
 20
-110.5699947451596
 30
0.0
 10
151.33092492603
 20
-110.5699947451596
 30
0.0
 10
150.3288327767599
 20
-110.3989457543169
 30
0.0
 10
149.3050365259288
 20
-110.3989242224727
 30
0.0
 10
148.3029013129626
 20
-110.5699086177744
 30
0.0
 10
148.3029013129626
 20
-110.5699086177744
 30
0.0
 10
138.3123397242084
 20
-112.2745849275689
 30
0.0
 10
138.3123397242084
 20
-112.2745849275689
 30
0.0
 10
136.871040964258
 20
-112.5205001496748
 30
0.0
 10
135.8169709368529
 20
-113.7696917726263
 30
0.0
 10
135.8169709368529
 20
-115.2318333602593
 30
0.0
 10
135.8169709368529
 20
-115.2318333602593
 30
0.0
 10
135.8169709368529
 20
-115.6960599768967
 30
0.0
 10
135.8169709368529
 20
-115.6960599768967
 30
0.0
 10
135.8169709368529
 20
-115.6960599768967
 30
0.0
 10
135.8169709368529
 20
-127.4192677444195
 30
0.0
 10
135.8169709368529
 20
-127.4192677444195
 30
0.0
 10
135.8169709368529
 20
-130.2083309218925
 30
0.0
 10
132.6615649182197
 20
-131.8476365448558
 30
0.0
 10
130.3936585602797
 20
-130.2241998929696
 30
0.0
 10
129.1756881151626
 20
-129.3523538848893
 30
0.0
 10
127.9670624915517
 20
-128.4671365999544
 30
0.0
 10
126.768341517459
 20
-127.5681174012303
 30
0.0
 10
126.768341517459
 20
-127.5681174012303
 30
0.0
 10
122.1998003944692
 20
-124.1417115589867
 30
0.0
 10
122.1998003944692
 20
-124.1417115589867
 30
0.0
 10
118.4641111050386
 20
-121.3399445919143
 30
0.0
 10
115.0553613771581
 20
-118.0994016511031
 30
0.0
 10
112.2631545500554
 20
-114.3565207248457
 30
0.0
 10
111.3779372651204
 20
-113.1699221804924
 30
0.0
 10
110.327140078427
 20
-112.1165842358773
 30
0.0
 10
109.1429746327575
 20
-111.2284816834728
 30
0.0
 10
109.1429746327575
 20
-111.2284816834728
 30
0.0
 10
102.5567272114459
 20
-106.2887961174877
 30
0.0
 10
102.5567272114459
 20
-106.2887961174877
 30
0.0
 10
100.7299653303922
 20
-104.9187462385448
 30
0.0
 10
94.03295808922601
 20
-103.9024000067032
 30
0.0
 10
91.70639898065158
 20
-107.0045147045483
 30
0.0
 10
89.37983987207332
 20
-110.1066078705493
 30
0.0
 10
92.20903841194954
 20
-116.2799821298017
 30
0.0
 10
94.03580029300326
 20
-117.6500320087446
 30
0.0
 10
94.03580029300326
 20
-117.6500320087446
 30
0.0
 10
100.2729734142738
 20
-122.3278687860027
 30
0.0
 10
100.2729734142738
 20
-122.3278687860027
 30
0.0
 10
101.6152256790195
 20
-123.3345472186407
 30
0.0
 10
103.0793481965584
 20
-124.1749351985745
 30
0.0
 10
104.6472111518955
 20
-124.7723578194097
 30
0.0
 10
108.8363180708774
 20
-126.3685566851144
 30
0.0
 10
112.7813830384228
 20
-128.543144019097
 30
0.0
 10
116.3675982474898
 20
-131.2328377236649
 30
0.0
 10
116.3675982474898
 20
-131.2328377236649
 30
0.0
 10
121.262562167707
 20
-134.9040821956733
 30
0.0
 10
121.262562167707
 20
-134.9040821956733
 30
0.0
 10
125.2915152103176
 20
-137.9257539139417
 30
0.0
 10
129.2063925286742
 20
-141.0936053400141
 30
0.0
 10
133.0039643457612
 20
-144.3968059549646
 30
0.0
 10
134.7941220872823
 20
-145.9539029869117
 30
0.0
 10
135.8169709368529
 20
-148.2146823035665
 30
0.0
 10
135.8169709368529
 20
-150.5872765005655
 30
0.0
 10
135.8169709368529
 20
-150.5872765005655
 30
0.0
 10
135.8169709368529
 20
-150.5873195642578
 30
0.0
 10
135.8169709368529
 20
-150.5873195642578
 30
0.0
 10
135.8169709368529
 20
-152.9599352931013
 30
0.0
 10
134.7940790235893
 20
-155.2207361416042
 30
0.0
 10
133.0039212820651
 20
-156.7778331735513
 30
0.0
 10
129.2071246114674
 20
-160.0803017057117
 30
0.0
 10
125.293065503286
 20
-163.2474856445359
 30
0.0
 10
121.2649737345467
 20
-166.2685329392437
 30
0.0
 10
121.2649737345467
 20
-166.2685329392437
 30
0.0
 10
116.6966909937163
 20
-169.694744994865
 30
0.0
 10
116.6966909937163
 20
-169.694744994865
 30
0.0
 10
112.9608725132043
 20
-172.4966196211707
 30
0.0
 10
108.8953583947571
 20
-174.8617853310286
 30
0.0
 10
104.5202593832641
 20
-176.4943514859507
 30
0.0
 10
103.1333070045948
 20
-177.0118909552211
 30
0.0
 10
101.8279172615413
 20
-177.7257147397648
 30
0.0
 10
100.643837943261
 20
-178.6137742284764
 30
0.0
 10
100.643837943261
 20
-178.6137742284764
 30
0.0
 10
94.05759052194554
 20
-183.5534813263057
 30
0.0
 10
94.05759052194554
 20
-183.5534813263057
 30
0.0
 10
92.23082864089181
 20
-184.9235096734051
 30
0.0
 10
89.38001212684757
 20
-191.0680958535069
 30
0.0
 10
91.70657123542586
 20
-194.1701890195079
 30
0.0
 10
94.03313034400027
 20
-197.2722821855088
 30
0.0
 10
100.7517555593345
 20
-196.284745564662
 30
0.0
 10
102.5785174403882
 20
-194.9147172175627
 30
0.0
 10
102.5785174403882
 20
-194.9147172175627
 30
0.0
 10
108.8157766890479
 20
-190.2367081855316
 30
0.0
 10
108.8157766890479
 20
-190.2367081855316
 30
0.0
 10
110.1579858901012
 20
-189.2300297528935
 30
0.0
 10
111.3747074881024
 20
-188.0598169439426
 30
0.0
 10
112.3872210512173
 20
-186.7219787077861
 30
0.0
 10
115.0924822810097
 20
-183.1473906959845
 30
0.0
 10
118.2846646939493
 20
-179.9690101968333
 30
0.0
 10
121.8708799030131
 20
-177.2793595559585
 30
0.0
 10
121.8708799030131
 20
-177.2793595559585
 30
0.0
 10
126.7659299506194
 20
-173.6080935521019
 30
0.0
 10
126.7659299506194
 20
-173.6080935521019
 30
0.0
 10
127.9654260711943
 20
-172.7084714616693
 30
0.0
 10
129.1748699049842
 20
-171.8226512850231
 30
0.0
 10
130.3937016239726
 20
-170.9502239170759
 30
0.0
 10
132.6616079819126
 20
-169.3268518607339
 30
0.0
 10
135.8169709368529
 20
-170.9661359518484
 30
0.0
 10
135.8169709368529
 20
-173.7551991293221
 30
0.0
 10
135.8169709368529
 20
-173.7551991293221
 30
0.0
 10
135.8169709368529
 20
-185.3612521184983
 30
0.0
 10
135.8169709368529
 20
-185.3612521184983
 30
0.0
 10
135.8169709368529
 20
-185.3612521184983
 30
0.0
 10
135.8169709368529
 20
-185.4502647730997
 30
0.0
 10
135.8169709368529
 20
-185.4502647730997
 30
0.0
 10
135.8169709368529
 20
-187.1383830927164
 30
0.0
 10
137.018663305801
 20
-188.5873902538125
 30
0.0
 10
138.677649036723
 20
-188.8996450958581
 30
0.0
 10
138.677649036723
 20
-188.8996450958581
 30
0.0
 10
148.1519630670157
 20
-190.682934178256
 30
0.0
 10
148.1519630670157
 20
-190.682934178256
 30
0.0
 10
149.2523265650045
 20
-190.8900274806157
 30
0.0
 10
150.3816288650694
 20
-190.8900059487676
 30
0.0
 10
151.481906235673
 20
-190.6828265190234
 30
0.0
 10
151.481906235673
 20
-190.6828265190234
 30
0.0
 10
160.9520000239943
 20
-188.8998388824804
 30
0.0
 10
160.9520000239943
 20
-188.8998388824804
 30
0.0
 10
162.6109426912241
 20
-188.5874979130489
 30
0.0
 10
163.8125919964792
 20
-187.1385122837983
 30
0.0
 10
163.8125919964792
 20
-185.450437027874
 30
0.0
 10
163.8125919964792
 20
-185.450437027874
 30
0.0
 10
163.8125919964792
 20
-185.4483269068893
 30
0.0
 10
163.8125919964792
 20
-185.4483269068893
 30
0.0
 10
163.8134532703505
 20
-185.4191297226505
 30
0.0
 10
163.816984493221
 20
-185.3906646212049
 30
0.0
 10
163.816984493221
 20
-185.3612521184983
 30
0.0
 10
163.816984493221
 20
-185.3612521184983
 30
0.0
 10
163.816984493221
 20
-173.755177597474
 30
0.0
 10
163.816984493221
 20
-173.755177597474
 30
0.0
 10
163.816984493221
 20
-170.9661144200042
 30
0.0
 10
166.9723474481613
 20
-169.3268303288884
 30
0.0
 10
169.2402538061013
 20
-170.950245448924
 30
0.0
 10
170.4582242512184
 20
-171.8221129888549
 30
0.0
 10
171.666892938526
 20
-172.7073302737898
 30
0.0
 10
172.8656139126187
 20
-173.6063710043593
 30
0.0
 10
172.8656139126187
 20
-173.6063710043593
 30
0.0
 10
177.4342411629937
 20
-177.0329060376811
 30
0.0
 10
177.4342411629937
 20
-177.0329060376811
 30
0.0
 10
181.1695859428759
 20
-179.8344361544382
 30
0.0
 10
184.5780772885969
 20
-183.0746991812457
 30
0.0
 10
187.3700687972286
 20
-186.8171494705649
 30
0.0
 10
188.2555444643268
 20
-188.0040279289258
 30
0.0
 10
189.3064708421023
 20
-189.0576457875491
 30
0.0
 10
190.4908946699312
 20
-189.9459421265765
 30
0.0
 10
190.4908946699312
 20
-189.9459421265765
 30
0.0
 10
197.0771420912427
 20
-194.885692288102
 30
0.0
 10
197.0771420912427
 20
-194.885692288102
 30
0.0
 10
198.9039039722965
 20
-196.2557206351962
 30
0.0
 10
205.6009112134627
 20
-197.2720238033449
 30
0.0
 10
207.9274703220371
 20
-194.1699737010413
 30
0.0
 10
210.2540294306154
 20
-191.0678374713481
 30
0.0
 10
207.4248308907391
 20
-184.8944847439392
 30
0.0
 10
205.5980690096854
 20
-183.5244563968451
 30
0.0
  0
SPLINE
  5
42
330
1F
100
AcDbEntity
  8
Layer 1
370
     0
100
AcDbSpline
210
0.0
220
0.0
230
1.0
 70
    11
 71
     3
 72
    17
 73
    13
 74
     0
 42
0.0000000001
 43
0.0000000001
 12
1.0
 22
0.0
 32
0.0
 13
1.0
 23
0.0
 33
0.0
 40
0.0
 40
0.0
 40
0.0
 40
0.0
 40
1.0
 40
1.0
 40
1.0
 40
2.0
 40
2.0
 40
2.0
 40
3.0
 40
3.0
 40
3.0
 40
4.0
 40
4.0
 40
4.0
 40
4.0
 10
198.1681177040362
 20
-119.1835947321555
 30
0.0
 10
198.0897417817467
 20
-119.7302883219723
 30
0.0
 10
197.5829682358665
 20
-120.1099378444469
 30
0.0
 10
197.0363177097425
 20
-120.0315403903094
 30
0.0
 10
196.4896671836224
 20
-119.9531644680199
 30
0.0
 10
196.1100176611479
 20
-119.4464339858358
 30
0.0
 10
196.1883935834373
 20
-118.899740396019
 30
0.0
 10
196.2667695057268
 20
-118.3530468062027
 30
0.0
 10
196.773456924218
 20
-117.9734188155763
 30
0.0
 10
197.3201935777271
 20
-118.0517947378657
 30
0.0
 10
197.8668441038511
 20
-118.130192192
 30
0.0
 10
198.2464936263256
 20
-118.6369011423425
 30
0.0
 10
198.1681177040362
 20
-119.1835947321555
 30
0.0
  0
SPLINE
  5
43
330
1F
100
AcDbEntity
  8
Layer 1
370
     0
100
AcDbSpline
210
0.0
220
0.0
230
1.0
 70
    11
 71
     3
 72
    17
 73
    13
 74
     0
 42
0.0000000001
 43
0.0000000001
 12
1.0
 22
0.0
 32
0.0
 13
1.0
 23
0.0
 33
0.0
 40
0.0
 40
0.0
 40
0.0
 40
0.0
 40
1.0
 40
1.0
 40
1.0
 40
2.0
 40
2.0
 40
2.0
 40
3.0
 40
3.0
 40
3.0
 40
4.0
 40
4.0
 40
4.0
 40
4.0
 10
203.2612607420405
 20
-115.3678715682338
 30
0.0
 10
203.182884819751
 20
-115.91456515805
 30
0.0
 10
202.6761112738708
 20
-116.2942146805245
 30
0.0
 10
202.1294607477507
 20
-116.215817226387
 30
0.0
 10
201.5827240942415
 20
-116.1374413040976
 30
0.0
 10
201.203074571767
 20
-115.6307108219135
 30
0.0
 10
201.2814504940564
 20
-115.0840172320972
 30
0.0
 10
201.3599125437311
 20
-114.537323642281
 30
0.0
 10
201.8665999622261
 20
-114.1576741198065
 30
0.0
 10
202.4133366157353
 20
-114.236071573944
 30
0.0
 10
202.9599871418554
 20
-114.3144474962334
 30
0.0
 10
203.3396366643299
 20
-114.8211779784175
 30
0.0
 10
203.2612607420405
 20
-115.3678715682338
 30
0.0
  0
SPLINE
  5
44
330
1F
100
AcDbEntity
  8
Layer 1
370
     0
100
AcDbSpline
210
0.0
220
0.0
230
1.0
 70
    11
 71
     3
 72
    17
 73
    13
 74
     0
 42
0.0000000001
 43
0.0000000001
 12
1.0
 22
0.0
 32
0.0
 13
1.0
 23
0.0
 33
0.0
 40
0.0
 40
0.0
 40
0.0
 40
0.0
 40
1.0
 40
1.0
 40
1.0
 40
2.0
 40
2.0
 40
2.0
 40
3.0
 40
3.0
 40
3.0
 40
4.0
 40
4.0
 40
4.0
 40
4.0
 10
201.7572104712607
 20
-110.3106478755243
 30
0.0
 10
201.8747587511795
 20
-109.4907163296111
 30
0.0
 10
202.6347535917298
 20
-108.9213337753852
 30
0.0
 10
203.4546851376423
 20
-109.038898202042
 30
0.0
 10
204.2746166835581
 20
-109.1564626287032
 30
0.0
 10
204.8440153845252
 20
-109.9164574692542
 30
0.0
 10
204.726467104607
 20
-110.7363890151673
 30
0.0
 10
204.6089188246889
 20
-111.5563205610811
 30
0.0
 10
203.8488593971726
 20
-112.1257083427043
 30
0.0
 10
203.0289924382254
 20
-112.0081386886458
 30
0.0
 10
202.2089963053444
 20
-111.8905742619891
 30
0.0
 10
201.6396621913426
 20
-111.1305794214381
 30
0.0
 10
201.7572104712607
 20
-110.3106478755243
 30
0.0
  0
SPLINE
  5
45
330
1F
100
AcDbEntity
  8
Layer 1
370
     0
100
AcDbSpline
210
0.0
220
0.0
230
1.0
 70
    11
 71
     3
 72
    17
 73
    13
 74
     0
 42
0.0000000001
 43
0.0000000001
 12
1.0
 22
0.0
 32
0.0
 13
1.0
 23
0.0
 33
0.0
 40
0.0
 40
0.0
 40
0.0
 40
0.0
 40
1.0
 40
1.0
 40
1.0
 40
2.0
 40
2.0
 40
2.0
 40
3.0
 40
3.0
 40
3.0
 40
4.0
 40
4.0
 40
4.0
 40
4.0
 10
197.4657488619789
 20
-109.9908526622449
 30
0.0
 10
197.5441247842684
 20
-109.444159072428
 30
0.0
 10
198.0508122027634
 20
-109.0645310818015
 30
0.0
 10
198.5975488562726
 20
-109.142907004091
 30
0.0
 10
199.1442855097817
 20
-109.2212829263804
 30
0.0
 10
199.5238489048672
 20
-109.7280134085645
 30
0.0
 10
199.4454729825777
 20
-110.2747069983814
 30
0.0
 10
199.3670970602883
 20
-110.8214005881976
 30
0.0
 10
198.8604096417971
 20
-111.2010501106721
 30
0.0
 10
198.313672988288
 20
-111.1226526565346
 30
0.0
 10
197.767022462164
 20
-111.0442767342452
 30
0.0
 10
197.3873729396895
 20
-110.5375462520579
 30
0.0
 10
197.4657488619789
 20
-109.9908526622449
 30
0.0
  0
SPLINE
  5
46
330
1F
100
AcDbEntity
  8
Layer 1
370
     0
100
AcDbSpline
210
0.0
220
0.0
230
1.0
 70
    11
 71
     3
 72
    17
 73
    13
 74
     0
 42
0.0000000001
 43
0.0000000001
 12
1.0
 22
0.0
 32
0.0
 13
1.0
 23
0.0
 33
0.0
 40
0.0
 40
0.0
 40
0.0
 40
0.0
 40
1.0
 40
1.0
 40
1.0
 40
2.0
 40
2.0
 40
2.0
 40
3.0
 40
3.0
 40
3.0
 40
4.0
 40
4.0
 40
4.0
 40
4.0
 10
196.3179291736827
 20
-112.5864521963724
 30
0.0
 10
197.4229435505766
 20
-111.7585957512669
 30
0.0
 10
198.9898591046534
 20
-111.9832590405981
 30
0.0
 10
199.817715549759
 20
-113.0882518856439
 30
0.0
 10
200.6455719948645
 20
-114.193244730693
 30
0.0
 10
200.420865641841
 20
-115.7601387529224
 30
0.0
 10
199.3159373923324
 20
-116.5879951980279
 30
0.0
 10
198.2109230154385
 20
-117.4158516431334
 30
0.0
 10
196.6440074613616
 20
-117.1911883538022
 30
0.0
 10
195.8161510162561
 20
-116.0861955087564
 30
0.0
 10
194.9882945711506
 20
-114.9812026637074
 30
0.0
 10
195.2129147967889
 20
-113.414308641478
 30
0.0
 10
196.3179291736827
 20
-112.5864521963724
 30
0.0
  0
SPLINE
  5
47
330
1F
100
AcDbEntity
  8
Layer 1
370
     0
100
AcDbSpline
210
0.0
220
0.0
230
1.0
 70
    11
 71
     3
 72
    17
 73
    13
 74
     0
 42
0.0000000001
 43
0.0000000001
 12
1.0
 22
0.0
 32
0.0
 13
1.0
 23
0.0
 33
0.0
 40
0.0
 40
0.0
 40
0.0
 40
0.0
 40
1.0
 40
1.0
 40
1.0
 40
2.0
 40
2.0
 40
2.0
 40
3.0
 40
3.0
 40
3.0
 40
4.0
 40
4.0
 40
4.0
 40
4.0
 10
192.3726058239746
 20
-113.8066404217076
 30
0.0
 10
192.4509817462641
 20
-113.2599468318907
 30
0.0
 10
192.9577552921443
 20
-112.8803188412642
 30
0.0
 10
193.5044058182644
 20
-112.9586947635537
 30
0.0
 10
194.0510563443883
 20
-113.037092217688
 30
0.0
 10
194.4307058668629
 20
-113.5438226998753
 30
0.0
 10
194.3523299445735
 20
-114.0905162896922
 30
0.0
 10
194.273954022284
 20
-114.6372098795052
 30
0.0
 10
193.767266603789
 20
-115.0168378701349
 30
0.0
 10
193.2205299502798
 20
-114.9384619478454
 30
0.0
 10
192.6738794241597
 20
-114.8600644937079
 30
0.0
 10
192.2942299016852
 20
-114.3533340115206
 30
0.0
 10
192.3726058239746
 20
-113.8066404217076
 30
0.0
  0
SPLINE
  5
48
330
1F
100
AcDbEntity
  8
Layer 1
370
     0
100
AcDbSpline
210
0.0
220
0.0
230
1.0
 70
    11
 71
     3
 72
    17
 73
    13
 74
     0
 42
0.0000000001
 43
0.0000000001
 12
1.0
 22
0.0
 32
0.0
 13
1.0
 23
0.0
 33
0.0
 40
0.0
 40
0.0
 40
0.0
 40
0.0
 40
1.0
 40
1.0
 40
1.0
 40
2.0
 40
2.0
 40
2.0
 40
3.0
 40
3.0
 40
3.0
 40
4.0
 40
4.0
 40
4.0
 40
4.0
 10
101.0419187265816
 20
-109.1421103257574
 30
0.0
 10
101.588741507476
 20
-109.0642726996388
 30
0.0
 10
102.0950844164225
 20
-109.4444389864362
 30
0.0
 10
102.1728574470001
 20
-109.9912187036376
 30
0.0
 10
102.2507166049667
 20
-110.5379768889948
 30
0.0
 10
101.8705503181694
 20
-111.0443197979381
 30
0.0
 10
101.3238136646602
 20
-111.1221358922118
 30
0.0
 10
100.7769908837659
 20
-111.1999735183336
 30
0.0
 10
100.2706479748194
 20
-110.8198072315363
 30
0.0
 10
100.1928749442418
 20
-110.273027514331
 30
0.0
 10
100.1150157862751
 20
-109.7262693289777
 30
0.0
 10
100.4951820730725
 20
-109.2199264200311
 30
0.0
 10
101.0419187265816
 20
-109.1421103257574
 30
0.0
  0
SPLINE
  5
49
330
1F
100
AcDbEntity
  8
Layer 1
370
     0
100
AcDbSpline
210
0.0
220
0.0
230
1.0
 70
    11
 71
     3
 72
    17
 73
    13
 74
     0
 42
0.0000000001
 43
0.0000000001
 12
1.0
 22
0.0
 32
0.0
 13
1.0
 23
0.0
 33
0.0
 40
0.0
 40
0.0
 40
0.0
 40
0.0
 40
1.0
 40
1.0
 40
1.0
 40
2.0
 40
2.0
 40
2.0
 40
3.0
 40
3.0
 40
3.0
 40
4.0
 40
4.0
 40
4.0
 40
4.0
 10
97.50277213458445
 20
-116.2113601341042
 30
0.0
 10
96.95594935368624
 20
-116.2891762283786
 30
0.0
 10
96.44960644474357
 20
-115.9090314734255
 30
0.0
 10
96.37183341416213
 20
-115.3622517562241
 30
0.0
 10
96.29397425619548
 20
-114.815472039022
 30
0.0
 10
96.6741405429928
 20
-114.3091291300755
 30
0.0
 10
97.220963323891
 20
-114.231313035805
 30
0.0
 10
97.76769997740016
 20
-114.1534969415312
 30
0.0
 10
98.27404288634283
 20
-114.5336416964805
 30
0.0
 10
98.35190204430947
 20
-115.0804214136826
 30
0.0
 10
98.42967507489091
 20
-115.6272011308879
 30
0.0
 10
98.04950878809359
 20
-116.1335225079857
 30
0.0
 10
97.50277213458445
 20
-116.2113601341042
 30
0.0
  0
SPLINE
  5
4A
330
1F
100
AcDbEntity
  8
Layer 1
370
     0
100
AcDbSpline
210
0.0
220
0.0
230
1.0
 70
    11
 71
     3
 72
    17
 73
    13
 74
     0
 42
0.0000000001
 43
0.0000000001
 12
1.0
 22
0.0
 32
0.0
 13
1.0
 23
0.0
 33
0.0
 40
0.0
 40
0.0
 40
0.0
 40
0.0
 40
1.0
 40
1.0
 40
1.0
 40
2.0
 40
2.0
 40
2.0
 40
3.0
 40
3.0
 40
3.0
 40
4.0
 40
4.0
 40
4.0
 40
4.0
 10
96.60813801910325
 20
-112.0020084266897
 30
0.0
 10
95.78808076575552
 20
-112.1187165826941
 30
0.0
 10
95.02867041804485
 20
-111.548561394991
 30
0.0
 10
94.91196226203787
 20
-110.7285041416413
 30
0.0
 10
94.79525410603377
 20
-109.9084630349655
 30
0.0
 10
95.3654254404094
 20
-109.1490688339295
 30
0.0
 10
96.18548269375712
 20
-109.0323445312513
 30
0.0
 10
97.00553994710806
 20
-108.9156202285738
 30
0.0
 10
97.7649502948184
 20
-109.485775416273
 30
0.0
 10
97.88165845082283
 20
-110.3058326696227
 30
0.0
 10
97.99836660682982
 20
-111.1258737762979
 30
0.0
 10
97.42819527245419
 20
-111.8852841240083
 30
0.0
 10
96.60813801910325
 20
-112.0020084266897
 30
0.0
  0
SPLINE
  5
4B
330
1F
100
AcDbEntity
  8
Layer 1
370
     0
100
AcDbSpline
210
0.0
220
0.0
230
1.0
 70
    11
 71
     3
 72
    17
 73
    13
 74
     0
 42
0.0000000001
 43
0.0000000001
 12
1.0
 22
0.0
 32
0.0
 13
1.0
 23
0.0
 33
0.0
 40
0.0
 40
0.0
 40
0.0
 40
0.0
 40
1.0
 40
1.0
 40
1.0
 40
2.0
 40
2.0
 40
2.0
 40
3.0
 40
3.0
 40
3.0
 40
4.0
 40
4.0
 40
4.0
 40
4.0
 10
102.5919533127807
 20
-120.0323370686429
 30
0.0
 10
102.0452166592716
 20
-120.1101746947615
 30
0.0
 10
101.5388737503289
 20
-119.7300084079642
 30
0.0
 10
101.4611007197474
 20
-119.1832286907627
 30
0.0
 10
101.3832415617808
 20
-118.6364705054055
 30
0.0
 10
101.7634078485781
 20
-118.1301275964622
 30
0.0
 10
102.3101445020873
 20
-118.0522899703404
 30
0.0
 10
102.8569672829855
 20
-117.9744738760667
 30
0.0
 10
103.3633101919282
 20
-118.354640162864
 30
0.0
 10
103.4410832225096
 20
-118.9014198800693
 30
0.0
 10
103.5189423804762
 20
-119.4481780654227
 30
0.0
 10
103.1387760936789
 20
-119.9545209743692
 30
0.0
 10
102.5919533127807
 20
-120.0323370686429
 30
0.0
  0
SPLINE
  5
4C
330
1F
100
AcDbEntity
  8
Layer 1
370
     0
100
AcDbSpline
210
0.0
220
0.0
230
1.0
 70
    11
 71
     3
 72
    17
 73
    13
 74
     0
 42
0.0000000001
 43
0.0000000001
 12
1.0
 22
0.0
 32
0.0
 13
1.0
 23
0.0
 33
0.0
 40
0.0
 40
0.0
 40
0.0
 40
0.0
 40
1.0
 40
1.0
 40
1.0
 40
2.0
 40
2.0
 40
2.0
 40
3.0
 40
3.0
 40
3.0
 40
4.0
 40
4.0
 40
4.0
 40
4.0
 10
103.8161679934642
 20
-116.0882625660475
 30
0.0
 10
102.9871918923279
 20
-117.1923941372221
 30
0.0
 10
101.4200179560878
 20
-117.4154425380471
 30
0.0
 10
100.3159509804504
 20
-116.5864664369076
 30
0.0
 10
99.21179787742783
 20
-115.7574688039226
 30
0.0
 10
98.9887279447579
 20
-114.1903379313754
 30
0.0
 10
99.81770404589807
 20
-113.0862063602008
 30
0.0
 10
100.6466801470344
 20
-111.9820532571783
 30
0.0
 10
102.2138540832745
 20
-111.7590048563532
 30
0.0
 10
103.3180071862971
 20
-112.5880024893408
 30
0.0
 10
104.4220741619345
 20
-113.4170001223258
 30
0.0
 10
104.6451440946044
 20
-114.984109463025
 30
0.0
 10
103.8161679934642
 20
-116.0882625660475
 30
0.0
  0
SPLINE
  5
4D
330
1F
100
AcDbEntity
  8
Layer 1
370
     0
100
AcDbSpline
210
0.0
220
0.0
230
1.0
 70
    11
 71
     3
 72
    17
 73
    13
 74
     0
 42
0.0000000001
 43
0.0000000001
 12
1.0
 22
0.0
 32
0.0
 13
1.0
 23
0.0
 33
0.0
 40
0.0
 40
0.0
 40
0.0
 40
0.0
 40
1.0
 40
1.0
 40
1.0
 40
2.0
 40
2.0
 40
2.0
 40
3.0
 40
3.0
 40
3.0
 40
4.0
 40
4.0
 40
4.0
 40
4.0
 10
106.4129948428604
 20
-114.9431343585954
 30
0.0
 10
105.8661720619621
 20
-115.0209719847171
 30
0.0
 10
105.3598291530195
 20
-114.6408056979198
 30
0.0
 10
105.282056122438
 20
-114.0940259807178
 30
0.0
 10
105.2041969644714
 20
-113.5472677953605
 30
0.0
 10
105.5843632512687
 20
-113.0409248864147
 30
0.0
 10
106.1310999047779
 20
-112.9631087921442
 30
0.0
 10
106.6779226856761
 20
-112.8852711660217
 30
0.0
 10
107.1842655946187
 20
-113.265437452819
 30
0.0
 10
107.2620386252002
 20
-113.8122171700243
 30
0.0
 10
107.3398977831668
 20
-114.3589753553783
 30
0.0
 10
106.9597314963695
 20
-114.8653182643249
 30
0.0
 10
106.4129948428604
 20
-114.9431343585954
 30
0.0
  0
SPLINE
  5
4E
330
1F
100
AcDbEntity
  8
Layer 1
370
     0
100
AcDbSpline
210
0.0
220
0.0
230
1.0
 70
    11
 71
     3
 72
    17
 73
    13
 74
     0
 42
0.0000000001
 43
0.0000000001
 12
1.0
 22
0.0
 32
0.0
 13
1.0
 23
0.0
 33
0.0
 40
0.0
 40
0.0
 40
0.0
 40
0.0
 40
1.0
 40
1.0
 40
1.0
 40
2.0
 40
2.0
 40
2.0
 40
3.0
 40
3.0
 40
3.0
 40
4.0
 40
4.0
 40
4.0
 40
4.0
 10
101.4657515986525
 20
-181.9908721415861
 30
0.0
 10
101.544127520942
 20
-181.444135488077
 30
0.0
 10
102.0509010668222
 20
-181.0645290292947
 30
0.0
 10
102.5975515929462
 20
-181.1429049515841
 30
0.0
 10
103.1442882464553
 20
-181.2213239375659
 30
0.0
 10
103.5238516415408
 20
-181.7280113560616
 30
0.0
 10
103.4454757192513
 20
-182.2747049458771
 30
0.0
 10
103.3670997969619
 20
-182.8213985356902
 30
0.0
 10
102.8604123784707
 20
-183.2010480581647
 30
0.0
 10
102.3136757249616
 20
-183.1226721358753
 30
0.0
 10
101.7670251988376
 20
-183.0442962135858
 30
0.0
 10
101.3873756763631
 20
-182.5375226677056
 30
0.0
 10
101.4657515986525
 20
-181.9908721415861
 30
0.0
  0
SPLINE
  5
4F
330
1F
100
AcDbEntity
  8
Layer 1
370
     0
100
AcDbSpline
210
0.0
220
0.0
230
1.0
 70
    11
 71
     3
 72
    17
 73
    13
 74
     0
 42
0.0000000001
 43
0.0000000001
 12
1.0
 22
0.0
 32
0.0
 13
1.0
 23
0.0
 33
0.0
 40
0.0
 40
0.0
 40
0.0
 40
0.0
 40
1.0
 40
1.0
 40
1.0
 40
2.0
 40
2.0
 40
2.0
 40
3.0
 40
3.0
 40
3.0
 40
4.0
 40
4.0
 40
4.0
 40
4.0
 10
96.37260856064823
 20
-185.8065737736591
 30
0.0
 10
96.45098448293767
 20
-185.2598801838461
 30
0.0
 10
96.95775802881792
 20
-184.8802737250652
 30
0.0
 10
97.50440855493801
 20
-184.9586496473546
 30
0.0
 10
98.05114520844715
 20
-185.037025569644
 30
0.0
 10
98.43079473092169
 20
-185.5437560518307
 30
0.0
 10
98.35241880863225
 20
-186.0904496416437
 30
0.0
 10
98.27395675895761
 20
-186.6371432314606
 30
0.0
 10
97.76726934046258
 20
-187.0167496902428
 30
0.0
 10
97.22053268695342
 20
-186.9383737679534
 30
0.0
 10
96.67388216083333
 20
-186.859997845664
 30
0.0
 10
96.29423263835879
 20
-186.353267363476
 30
0.0
 10
96.37260856064823
 20
-185.8065737736591
 30
0.0
  0
SPLINE
  5
50
330
1F
100
AcDbEntity
  8
Layer 1
370
     0
100
AcDbSpline
210
0.0
220
0.0
230
1.0
 70
    11
 71
     3
 72
    17
 73
    13
 74
     0
 42
0.0000000001
 43
0.0000000001
 12
1.0
 22
0.0
 32
0.0
 13
1.0
 23
0.0
 33
0.0
 40
0.0
 40
0.0
 40
0.0
 40
0.0
 40
1.0
 40
1.0
 40
1.0
 40
2.0
 40
2.0
 40
2.0
 40
3.0
 40
3.0
 40
3.0
 40
4.0
 40
4.0
 40
4.0
 40
4.0
 10
97.87665881697244
 20
-190.8637843146723
 30
0.0
 10
97.75911053878043
 20
-191.6837481420283
 30
0.0
 10
96.99911570939054
 20
-192.2531145411517
 30
0.0
 10
96.17918417551823
 20
-192.1355662629604
 30
0.0
 10
95.35925264164335
 20
-192.0180179847664
 30
0.0
 10
94.78985394903756
 20
-191.2580231553772
 30
0.0
 10
94.90740222723021
 20
-190.4380916215036
 30
0.0
 10
95.02501509238945
 20
-189.6181600876313
 30
0.0
 10
95.78500992177678
 20
-189.0487613950242
 30
0.0
 10
96.60494145565166
 20
-189.1663096732194
 30
0.0
 10
97.42487298952396
 20
-189.2838902448931
 30
0.0
 10
97.99420709516507
 20
-190.0438527807987
 30
0.0
 10
97.87665881697244
 20
-190.8637843146723
 30
0.0
  0
SPLINE
  5
51
330
1F
100
AcDbEntity
  8
Layer 1
370
     0
100
AcDbSpline
210
0.0
220
0.0
230
1.0
 70
    11
 71
     3
 72
    17
 73
    13
 74
     0
 42
0.0000000001
 43
0.0000000001
 12
1.0
 22
0.0
 32
0.0
 13
1.0
 23
0.0
 33
0.0
 40
0.0
 40
0.0
 40
0.0
 40
0.0
 40
1.0
 40
1.0
 40
1.0
 40
2.0
 40
2.0
 40
2.0
 40
3.0
 40
3.0
 40
3.0
 40
4.0
 40
4.0
 40
4.0
 40
4.0
 10
102.1681204407098
 20
-191.1835926796525
 30
0.0
 10
102.0897445184203
 20
-191.7303293331617
 30
0.0
 10
101.5830570999253
 20
-192.1099357919426
 30
0.0
 10
101.0363204464161
 20
-192.0315598696532
 30
0.0
 10
100.4896699202961
 20
-191.9531408836676
 30
0.0
 10
100.1100203978215
 20
-191.4464534651771
 30
0.0
 10
100.188396320111
 20
-190.8997168116679
 30
0.0
 10
100.2667722424004
 20
-190.3530662855433
 30
0.0
 10
100.7734596608916
 20
-189.9734167630688
 30
0.0
 10
101.3201963144007
 20
-190.0517926853582
 30
0.0
 10
101.8668468405247
 20
-190.1301686076477
 30
0.0
 10
102.2464963629992
 20
-190.6369421535279
 30
0.0
 10
102.1681204407098
 20
-191.1835926796525
 30
0.0
  0
SPLINE
  5
52
330
1F
100
AcDbEntity
  8
Layer 1
370
     0
100
AcDbSpline
210
0.0
220
0.0
230
1.0
 70
    11
 71
     3
 72
    17
 73
    13
 74
     0
 42
0.0000000001
 43
0.0000000001
 12
1.0
 22
0.0
 32
0.0
 13
1.0
 23
0.0
 33
0.0
 40
0.0
 40
0.0
 40
0.0
 40
0.0
 40
1.0
 40
1.0
 40
1.0
 40
2.0
 40
2.0
 40
2.0
 40
3.0
 40
3.0
 40
3.0
 40
4.0
 40
4.0
 40
4.0
 40
4.0
 10
103.315940129006
 20
-188.5879716136756
 30
0.0
 10
102.2109257521121
 20
-189.4158280587811
 30
0.0
 10
100.6440101980352
 20
-189.1912078331428
 30
0.0
 10
99.81615375292971
 20
-188.086193456249
 30
0.0
 10
98.98829730782417
 20
-186.9811790793551
 30
0.0
 10
99.21300366084766
 20
-185.4143496526634
 30
0.0
 10
100.3179319103564
 20
-184.5864501438656
 30
0.0
 10
101.4229462872502
 20
-183.7585936987601
 30
0.0
 10
102.9898618413271
 20
-183.9832569880907
 30
0.0
 10
103.8177182864326
 20
-185.0882713649845
 30
0.0
 10
104.6455747315381
 20
-186.1932426781862
 30
0.0
 10
104.4209545058998
 20
-187.7601151685701
 30
0.0
 10
103.315940129006
 20
-188.5879716136756
 30
0.0
  0
SPLINE
  5
53
330
1F
100
AcDbEntity
  8
Layer 1
370
     0
100
AcDbSpline
210
0.0
220
0.0
230
1.0
 70
    11
 71
     3
 72
    17
 73
    13
 74
     0
 42
0.0000000001
 43
0.0000000001
 12
1.0
 22
0.0
 32
0.0
 13
1.0
 23
0.0
 33
0.0
 40
0.0
 40
0.0
 40
0.0
 40
0.0
 40
1.0
 40
1.0
 40
1.0
 40
2.0
 40
2.0
 40
2.0
 40
3.0
 40
3.0
 40
3.0
 40
4.0
 40
4.0
 40
4.0
 40
4.0
 10
107.2612634787141
 20
-187.3678049201898
 30
0.0
 10
107.1828875564246
 20
-187.9144985100054
 30
0.0
 10
106.6762001379334
 20
-188.2941480324799
 30
0.0
 10
106.1294634844243
 20
-188.2157290464943
 30
0.0
 10
105.5828129583004
 20
-188.1373531242049
 30
0.0
 10
105.2031634358258
 20
-187.6306657057144
 30
0.0
 10
105.2815393581153
 20
-187.0839290522052
 30
0.0
 10
105.3599152804047
 20
-186.5372785260806
 30
0.0
 10
105.8666026988997
 20
-186.1576290036061
 30
0.0
 10
106.4133393524089
 20
-186.2360049258955
 30
0.0
 10
106.959989878529
 20
-186.314380848185
 30
0.0
 10
107.3396394010035
 20
-186.8211113303729
 30
0.0
 10
107.2612634787141
 20
-187.3678049201898
 30
0.0
  0
SPLINE
  5
54
330
1F
100
AcDbEntity
  8
Layer 1
370
     0
100
AcDbSpline
210
0.0
220
0.0
230
1.0
 70
    11
 71
     3
 72
    23
 73
    19
 74
     0
 42
0.0000000001
 43
0.0000000001
 12
1.0
 22
0.0
 32
0.0
 13
1.0
 23
0.0
 33
0.0
 40
0.0
 40
0.0
 40
0.0
 40
0.0
 40
1.0
 40
1.0
 40
1.0
 40
2.0
 40
2.0
 40
2.0
 40
3.0
 40
3.0
 40
3.0
 40
4.0
 40
4.0
 40
4.0
 40
5.0
 40
5.0
 40
5.0
 40
6.0
 40
6.0
 40
6.0
 40
6.0
 10
160.2874411048896
 20
-120.7043244748857
 30
0.0
 10
160.2874411048896
 20
-120.7043244748857
 30
0.0
 10
160.2874411048896
 20
-129.0812679338931
 30
0.0
 10
160.2874411048896
 20
-129.0812679338931
 30
0.0
 10
160.2874411048896
 20
-130.0906378473783
 30
0.0
 10
158.7938630209524
 20
-130.5961625461426
 30
0.0
 10
157.9204451880564
 20
-129.8824033571399
 30
0.0
 10
157.9204451880564
 20
-129.8824033571399
 30
0.0
 10
152.7941861696969
 20
-125.6939208617141
 30
0.0
 10
152.7941861696969
 20
-125.6939208617141
 30
0.0
 10
152.2526602231086
 20
-125.2514844740221
 30
0.0
 10
152.2526602231086
 20
-124.5341294666047
 30
0.0
 10
152.7941861696969
 20
-124.0916930789128
 30
0.0
 10
152.7941861696969
 20
-124.0916930789128
 30
0.0
 10
157.9204451880564
 20
-119.9032105834838
 30
0.0
 10
157.9204451880564
 20
-119.9032105834838
 30
0.0
 10
158.7939491483415
 20
-119.1894944581765
 30
0.0
 10
160.2874411048896
 20
-119.6949760932485
 30
0.0
 10
160.2874411048896
 20
-120.7043244748857
 30
0.0
  0
SPLINE
  5
55
330
1F
100
AcDbEntity
  8
Layer 1
370
     0
100
AcDbSpline
210
0.0
220
0.0
230
1.0
 70
    11
 71
     3
 72
    23
 73
    19
 74
     0
 42
0.0000000001
 43
0.0000000001
 12
1.0
 22
0.0
 32
0.0
 13
1.0
 23
0.0
 33
0.0
 40
0.0
 40
0.0
 40
0.0
 40
0.0
 40
1.0
 40
1.0
 40
1.0
 40
2.0
 40
2.0
 40
2.0
 40
3.0
 40
3.0
 40
3.0
 40
4.0
 40
4.0
 40
4.0
 40
5.0
 40
5.0
 40
5.0
 40
6.0
 40
6.0
 40
6.0
 40
6.0
 10
160.0676870766236
 20
-146.1951027345721
 30
0.0
 10
159.23922773981
 20
-146.1951027345721
 30
0.0
 10
158.5676925023458
 20
-145.5235244334156
 30
0.0
 10
158.5676925023458
 20
-144.6951081602943
 30
0.0
 10
158.5676925023458
 20
-144.3091928704053
 30
0.0
 10
158.5676925023458
 20
-141.081052273341
 30
0.0
 10
158.5676925023458
 20
-140.695136983452
 30
0.0
 10
158.5676925023458
 20
-139.8666776466353
 30
0.0
 10
159.23922773981
 20
-139.1951424091743
 30
0.0
 10
160.0676870766236
 20
-139.1951424091743
 30
0.0
 10
160.8961033497448
 20
-139.1951424091743
 30
0.0
 10
161.5676816509014
 20
-139.8666776466353
 30
0.0
 10
161.5676816509014
 20
-140.695136983452
 30
0.0
 10
161.5676816509014
 20
-141.081052273341
 30
0.0
 10
161.5676816509014
 20
-144.3091928704053
 30
0.0
 10
161.5676816509014
 20
-144.6951081602943
 30
0.0
 10
161.5676816509014
 20
-145.5235244334156
 30
0.0
 10
160.8961033497448
 20
-146.1951027345721
 30
0.0
 10
160.0676870766236
 20
-146.1951027345721
 30
0.0
  0
SPLINE
  5
56
330
1F
100
AcDbEntity
  8
Layer 1
370
     0
100
AcDbSpline
210
0.0
220
0.0
230
1.0
 70
    11
 71
     3
 72
    23
 73
    19
 74
     0
 42
0.0000000001
 43
0.0000000001
 12
1.0
 22
0.0
 32
0.0
 13
1.0
 23
0.0
 33
0.0
 40
0.0
 40
0.0
 40
0.0
 40
0.0
 40
1.0
 40
1.0
 40
1.0
 40
2.0
 40
2.0
 40
2.0
 40
3.0
 40
3.0
 40
3.0
 40
4.0
 40
4.0
 40
4.0
 40
5.0
 40
5.0
 40
5.0
 40
6.0
 40
6.0
 40
6.0
 40
6.0
 10
161.5676816509014
 20
-160.6951435905949
 30
0.0
 10
161.5676816509014
 20
-161.0810588804807
 30
0.0
 10
161.5676816509014
 20
-164.3092210093963
 30
0.0
 10
161.5676816509014
 20
-164.6951147674378
 30
0.0
 10
161.5676816509014
 20
-165.5235310405584
 30
0.0
 10
160.8961033497448
 20
-166.195066278022
 30
0.0
 10
160.0676870766236
 20
-166.195066278022
 30
0.0
 10
159.23922773981
 20
-166.195066278022
 30
0.0
 10
158.5676925023458
 20
-165.5235310405584
 30
0.0
 10
158.5676925023458
 20
-164.6951147674378
 30
0.0
 10
158.5676925023458
 20
-164.3092210093963
 30
0.0
 10
158.5676925023458
 20
-161.0810588804807
 30
0.0
 10
158.5676925023458
 20
-160.6951435905949
 30
0.0
 10
158.5676925023458
 20
-159.8667057856263
 30
0.0
 10
159.23922773981
 20
-159.1951274844691
 30
0.0
 10
160.0676870766236
 20
-159.1951274844691
 30
0.0
 10
160.8961033497448
 20
-159.1951274844691
 30
0.0
 10
161.5676816509014
 20
-159.8667057856263
 30
0.0
 10
161.5676816509014
 20
-160.6951435905949
 30
0.0
  0
SPLINE
  5
57
330
1F
100
AcDbEntity
  8
Layer 1
370
     0
100
AcDbSpline
210
0.0
220
0.0
230
1.0
 70
    11
 71
     3
 72
    23
 73
    19
 74
     0
 42
0.0000000001
 43
0.0000000001
 12
1.0
 22
0.0
 32
0.0
 13
1.0
 23
0.0
 33
0.0
 40
0.0
 40
0.0
 40
0.0
 40
0.0
 40
1.0
 40
1.0
 40
1.0
 40
2.0
 40
2.0
 40
2.0
 40
3.0
 40
3.0
 40
3.0
 40
4.0
 40
4.0
 40
4.0
 40
5.0
 40
5.0
 40
5.0
 40
6.0
 40
6.0
 40
6.0
 40
6.0
 10
149.0767128226458
 20
-146.351811515458
 30
0.0
 10
149.0767128226458
 20
-146.351811515458
 30
0.0
 10
144.7782241220035
 20
-141.2874780884485
 30
0.0
 10
144.7782241220035
 20
-141.2874780884485
 30
0.0
 10
144.0457537581464
 20
-140.4245247330857
 30
0.0
 10
144.5644990108399
 20
-138.9490118686012
 30
0.0
 10
145.6003961595583
 20
-138.9490118686012
 30
0.0
 10
145.6003961595583
 20
-138.9490118686012
 30
0.0
 10
154.1973735608392
 20
-138.9490118686012
 30
0.0
 10
154.1973735608392
 20
-138.9490118686012
 30
0.0
 10
155.2332707095615
 20
-138.9490118686012
 30
0.0
 10
155.7520159622511
 20
-140.4245247330857
 30
0.0
 10
155.0195455983941
 20
-141.2874780884485
 30
0.0
 10
155.0195455983941
 20
-141.2874780884485
 30
0.0
 10
150.7210568977556
 20
-146.351811515458
 30
0.0
 10
150.7210568977556
 20
-146.351811515458
 30
0.0
 10
150.2669933127996
 20
-146.886770248777
 30
0.0
 10
149.5307764076017
 20
-146.886770248777
 30
0.0
 10
149.0767128226458
 20
-146.351811515458
 30
0.0
  0
SPLINE
  5
58
330
1F
100
AcDbEntity
  8
Layer 1
370
     0
100
AcDbSpline
210
0.0
220
0.0
230
1.0
 70
    11
 71
     3
 72
    23
 73
    19
 74
     0
 42
0.0000000001
 43
0.0000000001
 12
1.0
 22
0.0
 32
0.0
 13
1.0
 23
0.0
 33
0.0
 40
0.0
 40
0.0
 40
0.0
 40
0.0
 40
1.0
 40
1.0
 40
1.0
 40
2.0
 40
2.0
 40
2.0
 40
3.0
 40
3.0
 40
3.0
 40
4.0
 40
4.0
 40
4.0
 40
5.0
 40
5.0
 40
5.0
 40
6.0
 40
6.0
 40
6.0
 40
6.0
 10
155.0195455983941
 20
-160.1028886129844
 30
0.0
 10
155.7520159622511
 20
-160.9658850320394
 30
0.0
 10
155.2332707095615
 20
-162.4413978965277
 30
0.0
 10
154.1973735608392
 20
-162.4413978965277
 30
0.0
 10
154.1973735608392
 20
-162.4413978965277
 30
0.0
 10
145.6003961595583
 20
-162.4413978965277
 30
0.0
 10
145.6003961595583
 20
-162.4413978965277
 30
0.0
 10
144.5644990108399
 20
-162.4413978965277
 30
0.0
 10
144.0457537581464
 20
-160.9658850320394
 30
0.0
 10
144.7782241220035
 20
-160.1028886129844
 30
0.0
 10
144.7782241220035
 20
-160.1028886129844
 30
0.0
 10
149.0767128226458
 20
-155.0385982496671
 30
0.0
 10
149.0767128226458
 20
-155.0385982496671
 30
0.0
 10
149.5307764076017
 20
-154.5036395163494
 30
0.0
 10
150.2669933127996
 20
-154.5036395163494
 30
0.0
 10
150.7210568977556
 20
-155.0385982496671
 30
0.0
 10
150.7210568977556
 20
-155.0385982496671
 30
0.0
 10
155.0195455983941
 20
-160.1028886129844
 30
0.0
 10
155.0195455983941
 20
-160.1028886129844
 30
0.0
  0
SPLINE
  5
59
330
1F
100
AcDbEntity
  8
Layer 1
370
     0
100
AcDbSpline
210
0.0
220
0.0
230
1.0
 70
    11
 71
     3
 72
    23
 73
    19
 74
     0
 42
0.0000000001
 43
0.0000000001
 12
1.0
 22
0.0
 32
0.0
 13
1.0
 23
0.0
 33
0.0
 40
0.0
 40
0.0
 40
0.0
 40
0.0
 40
1.0
 40
1.0
 40
1.0
 40
2.0
 40
2.0
 40
2.0
 40
3.0
 40
3.0
 40
3.0
 40
4.0
 40
4.0
 40
4.0
 40
5.0
 40
5.0
 40
5.0
 40
6.0
 40
6.0
 40
6.0
 40
6.0
 10
155.1936521114812
 20
-134.9952910986472
 30
0.0
 10
155.1936521114812
 20
-134.9952910986472
 30
0.0
 10
144.9413063295371
 20
-134.9952910986472
 30
0.0
 10
144.9413063295371
 20
-134.9952910986472
 30
0.0
 10
143.7059812159156
 20
-134.9952910986472
 30
0.0
 10
143.0873281941499
 20
-133.7749090866903
 30
0.0
 10
143.960832154435
 20
-133.061171429535
 30
0.0
 10
143.960832154435
 20
-133.061171429535
 30
0.0
 10
149.0870481091016
 20
-128.8727104659541
 30
0.0
 10
149.0870481091016
 20
-128.8727104659541
 30
0.0
 10
149.6285309919938
 20
-128.4302525464141
 30
0.0
 10
150.5064274490245
 20
-128.4302525464141
 30
0.0
 10
151.0479533956097
 20
-128.8727104659541
 30
0.0
 10
151.0479533956097
 20
-128.8727104659541
 30
0.0
 10
156.1741262865833
 20
-133.0611929613799
 30
0.0
 10
156.1741262865833
 20
-133.0611929613799
 30
0.0
 10
157.0477163742536
 20
-133.7749306185384
 30
0.0
 10
156.4290633524918
 20
-134.9952910986472
 30
0.0
 10
155.1936521114812
 20
-134.9952910986472
 30
0.0
  0
SPLINE
  5
5A
330
1F
100
AcDbEntity
  8
Layer 1
370
     0
100
AcDbSpline
210
0.0
220
0.0
230
1.0
 70
    11
 71
     3
 72
    23
 73
    19
 74
     0
 42
0.0000000001
 43
0.0000000001
 12
1.0
 22
0.0
 32
0.0
 13
1.0
 23
0.0
 33
0.0
 40
0.0
 40
0.0
 40
0.0
 40
0.0
 40
1.0
 40
1.0
 40
1.0
 40
2.0
 40
2.0
 40
2.0
 40
3.0
 40
3.0
 40
3.0
 40
4.0
 40
4.0
 40
4.0
 40
5.0
 40
5.0
 40
5.0
 40
6.0
 40
6.0
 40
6.0
 40
6.0
 10
144.8577197003269
 20
-147.6473396726862
 30
0.0
 10
144.8577197003269
 20
-147.6473396726862
 30
0.0
 10
147.1779915096427
 20
-149.9676545456949
 30
0.0
 10
147.1779915096427
 20
-149.9676545456949
 30
0.0
 10
147.6075949166533
 20
-150.3972364208604
 30
0.0
 10
147.6075949166533
 20
-151.0937270687414
 30
0.0
 10
147.1779915096427
 20
-151.5232874120598
 30
0.0
 10
147.1779915096427
 20
-151.5232874120598
 30
0.0
 10
144.8577197003269
 20
-153.8436238169159
 30
0.0
 10
144.8577197003269
 20
-153.8436238169159
 30
0.0
 10
144.1647387434689
 20
-154.5365832419259
 30
0.0
 10
142.9798842787031
 20
-154.0457863263597
 30
0.0
 10
142.9798842787031
 20
-153.0658073837349
 30
0.0
 10
142.9798842787031
 20
-153.0658073837349
 30
0.0
 10
142.9798842787031
 20
-148.4251561058672
 30
0.0
 10
142.9798842787031
 20
-148.4251561058672
 30
0.0
 10
142.9798842787031
 20
-147.445155631395
 30
0.0
 10
144.1647387434689
 20
-146.9543802476763
 30
0.0
 10
144.8577197003269
 20
-147.6473396726862
 30
0.0
  0
SPLINE
  5
5B
330
1F
100
AcDbEntity
  8
Layer 1
370
     0
100
AcDbSpline
210
0.0
220
0.0
230
1.0
 70
    11
 71
     3
 72
    23
 73
    19
 74
     0
 42
0.0000000001
 43
0.0000000001
 12
1.0
 22
0.0
 32
0.0
 13
1.0
 23
0.0
 33
0.0
 40
0.0
 40
0.0
 40
0.0
 40
0.0
 40
1.0
 40
1.0
 40
1.0
 40
2.0
 40
2.0
 40
2.0
 40
3.0
 40
3.0
 40
3.0
 40
4.0
 40
4.0
 40
4.0
 40
5.0
 40
5.0
 40
5.0
 40
6.0
 40
6.0
 40
6.0
 40
6.0
 10
144.9413063295371
 20
-166.4956939228037
 30
0.0
 10
144.9413063295371
 20
-166.4956939228037
 30
0.0
 10
155.1937382388664
 20
-166.4957369864959
 30
0.0
 10
155.1937382388664
 20
-166.4957369864959
 30
0.0
 10
156.4290633524918
 20
-166.4957369864959
 30
0.0
 10
157.0477163742536
 20
-167.7160113392195
 30
0.0
 10
156.1741262865833
 20
-168.4298135919152
 30
0.0
 10
156.1741262865833
 20
-168.4298135919152
 30
0.0
 10
151.0479964593058
 20
-172.618253023648
 30
0.0
 10
151.0479964593058
 20
-172.618253023648
 30
0.0
 10
150.5065135764097
 20
-173.0607324750361
 30
0.0
 10
149.6285309919938
 20
-173.0607324750361
 30
0.0
 10
149.0870481091016
 20
-172.618253023648
 30
0.0
 10
149.0870481091016
 20
-172.618253023648
 30
0.0
 10
143.9609182818241
 20
-168.4298135919152
 30
0.0
 10
143.9609182818241
 20
-168.4298135919152
 30
0.0
 10
143.0873281941499
 20
-167.7160113392195
 30
0.0
 10
143.7059812159156
 20
-166.4956939228037
 30
0.0
 10
144.9413063295371
 20
-166.4956939228037
 30
0.0
  0
SPLINE
  5
5C
330
1F
100
AcDbEntity
  8
Layer 1
370
     0
100
AcDbSpline
210
0.0
220
0.0
230
1.0
 70
    11
 71
     3
 72
    23
 73
    19
 74
     0
 42
0.0000000001
 43
0.0000000001
 12
1.0
 22
0.0
 32
0.0
 13
1.0
 23
0.0
 33
0.0
 40
0.0
 40
0.0
 40
0.0
 40
0.0
 40
1.0
 40
1.0
 40
1.0
 40
2.0
 40
2.0
 40
2.0
 40
3.0
 40
3.0
 40
3.0
 40
4.0
 40
4.0
 40
4.0
 40
5.0
 40
5.0
 40
5.0
 40
6.0
 40
6.0
 40
6.0
 40
6.0
 10
154.9430644786215
 20
-153.8402002532787
 30
0.0
 10
154.9430644786215
 20
-153.8402002532787
 30
0.0
 10
152.6268837201958
 20
-151.5228137114293
 30
0.0
 10
152.6268837201958
 20
-151.5228137114293
 30
0.0
 10
152.1980985233603
 20
-151.0937701324376
 30
0.0
 10
152.1980985233603
 20
-150.3973010163982
 30
0.0
 10
152.6268837201958
 20
-149.9671808450651
 30
0.0
 10
152.6268837201958
 20
-149.9671808450651
 30
0.0
 10
154.9430644786215
 20
-147.643959172742
 30
0.0
 10
154.9430644786215
 20
-147.643959172742
 30
0.0
 10
155.6347535246713
 20
-146.9501384738575
 30
0.0
 10
156.817540932146
 20
-147.4394281601514
 30
0.0
 10
156.817540932146
 20
-148.4194071027788
 30
0.0
 10
156.817540932146
 20
-148.4194071027788
 30
0.0
 10
156.817540932146
 20
-153.0600368487958
 30
0.0
 10
156.817540932146
 20
-153.0600368487958
 30
0.0
 10
156.817540932146
 20
-154.0400157914232
 30
0.0
 10
155.6347965883674
 20
-154.5322768725693
 30
0.0
 10
154.9430644786215
 20
-153.8402002532787
 30
0.0
  0
SPLINE
  5
5D
330
1F
100
AcDbEntity
  8
Layer 1
370
     0
100
AcDbSpline
210
0.0
220
0.0
230
1.0
 70
    11
 71
     3
 72
    23
 73
    19
 74
     0
 42
0.0000000001
 43
0.0000000001
 12
1.0
 22
0.0
 32
0.0
 13
1.0
 23
0.0
 33
0.0
 40
0.0
 40
0.0
 40
0.0
 40
0.0
 40
1.0
 40
1.0
 40
1.0
 40
2.0
 40
2.0
 40
2.0
 40
3.0
 40
3.0
 40
3.0
 40
4.0
 40
4.0
 40
4.0
 40
5.0
 40
5.0
 40
5.0
 40
6.0
 40
6.0
 40
6.0
 40
6.0
 10
144.9413063295371
 20
-114.7903443738245
 30
0.0
 10
144.9413063295371
 20
-114.7903443738245
 30
0.0
 10
155.1937382388664
 20
-114.7903443738245
 30
0.0
 10
155.1937382388664
 20
-114.7903443738245
 30
0.0
 10
156.4290633524918
 20
-114.7903443738245
 30
0.0
 10
157.0477163742536
 20
-116.0106833220884
 30
0.0
 10
156.1741262865833
 20
-116.7243994473989
 30
0.0
 10
156.1741262865833
 20
-116.7243994473989
 30
0.0
 10
151.0479964593058
 20
-120.9129034746728
 30
0.0
 10
151.0479964593058
 20
-120.9129034746728
 30
0.0
 10
150.5065135764097
 20
-121.3553613942128
 30
0.0
 10
149.6285309919938
 20
-121.3553613942128
 30
0.0
 10
149.0870481091016
 20
-120.9128604109766
 30
0.0
 10
149.0870481091016
 20
-120.9128604109766
 30
0.0
 10
143.9609182818241
 20
-116.7243994473989
 30
0.0
 10
143.9609182818241
 20
-116.7243994473989
 30
0.0
 10
143.0873281941499
 20
-116.0106833220884
 30
0.0
 10
143.7059812159156
 20
-114.7903443738245
 30
0.0
 10
144.9413063295371
 20
-114.7903443738245
 30
0.0
  0
SPLINE
  5
5E
330
1F
100
AcDbEntity
  8
Layer 1
370
     0
100
AcDbSpline
210
0.0
220
0.0
230
1.0
 70
    11
 71
     3
 72
    23
 73
    19
 74
     0
 42
0.0000000001
 43
0.0000000001
 12
1.0
 22
0.0
 32
0.0
 13
1.0
 23
0.0
 33
0.0
 40
0.0
 40
0.0
 40
0.0
 40
0.0
 40
1.0
 40
1.0
 40
1.0
 40
2.0
 40
2.0
 40
2.0
 40
3.0
 40
3.0
 40
3.0
 40
4.0
 40
4.0
 40
4.0
 40
5.0
 40
5.0
 40
5.0
 40
6.0
 40
6.0
 40
6.0
 40
6.0
 10
142.2145993803509
 20
-119.9031675197909
 30
0.0
 10
142.2145993803509
 20
-119.9031675197909
 30
0.0
 10
147.3408583987066
 20
-124.0916930789128
 30
0.0
 10
147.3408583987066
 20
-124.0916930789128
 30
0.0
 10
147.8823843452949
 20
-124.5341294666047
 30
0.0
 10
147.8823843452949
 20
-125.2514844740221
 30
0.0
 10
147.3408583987066
 20
-125.6939208617141
 30
0.0
 10
147.3408583987066
 20
-125.6939208617141
 30
0.0
 10
142.2145993803509
 20
-129.882381825295
 30
0.0
 10
142.2145993803509
 20
-129.882381825295
 30
0.0
 10
141.3410954200658
 20
-130.5961410142984
 30
0.0
 10
139.8476034635139
 20
-130.0906163155303
 30
0.0
 10
139.8476034635139
 20
-129.081246402045
 30
0.0
 10
139.8476034635139
 20
-129.081246402045
 30
0.0
 10
139.8476034635139
 20
-120.7043029430409
 30
0.0
 10
139.8476034635139
 20
-120.7043029430409
 30
0.0
 10
139.8476034635139
 20
-119.6949545614005
 30
0.0
 10
141.341181547451
 20
-119.1894729263285
 30
0.0
 10
142.2145993803509
 20
-119.9031675197909
 30
0.0
  0
SPLINE
  5
5F
330
1F
100
AcDbEntity
  8
Layer 1
370
     0
100
AcDbSpline
210
0.0
220
0.0
230
1.0
 70
    11
 71
     3
 72
    23
 73
    19
 74
     0
 42
0.0000000001
 43
0.0000000001
 12
1.0
 22
0.0
 32
0.0
 13
1.0
 23
0.0
 33
0.0
 40
0.0
 40
0.0
 40
0.0
 40
0.0
 40
1.0
 40
1.0
 40
1.0
 40
2.0
 40
2.0
 40
2.0
 40
3.0
 40
3.0
 40
3.0
 40
4.0
 40
4.0
 40
4.0
 40
5.0
 40
5.0
 40
5.0
 40
6.0
 40
6.0
 40
6.0
 40
6.0
 10
138.5917369680622
 20
-160.6362324577972
 30
0.0
 10
138.5917369680622
 20
-159.8078161846727
 30
0.0
 10
139.2633152692155
 20
-159.1362163516713
 30
0.0
 10
140.09173154234
 20
-159.1362163516713
 30
0.0
 10
140.9201478154606
 20
-159.1362163516713
 30
0.0
 10
141.5917261166178
 20
-159.8078161846727
 30
0.0
 10
141.5917261166178
 20
-160.6362324577972
 30
0.0
 10
141.5917261166178
 20
-161.0221477476829
 30
0.0
 10
141.5917261166178
 20
-164.2503098765985
 30
0.0
 10
141.5917261166178
 20
-164.6362036346401
 30
0.0
 10
141.5917261166178
 20
-165.4646199077607
 30
0.0
 10
140.9201478154606
 20
-166.1361551452243
 30
0.0
 10
140.09173154234
 20
-166.1361551452243
 30
0.0
 10
139.2633152692155
 20
-166.1361551452243
 30
0.0
 10
138.5917369680622
 20
-165.4646199077607
 30
0.0
 10
138.5917369680622
 20
-164.6362036346401
 30
0.0
 10
138.5917369680622
 20
-164.2503098765985
 30
0.0
 10
138.5917369680622
 20
-161.0221477476829
 30
0.0
 10
138.5917369680622
 20
-160.6362324577972
 30
0.0
  0
SPLINE
  5
60
330
1F
100
AcDbEntity
  8
Layer 1
370
     0
100
AcDbSpline
210
0.0
220
0.0
230
1.0
 70
    11
 71
     3
 72
    23
 73
    19
 74
     0
 42
0.0000000001
 43
0.0000000001
 12
1.0
 22
0.0
 32
0.0
 13
1.0
 23
0.0
 33
0.0
 40
0.0
 40
0.0
 40
0.0
 40
0.0
 40
1.0
 40
1.0
 40
1.0
 40
2.0
 40
2.0
 40
2.0
 40
3.0
 40
3.0
 40
3.0
 40
4.0
 40
4.0
 40
4.0
 40
5.0
 40
5.0
 40
5.0
 40
6.0
 40
6.0
 40
6.0
 40
6.0
 10
138.5677074270507
 20
-144.6951081602943
 30
0.0
 10
138.5677074270507
 20
-144.3091928704053
 30
0.0
 10
138.5677074270507
 20
-141.081052273341
 30
0.0
 10
138.5677074270507
 20
-140.695136983452
 30
0.0
 10
138.5677074270507
 20
-139.8666776466353
 30
0.0
 10
139.2392426645149
 20
-139.1951424091743
 30
0.0
 10
140.0677020013284
 20
-139.1951424091743
 30
0.0
 10
140.8961182744497
 20
-139.1951424091743
 30
0.0
 10
141.5676965756062
 20
-139.8666776466353
 30
0.0
 10
141.5676965756062
 20
-140.695136983452
 30
0.0
 10
141.5676965756062
 20
-141.081052273341
 30
0.0
 10
141.5676965756062
 20
-144.3091928704053
 30
0.0
 10
141.5676965756062
 20
-144.6951081602943
 30
0.0
 10
141.5676965756062
 20
-145.5235244334156
 30
0.0
 10
140.8961182744497
 20
-146.1951027345721
 30
0.0
 10
140.0677020013284
 20
-146.1951027345721
 30
0.0
 10
139.2392426645149
 20
-146.1951027345721
 30
0.0
 10
138.5677074270507
 20
-145.5235244334156
 30
0.0
 10
138.5677074270507
 20
-144.6951081602943
 30
0.0
  0
SPLINE
  5
61
330
1F
100
AcDbEntity
  8
Layer 1
370
     0
100
AcDbSpline
210
0.0
220
0.0
230
1.0
 70
    11
 71
     3
 72
    17
 73
    13
 74
     0
 42
0.0000000001
 43
0.0000000001
 12
1.0
 22
0.0
 32
0.0
 13
1.0
 23
0.0
 33
0.0
 40
0.0
 40
0.0
 40
0.0
 40
0.0
 40
1.0
 40
1.0
 40
1.0
 40
2.0
 40
2.0
 40
2.0
 40
3.0
 40
3.0
 40
3.0
 40
4.0
 40
4.0
 40
4.0
 40
4.0
 10
139.5023618321989
 20
-114.6205011664017
 30
0.0
 10
140.3308211690163
 20
-114.6205011664017
 30
0.0
 10
141.0023564064767
 20
-115.2921009994063
 30
0.0
 10
141.0023564064767
 20
-116.1205172725276
 30
0.0
 10
141.0023564064767
 20
-116.9489335456482
 30
0.0
 10
140.3308211690163
 20
-117.6205118468053
 30
0.0
 10
139.5023618321989
 20
-117.6205118468053
 30
0.0
 10
138.6739886227706
 20
-117.6205118468053
 30
0.0
 10
138.0023672579212
 20
-116.9489335456482
 30
0.0
 10
138.0023672579212
 20
-116.1205172725276
 30
0.0
 10
138.0023672579212
 20
-115.2921009994063
 30
0.0
 10
138.6739886227706
 20
-114.6205011664017
 30
0.0
 10
139.5023618321989
 20
-114.6205011664017
 30
0.0
  0
SPLINE
  5
62
330
1F
100
AcDbEntity
  8
Layer 1
370
     0
100
AcDbSpline
210
0.0
220
0.0
230
1.0
 70
    11
 71
     3
 72
    17
 73
    13
 74
     0
 42
0.0000000001
 43
0.0000000001
 12
1.0
 22
0.0
 32
0.0
 13
1.0
 23
0.0
 33
0.0
 40
0.0
 40
0.0
 40
0.0
 40
0.0
 40
1.0
 40
1.0
 40
1.0
 40
2.0
 40
2.0
 40
2.0
 40
3.0
 40
3.0
 40
3.0
 40
4.0
 40
4.0
 40
4.0
 40
4.0
 10
139.4047795025812
 20
-186.7928184837016
 30
0.0
 10
138.5764062931528
 20
-186.7928184837016
 30
0.0
 10
137.9047849283034
 20
-186.1212401825444
 30
0.0
 10
137.9047849283034
 20
-185.2928239094238
 30
0.0
 10
137.9047849283034
 20
-184.4644506999955
 30
0.0
 10
138.5764062931528
 20
-183.7928293351461
 30
0.0
 10
139.4047795025812
 20
-183.7928293351461
 30
0.0
 10
140.2332388393947
 20
-183.7928293351461
 30
0.0
 10
140.904774076859
 20
-184.4644506999955
 30
0.0
 10
140.904774076859
 20
-185.2928239094238
 30
0.0
 10
140.904774076859
 20
-186.1212401825444
 30
0.0
 10
140.2332388393947
 20
-186.7928184837016
 30
0.0
 10
139.4047795025812
 20
-186.7928184837016
 30
0.0
  0
SPLINE
  5
63
330
1F
100
AcDbEntity
  8
Layer 1
370
     0
100
AcDbSpline
210
0.0
220
0.0
230
1.0
 70
    11
 71
     3
 72
    23
 73
    19
 74
     0
 42
0.0000000001
 43
0.0000000001
 12
1.0
 22
0.0
 32
0.0
 13
1.0
 23
0.0
 33
0.0
 40
0.0
 40
0.0
 40
0.0
 40
0.0
 40
1.0
 40
1.0
 40
1.0
 40
2.0
 40
2.0
 40
2.0
 40
3.0
 40
3.0
 40
3.0
 40
4.0
 40
4.0
 40
4.0
 40
5.0
 40
5.0
 40
5.0
 40
6.0
 40
6.0
 40
6.0
 40
6.0
 10
139.8476034635139
 20
-180.7865744191754
 30
0.0
 10
139.8476034635139
 20
-180.7865744191754
 30
0.0
 10
139.8476034635139
 20
-172.4096524920162
 30
0.0
 10
139.8476034635139
 20
-172.4096524920162
 30
0.0
 10
139.8476034635139
 20
-171.4003256422238
 30
0.0
 10
141.341181547451
 20
-170.8948440071518
 30
0.0
 10
142.2145993803509
 20
-171.6085601324629
 30
0.0
 10
142.2145993803509
 20
-171.6085601324629
 30
0.0
 10
147.3408583987066
 20
-175.7969995641958
 30
0.0
 10
147.3408583987066
 20
-175.7969995641958
 30
0.0
 10
147.8823843452949
 20
-176.23947901558
 30
0.0
 10
147.8823843452949
 20
-176.9568124911493
 30
0.0
 10
147.3408583987066
 20
-177.3992919425374
 30
0.0
 10
147.3408583987066
 20
-177.3992919425374
 30
0.0
 10
142.2145993803509
 20
-181.5877313742702
 30
0.0
 10
142.2145993803509
 20
-181.5877313742702
 30
0.0
 10
141.3410954200658
 20
-182.3015336269659
 30
0.0
 10
139.8476034635139
 20
-181.7960089282017
 30
0.0
 10
139.8476034635139
 20
-180.7865744191754
 30
0.0
  0
SPLINE
  5
64
330
1F
100
AcDbEntity
  8
Layer 1
370
     0
100
AcDbSpline
210
0.0
220
0.0
230
1.0
 70
    11
 71
     3
 72
    23
 73
    19
 74
     0
 42
0.0000000001
 43
0.0000000001
 12
1.0
 22
0.0
 32
0.0
 13
1.0
 23
0.0
 33
0.0
 40
0.0
 40
0.0
 40
0.0
 40
0.0
 40
1.0
 40
1.0
 40
1.0
 40
2.0
 40
2.0
 40
2.0
 40
3.0
 40
3.0
 40
3.0
 40
4.0
 40
4.0
 40
4.0
 40
5.0
 40
5.0
 40
5.0
 40
6.0
 40
6.0
 40
6.0
 40
6.0
 10
155.1936521114812
 20
-186.7006406476231
 30
0.0
 10
155.1936521114812
 20
-186.7006406476231
 30
0.0
 10
144.9413063295371
 20
-186.7006406476231
 30
0.0
 10
144.9413063295371
 20
-186.7006406476231
 30
0.0
 10
143.7059812159156
 20
-186.7006406476231
 30
0.0
 10
143.0873281941499
 20
-185.4802801675137
 30
0.0
 10
143.960832154435
 20
-184.7665640422038
 30
0.0
 10
143.960832154435
 20
-184.7665640422038
 30
0.0
 10
149.0870481091016
 20
-180.5781246104697
 30
0.0
 10
149.0870481091016
 20
-180.5781246104697
 30
0.0
 10
149.6285309919938
 20
-180.1356451590855
 30
0.0
 10
150.5064274490245
 20
-180.1356451590855
 30
0.0
 10
151.0479533956097
 20
-180.5781246104697
 30
0.0
 10
151.0479533956097
 20
-180.5781246104697
 30
0.0
 10
156.1741262865833
 20
-184.7665640422038
 30
0.0
 10
156.1741262865833
 20
-184.7665640422038
 30
0.0
 10
157.0477163742536
 20
-185.4802801675137
 30
0.0
 10
156.4290633524918
 20
-186.7006406476231
 30
0.0
 10
155.1936521114812
 20
-186.7006406476231
 30
0.0
  0
SPLINE
  5
65
330
1F
100
AcDbEntity
  8
Layer 1
370
     0
100
AcDbSpline
210
0.0
220
0.0
230
1.0
 70
    11
 71
     3
 72
    23
 73
    19
 74
     0
 42
0.0000000001
 43
0.0000000001
 12
1.0
 22
0.0
 32
0.0
 13
1.0
 23
0.0
 33
0.0
 40
0.0
 40
0.0
 40
0.0
 40
0.0
 40
1.0
 40
1.0
 40
1.0
 40
2.0
 40
2.0
 40
2.0
 40
3.0
 40
3.0
 40
3.0
 40
4.0
 40
4.0
 40
4.0
 40
5.0
 40
5.0
 40
5.0
 40
6.0
 40
6.0
 40
6.0
 40
6.0
 10
157.9204451880564
 20
-181.5877313742702
 30
0.0
 10
157.9204451880564
 20
-181.5877313742702
 30
0.0
 10
152.7941861696969
 20
-177.3992919425374
 30
0.0
 10
152.7941861696969
 20
-177.3992919425374
 30
0.0
 10
152.2526602231086
 20
-176.9568124911493
 30
0.0
 10
152.2526602231086
 20
-176.23947901558
 30
0.0
 10
152.7941861696969
 20
-175.7970856915816
 30
0.0
 10
152.7941861696969
 20
-175.7970856915816
 30
0.0
 10
157.9204451880564
 20
-171.6085601324629
 30
0.0
 10
157.9204451880564
 20
-171.6085601324629
 30
0.0
 10
158.7939491483415
 20
-170.8948440071518
 30
0.0
 10
160.2874411048896
 20
-171.4003256422238
 30
0.0
 10
160.2874411048896
 20
-172.4096524920162
 30
0.0
 10
160.2874411048896
 20
-172.4096524920162
 30
0.0
 10
160.2874411048896
 20
-180.7866820784093
 30
0.0
 10
160.2874411048896
 20
-180.7866820784093
 30
0.0
 10
160.2874411048896
 20
-181.7960089282017
 30
0.0
 10
158.7938630209524
 20
-182.3015336269659
 30
0.0
 10
157.9204451880564
 20
-181.5877313742702
 30
0.0
  0
SPLINE
  5
66
330
1F
100
AcDbEntity
  8
Layer 1
370
     0
100
AcDbSpline
210
0.0
220
0.0
230
1.0
 70
    11
 71
     3
 72
    17
 73
    13
 74
     0
 42
0.0000000001
 43
0.0000000001
 12
1.0
 22
0.0
 32
0.0
 13
1.0
 23
0.0
 33
0.0
 40
0.0
 40
0.0
 40
0.0
 40
0.0
 40
1.0
 40
1.0
 40
1.0
 40
2.0
 40
2.0
 40
2.0
 40
3.0
 40
3.0
 40
3.0
 40
4.0
 40
4.0
 40
4.0
 40
4.0
 10
160.7301789384371
 20
-186.7928184837016
 30
0.0
 10
159.9018057290088
 20
-186.7928184837016
 30
0.0
 10
159.2301843641594
 20
-186.1212401825444
 30
0.0
 10
159.2301843641594
 20
-185.2928239094238
 30
0.0
 10
159.2301843641594
 20
-184.4644506999955
 30
0.0
 10
159.9018057290088
 20
-183.7928293351461
 30
0.0
 10
160.7301789384371
 20
-183.7928293351461
 30
0.0
 10
161.5586382752545
 20
-183.7928293351461
 30
0.0
 10
162.2301735127149
 20
-184.4644506999955
 30
0.0
 10
162.2301735127149
 20
-185.2928239094238
 30
0.0
 10
162.2301735127149
 20
-186.1212401825444
 30
0.0
 10
161.5586382752545
 20
-186.7928184837016
 30
0.0
 10
160.7301789384371
 20
-186.7928184837016
 30
0.0
  0
SPLINE
  5
67
330
1F
100
AcDbEntity
  8
Layer 1
370
     0
100
AcDbSpline
210
0.0
220
0.0
230
1.0
 70
    11
 71
     3
 72
    17
 73
    13
 74
     0
 42
0.0000000001
 43
0.0000000001
 12
1.0
 22
0.0
 32
0.0
 13
1.0
 23
0.0
 33
0.0
 40
0.0
 40
0.0
 40
0.0
 40
0.0
 40
1.0
 40
1.0
 40
1.0
 40
2.0
 40
2.0
 40
2.0
 40
3.0
 40
3.0
 40
3.0
 40
4.0
 40
4.0
 40
4.0
 40
4.0
 10
160.7301789384371
 20
-117.5974297070542
 30
0.0
 10
159.9018057290088
 20
-117.5974297070542
 30
0.0
 10
159.2301843641594
 20
-116.925851405897
 30
0.0
 10
159.2301843641594
 20
-116.0974351327764
 30
0.0
 10
159.2301843641594
 20
-115.2690188596551
 30
0.0
 10
159.9018057290088
 20
-114.5974190266505
 30
0.0
 10
160.7301789384371
 20
-114.5974190266505
 30
0.0
 10
161.5586382752545
 20
-114.5974190266505
 30
0.0
 10
162.2301735127149
 20
-115.2690188596551
 30
0.0
 10
162.2301735127149
 20
-116.0974351327764
 30
0.0
 10
162.2301735127149
 20
-116.925851405897
 30
0.0
 10
161.5586382752545
 20
-117.5974297070542
 30
0.0
 10
160.7301789384371
 20
-117.5974297070542
 30
0.0
  0
SPLINE
  5
68
330
1F
100
AcDbEntity
  8
Layer 1
370
     0
100
AcDbSpline
210
0.0
220
0.0
230
1.0
 70
    11
 71
     3
 72
    17
 73
    13
 74
     0
 42
0.0000000001
 43
0.0000000001
 12
1.0
 22
0.0
 32
0.0
 13
1.0
 23
0.0
 33
0.0
 40
0.0
 40
0.0
 40
0.0
 40
0.0
 40
1.0
 40
1.0
 40
1.0
 40
2.0
 40
2.0
 40
2.0
 40
3.0
 40
3.0
 40
3.0
 40
4.0
 40
4.0
 40
4.0
 40
4.0
 10
193.5027693979108
 20
-188.2113365497532
 30
0.0
 10
192.9559466170126
 20
-188.2891957077199
 30
0.0
 10
192.44960370807
 20
-187.9090294209225
 30
0.0
 10
192.3718306774885
 20
-187.3622497037198
 30
0.0
 10
192.2939715195219
 20
-186.8154699865146
 30
0.0
 10
192.6741378063192
 20
-186.3091270775725
 30
0.0
 10
193.2209605872174
 20
-186.2313109832982
 30
0.0
 10
193.7676972407265
 20
-186.1534948890238
 30
0.0
 10
194.2740401496692
 20
-186.5336611758211
 30
0.0
 10
194.3518131802506
 20
-187.0803978293303
 30
0.0
 10
194.4296723382173
 20
-187.6272206102291
 30
0.0
 10
194.04950605142
 20
-188.1335635191711
 30
0.0
 10
193.5027693979108
 20
-188.2113365497532
 30
0.0
  0
SPLINE
  5
69
330
1F
100
AcDbEntity
  8
Layer 1
370
     0
100
AcDbSpline
210
0.0
220
0.0
230
1.0
 70
    11
 71
     3
 72
    17
 73
    13
 74
     0
 42
0.0000000001
 43
0.0000000001
 12
1.0
 22
0.0
 32
0.0
 13
1.0
 23
0.0
 33
0.0
 40
0.0
 40
0.0
 40
0.0
 40
0.0
 40
1.0
 40
1.0
 40
1.0
 40
2.0
 40
2.0
 40
2.0
 40
3.0
 40
3.0
 40
3.0
 40
4.0
 40
4.0
 40
4.0
 40
4.0
 10
202.1310971681042
 20
-184.9631282714854
 30
0.0
 10
202.6779199490025
 20
-184.8852691135188
 30
0.0
 10
203.1841767305599
 20
-185.2654354003161
 30
0.0
 10
203.2620358885266
 20
-185.8122151175175
 30
0.0
 10
203.3398950464932
 20
-186.3589948347189
 30
0.0
 10
202.9597287596959
 20
-186.8653377436661
 30
0.0
 10
202.4129921061867
 20
-186.9431107742431
 30
0.0
 10
201.8661693252886
 20
-187.0209699322097
 30
0.0
 10
201.3598264163459
 20
-186.6408036454124
 30
0.0
 10
201.2819672583792
 20
-186.094023928211
 30
0.0
 10
201.2041942277978
 20
-185.5472442110095
 30
0.0
 10
201.5843605145951
 20
-185.0409013020624
 30
0.0
 10
202.1310971681042
 20
-184.9631282714854
 30
0.0
  0
SPLINE
  5
6A
330
1F
100
AcDbEntity
  8
Layer 1
370
     0
100
AcDbSpline
210
0.0
220
0.0
230
1.0
 70
    11
 71
     3
 72
    17
 73
    13
 74
     0
 42
0.0000000001
 43
0.0000000001
 12
1.0
 22
0.0
 32
0.0
 13
1.0
 23
0.0
 33
0.0
 40
0.0
 40
0.0
 40
0.0
 40
0.0
 40
1.0
 40
1.0
 40
1.0
 40
2.0
 40
2.0
 40
2.0
 40
3.0
 40
3.0
 40
3.0
 40
4.0
 40
4.0
 40
4.0
 40
4.0
 10
197.041915989908
 20
-181.1420867414051
 30
0.0
 10
197.5886526434171
 20
-181.0643137108282
 30
0.0
 10
198.0949955523598
 20
-181.4444369339319
 30
0.0
 10
198.1727685829412
 20
-181.9912166511346
 30
0.0
 10
198.2506277409079
 20
-182.5379963683361
 30
0.0
 10
197.8704614541106
 20
-183.0443392772819
 30
0.0
 10
197.3237248006014
 20
-183.1221553715525
 30
0.0
 10
196.7769020197032
 20
-183.1999714658268
 30
0.0
 10
196.2705591107606
 20
-182.8198482427218
 30
0.0
 10
196.1927860801791
 20
-182.2730254618281
 30
0.0
 10
196.1149269222125
 20
-181.7262888083189
 30
0.0
 10
196.4950932090098
 20
-181.2199458993718
 30
0.0
 10
197.041915989908
 20
-181.1420867414051
 30
0.0
  0
SPLINE
  5
6B
330
1F
100
AcDbEntity
  8
Layer 1
370
     0
100
AcDbSpline
210
0.0
220
0.0
230
1.0
 70
    11
 71
     3
 72
    17
 73
    13
 74
     0
 42
0.0000000001
 43
0.0000000001
 12
1.0
 22
0.0
 32
0.0
 13
1.0
 23
0.0
 33
0.0
 40
0.0
 40
0.0
 40
0.0
 40
0.0
 40
1.0
 40
1.0
 40
1.0
 40
2.0
 40
2.0
 40
2.0
 40
3.0
 40
3.0
 40
3.0
 40
4.0
 40
4.0
 40
4.0
 40
4.0
 10
198.5919505761071
 20
-192.0323780798284
 30
0.0
 10
198.0451277952127
 20
-192.1101511104105
 30
0.0
 10
197.5387848862662
 20
-191.7300278873054
 30
0.0
 10
197.4610118556886
 20
-191.183248170104
 30
0.0
 10
197.383152697722
 20
-190.6364684529013
 30
0.0
 10
197.7633189845193
 20
-190.1301255439554
 30
0.0
 10
198.3100556380284
 20
-190.052309449681
 30
0.0
 10
198.8568784189228
 20
-189.9744933554105
 30
0.0
 10
199.3632213278693
 20
-190.3546165785117
 30
0.0
 10
199.441080485836
 20
-190.9014393594105
 30
0.0
 10
199.5188535164136
 20
-191.4481760129197
 30
0.0
 10
199.1386872296162
 20
-191.9545189218617
 30
0.0
 10
198.5919505761071
 20
-192.0323780798284
 30
0.0
  0
SPLINE
  5
6C
330
1F
100
AcDbEntity
  8
Layer 1
370
     0
100
AcDbSpline
210
0.0
220
0.0
230
1.0
 70
    11
 71
     3
 72
    17
 73
    13
 74
     0
 42
0.0000000001
 43
0.0000000001
 12
1.0
 22
0.0
 32
0.0
 13
1.0
 23
0.0
 33
0.0
 40
0.0
 40
0.0
 40
0.0
 40
0.0
 40
1.0
 40
1.0
 40
1.0
 40
2.0
 40
2.0
 40
2.0
 40
3.0
 40
3.0
 40
3.0
 40
4.0
 40
4.0
 40
4.0
 40
4.0
 10
199.8161652567906
 20
-188.0882605135401
 30
0.0
 10
198.9871891556543
 20
-189.1924136165627
 30
0.0
 10
197.4200152194142
 20
-189.4154404855403
 30
0.0
 10
196.3158621163916
 20
-188.5864643844034
 30
0.0
 10
195.211709013369
 20
-187.7574452195716
 30
0.0
 10
194.9887252080843
 20
-186.190357410716
 30
0.0
 10
195.8177013092245
 20
-185.0862043076934
 30
0.0
 10
196.6466774103608
 20
-183.9820512046708
 30
0.0
 10
198.2137652192157
 20
-183.7589812720009
 30
0.0
 10
199.3179183222383
 20
-184.588000436834
 30
0.0
 10
200.4220714252609
 20
-185.4170196016671
 30
0.0
 10
200.6451413579308
 20
-186.9841074105175
 30
0.0
 10
199.8161652567906
 20
-188.0882605135401
 30
0.0
  0
SPLINE
  5
6D
330
1F
100
AcDbEntity
  8
Layer 1
370
     0
100
AcDbSpline
210
0.0
220
0.0
230
1.0
 70
    11
 71
     3
 72
    17
 73
    13
 74
     0
 42
0.0000000001
 43
0.0000000001
 12
1.0
 22
0.0
 32
0.0
 13
1.0
 23
0.0
 33
0.0
 40
0.0
 40
0.0
 40
0.0
 40
0.0
 40
1.0
 40
1.0
 40
1.0
 40
2.0
 40
2.0
 40
2.0
 40
3.0
 40
3.0
 40
3.0
 40
4.0
 40
4.0
 40
4.0
 40
4.0
 10
203.4483866089316
 20
-192.14212040435
 30
0.0
 10
202.6283939422758
 20
-192.2588285603537
 30
0.0
 10
201.8689835945655
 20
-191.6886572259807
 30
0.0
 10
201.7522108518659
 20
-190.868599972631
 30
0.0
 10
201.6355026958589
 20
-190.048575012629
 30
0.0
 10
202.2056740302345
 20
-189.2891969582636
 30
0.0
 10
203.0257312835855
 20
-189.1724565089123
 30
0.0
 10
203.8457885369332
 20
-189.0557160595596
 30
0.0
 10
204.6051988846435
 20
-189.6258873939365
 30
0.0
 10
204.7219070406505
 20
-190.4459446472823
 30
0.0
 10
204.8386151966549
 20
-191.266001900632
 30
0.0
 10
204.2684438622793
 20
-192.0254122483423
 30
0.0
 10
203.4483866089316
 20
-192.14212040435
 30
0.0
  0
HATCH
  5
6E
330
1F
100
AcDbEntity
  8
Layer 1
 62
   231
420
 16739272
100
AcDbHatch
 10
0.0
 20
0.0
 30
0.0
210
0.0
220
0.0
230
1.0
  2
SOLID
 70
     1
 71
     0
 91
       45
 92
        1
 93
        1
 72
     4
 94
        3
 73
     0
 74
     1
 95
      239
 96
      235
 40
0.0
 40
0.0
 40
0.0
 40
0.0
 40
1.0
 40
1.0
 40
1.0
 40
2.0
 40
2.0
 40
2.0
 40
3.0
 40
3.0
 40
3.0
 40
4.0
 40
4.0
 40
4.0
 40
5.0
 40
5.0
 40
5.0
 40
6.0
 40
6.0
 40
6.0
 40
7.0
 40
7.0
 40
7.0
 40
8.0
 40
8.0
 40
8.0
 40
9.0
 40
9.0
 40
9.0
 40
10.0
 40
10.0
 40
10.0
 40
11.0
 40
11.0
 40
11.0
 40
12.0
 40
12.0
 40
12.0
 40
13.0
 40
13.0
 40
13.0
 40
14.0
 40
14.0
 40
14.0
 40
15.0
 40
15.0
 40
15.0
 40
16.0
 40
16.0
 40
16.0
 40
17.0
 40
17.0
 40
17.0
 40
18.0
 40
18.0
 40
18.0
 40
19.0
 40
19.0
 40
19.0
 40
20.0
 40
20.0
 40
20.0
 40
21.0
 40
21.0
 40
21.0
 40
22.0
 40
22.0
 40
22.0
 40
23.0
 40
23.0
 40
23.0
 40
24.0
 40
24.0
 40
24.0
 40
25.0
 40
25.0
 40
25.0
 40
26.0
 40
26.0
 40
26.0
 40
27.0
 40
27.0
 40
27.0
 40
28.0
 40
28.0
 40
28.0
 40
29.0
 40
29.0
 40
29.0
 40
30.0
 40
30.0
 40
30.0
 40
31.0
 40
31.0
 40
31.0
 40
32.0
 40
32.0
 40
32.0
 40
33.0
 40
33.0
 40
33.0
 40
34.0
 40
34.0
 40
34.0
 40
35.0
 40
35.0
 40
35.0
 40
36.0
 40
36.0
 40
36.0
 40
37.0
 40
37.0
 40
37.0
 40
38.0
 40
38.0
 40
38.0
 40
39.0
 40
39.0
 40
39.0
 40
40.0
 40
40.0
 40
40.0
 40
41.0
 40
41.0
 40
41.0
 40
42.0
 40
42.0
 40
42.0
 40
43.0
 40
43.0
 40
43.0
 40
44.0
 40
44.0
 40
44.0
 40
45.0
 40
45.0
 40
45.0
 40
46.0
 40
46.0
 40
46.0
 40
47.0
 40
47.0
 40
47.0
 40
48.0
 40
48.0
 40
48.0
 40
49.0
 40
49.0
 40
49.0
 40
50.0
 40
50.0
 40
50.0
 40
51.0
 40
51.0
 40
51.0
 40
52.0
 40
52.0
 40
52.0
 40
53.0
 40
53.0
 40
53.0
 40
54.0
 40
54.0
 40
54.0
 40
55.0
 40
55.0
 40
55.0
 40
56.0
 40
56.0
 40
56.0
 40
57.0
 40
57.0
 40
57.0
 40
58.0
 40
58.0
 40
58.0
 40
59.0
 40
59.0
 40
59.0
 40
60.0
 40
60.0
 40
60.0
 40
61.0
 40
61.0
 40
61.0
 40
62.0
 40
62.0
 40
62.0
 40
63.0
 40
63.0
 40
63.0
 40
64.0
 40
64.0
 40
64.0
 40
65.0
 40
65.0
 40
65.0
 40
66.0
 40
66.0
 40
66.0
 40
67.0
 40
67.0
 40
67.0
 40
68.0
 40
68.0
 40
68.0
 40
69.0
 40
69.0
 40
69.0
 40
70.0
 40
70.0
 40
70.0
 40
71.0
 40
71.0
 40
71.0
 40
72.0
 40
72.0
 40
72.0
 40
73.0
 40
73.0
 40
73.0
 40
74.0
 40
74.0
 40
74.0
 40
75.0
 40
75.0
 40
75.0
 40
76.0
 40
76.0
 40
76.0
 40
77.0
 40
77.0
 40
77.0
 40
78.0
 40
78.0
 40
78.0
 40
78.0
 10
205.5980690096854
 20
-183.5244563968451
 10
205.5980690096854
 20
-183.5244563968451
 10
199.3607666973335
 20
-178.8464473648089
 10
199.3607666973335
 20
-178.8464473648089
 10
198.0185144325873
 20
-177.8397689321747
 10
196.5544349787451
 20
-176.9993809522402
 10
194.9865720234079
 20
-176.4020013950979
 10
190.7974651044223
 20
-174.8058240612413
 10
186.8524432005698
 20
-172.6312797909517
 10
183.2662710551989
 20
-169.9416506819248
 10
183.2662710551989
 20
-169.9416506819248
 10
178.3713071349817
 20
-166.2703846780683
 10
178.3713071349817
 20
-166.2703846780683
 10
174.3423971560634
 20
-163.2486914279557
 10
170.4275198377074
 20
-160.0808184700346
 10
166.6299480206204
 20
-156.7775963232367
 10
164.8397902790987
 20
-155.2204992912883
 10
163.816984493221
 20
-152.9596984427892
 10
163.816984493221
 20
-150.5871257776354
 10
163.816984493221
 20
-150.5871257776354
 10
163.816984493221
 20
-150.5871042457912
 10
163.816984493221
 20
-150.5871042457912
 10
163.816984493221
 20
-148.2145100487922
 10
164.8398333427916
 20
-145.9536876684451
 10
166.6299910843165
 20
-144.3965906364974
 10
170.4267877549142
 20
-141.0941221043369
 10
174.3408899267879
 20
-137.9269381655135
 10
178.3689816955311
 20
-134.9058908708049
 10
178.3689816955311
 20
-134.9058908708049
 10
182.9374366911318
 20
-131.4795280922568
 10
182.9374366911318
 20
-131.4795280922568
 10
186.6729106620953
 20
-128.6778903162632
 10
190.7380802709978
 20
-126.3129614567205
 10
195.1128347729423
 20
-124.680459897342
 10
196.5000885974634
 20
-124.1627912369871
 10
197.8056936589879
 20
-123.448924388751
 10
198.9900313594277
 20
-122.5606711134197
 10
198.9900313594277
 20
-122.5606711134197
 10
205.5762787807432
 20
-117.6209855474352
 10
205.5762787807432
 20
-117.6209855474352
 10
207.4030406617969
 20
-116.2509356684923
 10
210.2538571758411
 20
-110.106371020234
 10
207.9272980672629
 20
-107.0042563223856
 10
205.6007389586884
 20
-103.9021631563886
 10
198.8821137433542
 20
-104.8896997772354
 10
197.0553518623005
 20
-106.2597496561783
 10
197.0553518623005
 20
-106.2597496561783
 10
190.8181787410299
 20
-110.9376510289767
 10
190.8181787410299
 20
-110.9376510289767
 10
189.4759695399766
 20
-111.9443294616148
 10
188.2592479419715
 20
-113.1145422705651
 10
187.2467343788566
 20
-114.4524020385696
 10
184.5414300853712
 20
-118.0270115822168
 10
181.3492476724317
 20
-121.2053920813705
 10
177.7629893996756
 20
-123.8950857859389
 10
177.7629893996756
 20
-123.8950857859389
 10
172.8680254794584
 20
-127.5663302579474
 10
172.8680254794584
 20
-127.5663302579474
 10
171.6684862951867
 20
-128.4659523483794
 10
170.4590424613975
 20
-129.3517725250261
 10
169.2402107424084
 20
-130.2241783611247
 10
166.9723043844684
 20
-131.8475719493154
 10
163.816984493221
 20
-130.2082663263515
 10
163.816984493221
 20
-127.4192246807272
 10
163.816984493221
 20
-127.4192246807272
 10
163.816984493221
 20
-115.6960599768967
 10
163.816984493221
 20
-115.6960599768967
 10
163.816984493221
 20
-115.6666690060382
 10
163.8134532703505
 20
-115.6382039045926
 10
163.8125919964792
 20
-115.6090282522012
 10
163.8125919964792
 20
-115.6090282522012
 10
163.8125919964792
 20
-115.2316826373331
 10
163.8125919964792
 20
-115.2316826373331
 10
163.8125919964792
 20
-113.7696056452411
 10
162.758565032767
 20
-112.5204570859818
 10
161.3173093365127
 20
-112.274477268335
 10
161.3173093365127
 20
-112.274477268335
 10
151.33092492603
 20
-110.5699947451596
 10
151.33092492603
 20
-110.5699947451596
 10
150.3288327767599
 20
-110.3989457543169
 10
149.3050365259288
 20
-110.3989242224727
 10
148.3029013129626
 20
-110.5699086177744
 10
148.3029013129626
 20
-110.5699086177744
 10
138.3123397242084
 20
-112.2745849275689
 10
138.3123397242084
 20
-112.2745849275689
 10
136.871040964258
 20
-112.5205001496748
 10
135.8169709368529
 20
-113.7696917726263
 10
135.8169709368529
 20
-115.2318333602593
 10
135.8169709368529
 20
-115.2318333602593
 10
135.8169709368529
 20
-115.6960599768967
 10
135.8169709368529
 20
-115.6960599768967
 10
135.8169709368529
 20
-115.6960599768967
 10
135.8169709368529
 20
-127.4192677444195
 10
135.8169709368529
 20
-127.4192677444195
 10
135.8169709368529
 20
-130.2083309218925
 10
132.6615649182197
 20
-131.8476365448558
 10
130.3936585602797
 20
-130.2241998929696
 10
129.1756881151626
 20
-129.3523538848893
 10
127.9670624915517
 20
-128.4671365999544
 10
126.768341517459
 20
-127.5681174012303
 10
126.768341517459
 20
-127.5681174012303
 10
122.1998003944692
 20
-124.1417115589867
 10
122.1998003944692
 20
-124.1417115589867
 10
118.4641111050386
 20
-121.3399445919143
 10
115.0553613771581
 20
-118.0994016511031
 10
112.2631545500554
 20
-114.3565207248457
 10
111.3779372651204
 20
-113.1699221804924
 10
110.327140078427
 20
-112.1165842358773
 10
109.1429746327575
 20
-111.2284816834728
 10
109.1429746327575
 20
-111.2284816834728
 10
102.5567272114459
 20
-106.2887961174877
 10
102.5567272114459
 20
-106.2887961174877
 10
100.7299653303922
 20
-104.9187462385448
 10
94.03295808922601
 20
-103.9024000067032
 10
91.70639898065158
 20
-107.0045147045483
 10
89.37983987207332
 20
-110.1066078705493
 10
92.20903841194954
 20
-116.2799821298017
 10
94.03580029300326
 20
-117.6500320087446
 10
94.03580029300326
 20
-117.6500320087446
 10
100.2729734142738
 20
-122.3278687860027
 10
100.2729734142738
 20
-122.3278687860027
 10
101.6152256790195
 20
-123.3345472186407
 10
103.0793481965584
 20
-124.1749351985745
 10
104.6472111518955
 20
-124.7723578194097
 10
108.8363180708774
 20
-126.3685566851144
 10
112.7813830384228
 20
-128.543144019097
 10
116.3675982474898
 20
-131.2328377236649
 10
116.3675982474898
 20
-131.2328377236649
 10
121.262562167707
 20
-134.9040821956733
 10
121.262562167707
 20
-134.9040821956733
 10
125.2915152103176
 20
-137.9257539139417
 10
129.2063925286742
 20
-141.0936053400141
 10
133.0039643457612
 20
-144.3968059549646
 10
134.7941220872823
 20
-145.9539029869117
 10
135.8169709368529
 20
-148.2146823035665
 10
135.8169709368529
 20
-150.5872765005655
 10
135.8169709368529
 20
-150.5872765005655
 10
135.8169709368529
 20
-150.5873195642578
 10
135.8169709368529
 20
-150.5873195642578
 10
135.8169709368529
 20
-152.9599352931013
 10
134.7940790235893
 20
-155.2207361416042
 10
133.0039212820651
 20
-156.7778331735513
 10
129.2071246114674
 20
-160.0803017057117
 10
125.293065503286
 20
-163.2474856445359
 10
121.2649737345467
 20
-166.2685329392437
 10
121.2649737345467
 20
-166.2685329392437
 10
116.6966909937163
 20
-169.694744994865
 10
116.6966909937163
 20
-169.694744994865
 10
112.9608725132043
 20
-172.4966196211707
 10
108.8953583947571
 20
-174.8617853310286
 10
104.5202593832641
 20
-176.4943514859507
 10
103.1333070045948
 20
-177.0118909552211
 10
101.8279172615413
 20
-177.7257147397648
 10
100.643837943261
 20
-178.6137742284764
 10
100.643837943261
 20
-178.6137742284764
 10
94.05759052194554
 20
-183.5534813263057
 10
94.05759052194554
 20
-183.5534813263057
 10
92.23082864089181
 20
-184.9235096734051
 10
89.38001212684757
 20
-191.0680958535069
 10
91.70657123542586
 20
-194.1701890195079
 10
94.03313034400027
 20
-197.2722821855088
 10
100.7517555593345
 20
-196.284745564662
 10
102.5785174403882
 20
-194.9147172175627
 10
102.5785174403882
 20
-194.9147172175627
 10
108.8157766890479
 20
-190.2367081855316
 10
108.8157766890479
 20
-190.2367081855316
 10
110.1579858901012
 20
-189.2300297528935
 10
111.3747074881024
 20
-188.0598169439426
 10
112.3872210512173
 20
-186.7219787077861
 10
115.0924822810097
 20
-183.1473906959845
 10
118.2846646939493
 20
-179.9690101968333
 10
121.8708799030131
 20
-177.2793595559585
 10
121.8708799030131
 20
-177.2793595559585
 10
126.7659299506194
 20
-173.6080935521019
 10
126.7659299506194
 20
-173.6080935521019
 10
127.9654260711943
 20
-172.7084714616693
 10
129.1748699049842
 20
-171.8226512850231
 10
130.3937016239726
 20
-170.9502239170759
 10
132.6616079819126
 20
-169.3268518607339
 10
135.8169709368529
 20
-170.9661359518484
 10
135.8169709368529
 20
-173.7551991293221
 10
135.8169709368529
 20
-173.7551991293221
 10
135.8169709368529
 20
-185.3612521184983
 10
135.8169709368529
 20
-185.3612521184983
 10
135.8169709368529
 20
-185.3612521184983
 10
135.8169709368529
 20
-185.4502647730997
 10
135.8169709368529
 20
-185.4502647730997
 10
135.8169709368529
 20
-187.1383830927164
 10
137.018663305801
 20
-188.5873902538125
 10
138.677649036723
 20
-188.8996450958581
 10
138.677649036723
 20
-188.8996450958581
 10
148.1519630670157
 20
-190.682934178256
 10
148.1519630670157
 20
-190.682934178256
 10
149.2523265650045
 20
-190.8900274806157
 10
150.3816288650694
 20
-190.8900059487676
 10
151.481906235673
 20
-190.6828265190234
 10
151.481906235673
 20
-190.6828265190234
 10
160.9520000239943
 20
-188.8998388824804
 10
160.9520000239943
 20
-188.8998388824804
 10
162.6109426912241
 20
-188.5874979130489
 10
163.8125919964792
 20
-187.1385122837983
 10
163.8125919964792
 20
-185.450437027874
 10
163.8125919964792
 20
-185.450437027874
 10
163.8125919964792
 20
-185.4483269068893
 10
163.8125919964792
 20
-185.4483269068893
 10
163.8134532703505
 20
-185.4191297226505
 10
163.816984493221
 20
-185.3906646212049
 10
163.816984493221
 20
-185.3612521184983
 10
163.816984493221
 20
-185.3612521184983
 10
163.816984493221
 20
-173.755177597474
 10
163.816984493221
 20
-173.755177597474
 10
163.816984493221
 20
-170.9661144200042
 10
166.9723474481613
 20
-169.3268303288884
 10
169.2402538061013
 20
-170.950245448924
 10
170.4582242512184
 20
-171.8221129888549
 10
171.666892938526
 20
-172.7073302737898
 10
172.8656139126187
 20
-173.6063710043593
 10
172.8656139126187
 20
-173.6063710043593
 10
177.4342411629937
 20
-177.0329060376811
 10
177.4342411629937
 20
-177.0329060376811
 10
181.1695859428759
 20
-179.8344361544382
 10
184.5780772885969
 20
-183.0746991812457
 10
187.3700687972286
 20
-186.8171494705649
 10
188.2555444643268
 20
-188.0040279289258
 10
189.3064708421023
 20
-189.0576457875491
 10
190.4908946699312
 20
-189.9459421265765
 10
190.4908946699312
 20
-189.9459421265765
 10
197.0771420912427
 20
-194.885692288102
 10
197.0771420912427
 20
-194.885692288102
 10
198.9039039722965
 20
-196.2557206351962
 10
205.6009112134627
 20
-197.2720238033449
 10
207.9274703220371
 20
-194.1699737010413
 10
210.2540294306154
 20
-191.0678374713481
 10
207.4248308907391
 20
-184.8944847439392
 10
205.5980690096854
 20
-183.5244563968451
 97
        0
 97
        0
 92
        1
 93
        1
 72
     4
 94
        3
 73
     0
 74
     1
 95
       17
 96
       13
 40
0.0
 40
0.0
 40
0.0
 40
0.0
 40
1.0
 40
1.0
 40
1.0
 40
2.0
 40
2.0
 40
2.0
 40
3.0
 40
3.0
 40
3.0
 40
4.0
 40
4.0
 40
4.0
 40
4.0
 10
198.1681177040362
 20
-119.1835947321555
 10
198.0897417817467
 20
-119.7302883219723
 10
197.5829682358665
 20
-120.1099378444469
 10
197.0363177097425
 20
-120.0315403903094
 10
196.4896671836224
 20
-119.9531644680199
 10
196.1100176611479
 20
-119.4464339858358
 10
196.1883935834373
 20
-118.899740396019
 10
196.2667695057268
 20
-118.3530468062027
 10
196.773456924218
 20
-117.9734188155763
 10
197.3201935777271
 20
-118.0517947378657
 10
197.8668441038511
 20
-118.130192192
 10
198.2464936263256
 20
-118.6369011423425
 10
198.1681177040362
 20
-119.1835947321555
 97
        0
 97
        0
 92
        1
 93
        1
 72
     4
 94
        3
 73
     0
 74
     1
 95
       17
 96
       13
 40
0.0
 40
0.0
 40
0.0
 40
0.0
 40
1.0
 40
1.0
 40
1.0
 40
2.0
 40
2.0
 40
2.0
 40
3.0
 40
3.0
 40
3.0
 40
4.0
 40
4.0
 40
4.0
 40
4.0
 10
203.2612607420405
 20
-115.3678715682338
 10
203.182884819751
 20
-115.91456515805
 10
202.6761112738708
 20
-116.2942146805245
 10
202.1294607477507
 20
-116.215817226387
 10
201.5827240942415
 20
-116.1374413040976
 10
201.203074571767
 20
-115.6307108219135
 10
201.2814504940564
 20
-115.0840172320972
 10
201.3599125437311
 20
-114.537323642281
 10
201.8665999622261
 20
-114.1576741198065
 10
202.4133366157353
 20
-114.236071573944
 10
202.9599871418554
 20
-114.3144474962334
 10
203.3396366643299
 20
-114.8211779784175
 10
203.2612607420405
 20
-115.3678715682338
 97
        0
 97
        0
 92
        1
 93
        1
 72
     4
 94
        3
 73
     0
 74
     1
 95
       17
 96
       13
 40
0.0
 40
0.0
 40
0.0
 40
0.0
 40
1.0
 40
1.0
 40
1.0
 40
2.0
 40
2.0
 40
2.0
 40
3.0
 40
3.0
 40
3.0
 40
4.0
 40
4.0
 40
4.0
 40
4.0
 10
201.7572104712607
 20
-110.3106478755243
 10
201.8747587511795
 20
-109.4907163296111
 10
202.6347535917298
 20
-108.9213337753852
 10
203.4546851376423
 20
-109.038898202042
 10
204.2746166835581
 20
-109.1564626287032
 10
204.8440153845252
 20
-109.9164574692542
 10
204.726467104607
 20
-110.7363890151673
 10
204.6089188246889
 20
-111.5563205610811
 10
203.8488593971726
 20
-112.1257083427043
 10
203.0289924382254
 20
-112.0081386886458
 10
202.2089963053444
 20
-111.8905742619891
 10
201.6396621913426
 20
-111.1305794214381
 10
201.7572104712607
 20
-110.3106478755243
 97
        0
 97
        0
 92
        1
 93
        1
 72
     4
 94
        3
 73
     0
 74
     1
 95
       17
 96
       13
 40
0.0
 40
0.0
 40
0.0
 40
0.0
 40
1.0
 40
1.0
 40
1.0
 40
2.0
 40
2.0
 40
2.0
 40
3.0
 40
3.0
 40
3.0
 40
4.0
 40
4.0
 40
4.0
 40
4.0
 10
197.4657488619789
 20
-109.9908526622449
 10
197.5441247842684
 20
-109.444159072428
 10
198.0508122027634
 20
-109.0645310818015
 10
198.5975488562726
 20
-109.142907004091
 10
199.1442855097817
 20
-109.2212829263804
 10
199.5238489048672
 20
-109.7280134085645
 10
199.4454729825777
 20
-110.2747069983814
 10
199.3670970602883
 20
-110.8214005881976
 10
198.8604096417971
 20
-111.2010501106721
 10
198.313672988288
 20
-111.1226526565346
 10
197.767022462164
 20
-111.0442767342452
 10
197.3873729396895
 20
-110.5375462520579
 10
197.4657488619789
 20
-109.9908526622449
 97
        0
 97
        0
 92
        1
 93
        1
 72
     4
 94
        3
 73
     0
 74
     1
 95
       17
 96
       13
 40
0.0
 40
0.0
 40
0.0
 40
0.0
 40
1.0
 40
1.0
 40
1.0
 40
2.0
 40
2.0
 40
2.0
 40
3.0
 40
3.0
 40
3.0
 40
4.0
 40
4.0
 40
4.0
 40
4.0
 10
196.3179291736827
 20
-112.5864521963724
 10
197.4229435505766
 20
-111.7585957512669
 10
198.9898591046534
 20
-111.9832590405981
 10
199.817715549759
 20
-113.0882518856439
 10
200.6455719948645
 20
-114.193244730693
 10
200.420865641841
 20
-115.7601387529224
 10
199.3159373923324
 20
-116.5879951980279
 10
198.2109230154385
 20
-117.4158516431334
 10
196.6440074613616
 20
-117.1911883538022
 10
195.8161510162561
 20
-116.0861955087564
 10
194.9882945711506
 20
-114.9812026637074
 10
195.2129147967889
 20
-113.414308641478
 10
196.3179291736827
 20
-112.5864521963724
 97
        0
 97
        0
 92
        1
 93
        1
 72
     4
 94
        3
 73
     0
 74
     1
 95
       17
 96
       13
 40
0.0
 40
0.0
 40
0.0
 40
0.0
 40
1.0
 40
1.0
 40
1.0
 40
2.0
 40
2.0
 40
2.0
 40
3.0
 40
3.0
 40
3.0
 40
4.0
 40
4.0
 40
4.0
 40
4.0
 10
192.3726058239746
 20
-113.8066404217076
 10
192.4509817462641
 20
-113.2599468318907
 10
192.9577552921443
 20
-112.8803188412642
 10
193.5044058182644
 20
-112.9586947635537
 10
194.0510563443883
 20
-113.037092217688
 10
194.4307058668629
 20
-113.5438226998753
 10
194.3523299445735
 20
-114.0905162896922
 10
194.273954022284
 20
-114.6372098795052
 10
193.767266603789
 20
-115.0168378701349
 10
193.2205299502798
 20
-114.9384619478454
 10
192.6738794241597
 20
-114.8600644937079
 10
192.2942299016852
 20
-114.3533340115206
 10
192.3726058239746
 20
-113.8066404217076
 97
        0
 97
        0
 92
        1
 93
        1
 72
     4
 94
        3
 73
     0
 74
     1
 95
       17
 96
       13
 40
0.0
 40
0.0
 40
0.0
 40
0.0
 40
1.0
 40
1.0
 40
1.0
 40
2.0
 40
2.0
 40
2.0
 40
3.0
 40
3.0
 40
3.0
 40
4.0
 40
4.0
 40
4.0
 40
4.0
 10
101.0419187265816
 20
-109.1421103257574
 10
101.588741507476
 20
-109.0642726996388
 10
102.0950844164225
 20
-109.4444389864362
 10
102.1728574470001
 20
-109.9912187036376
 10
102.2507166049667
 20
-110.5379768889948
 10
101.8705503181694
 20
-111.0443197979381
 10
101.3238136646602
 20
-111.1221358922118
 10
100.7769908837659
 20
-111.1999735183336
 10
100.2706479748194
 20
-110.8198072315363
 10
100.1928749442418
 20
-110.273027514331
 10
100.1150157862751
 20
-109.7262693289777
 10
100.4951820730725
 20
-109.2199264200311
 10
101.0419187265816
 20
-109.1421103257574
 97
        0
 97
        0
 92
        1
 93
        1
 72
     4
 94
        3
 73
     0
 74
     1
 95
       17
 96
       13
 40
0.0
 40
0.0
 40
0.0
 40
0.0
 40
1.0
 40
1.0
 40
1.0
 40
2.0
 40
2.0
 40
2.0
 40
3.0
 40
3.0
 40
3.0
 40
4.0
 40
4.0
 40
4.0
 40
4.0
 10
97.50277213458445
 20
-116.2113601341042
 10
96.95594935368624
 20
-116.2891762283786
 10
96.44960644474357
 20
-115.9090314734255
 10
96.37183341416213
 20
-115.3622517562241
 10
96.29397425619548
 20
-114.815472039022
 10
96.6741405429928
 20
-114.3091291300755
 10
97.220963323891
 20
-114.231313035805
 10
97.76769997740016
 20
-114.1534969415312
 10
98.27404288634283
 20
-114.5336416964805
 10
98.35190204430947
 20
-115.0804214136826
 10
98.42967507489091
 20
-115.6272011308879
 10
98.04950878809359
 20
-116.1335225079857
 10
97.50277213458445
 20
-116.2113601341042
 97
        0
 97
        0
 92
        1
 93
        1
 72
     4
 94
        3
 73
     0
 74
     1
 95
       17
 96
       13
 40
0.0
 40
0.0
 40
0.0
 40
0.0
 40
1.0
 40
1.0
 40
1.0
 40
2.0
 40
2.0
 40
2.0
 40
3.0
 40
3.0
 40
3.0
 40
4.0
 40
4.0
 40
4.0
 40
4.0
 10
96.60813801910325
 20
-112.0020084266897
 10
95.78808076575552
 20
-112.1187165826941
 10
95.02867041804485
 20
-111.548561394991
 10
94.91196226203787
 20
-110.7285041416413
 10
94.79525410603377
 20
-109.9084630349655
 10
95.3654254404094
 20
-109.1490688339295
 10
96.18548269375712
 20
-109.0323445312513
 10
97.00553994710806
 20
-108.9156202285738
 10
97.7649502948184
 20
-109.485775416273
 10
97.88165845082283
 20
-110.3058326696227
 10
97.99836660682982
 20
-111.1258737762979
 10
97.42819527245419
 20
-111.8852841240083
 10
96.60813801910325
 20
-112.0020084266897
 97
        0
 97
        0
 92
        1
 93
        1
 72
     4
 94
        3
 73
     0
 74
     1
 95
       17
 96
       13
 40
0.0
 40
0.0
 40
0.0
 40
0.0
 40
1.0
 40
1.0
 40
1.0
 40
2.0
 40
2.0
 40
2.0
 40
3.0
 40
3.0
 40
3.0
 40
4.0
 40
4.0
 40
4.0
 40
4.0
 10
102.5919533127807
 20
-120.0323370686429
 10
102.0452166592716
 20
-120.1101746947615
 10
101.5388737503289
 20
-119.7300084079642
 10
101.4611007197474
 20
-119.1832286907627
 10
101.3832415617808
 20
-118.6364705054055
 10
101.7634078485781
 20
-118.1301275964622
 10
102.3101445020873
 20
-118.0522899703404
 10
102.8569672829855
 20
-117.9744738760667
 10
103.3633101919282
 20
-118.354640162864
 10
103.4410832225096
 20
-118.9014198800693
 10
103.5189423804762
 20
-119.4481780654227
 10
103.1387760936789
 20
-119.9545209743692
 10
102.5919533127807
 20
-120.0323370686429
 97
        0
 97
        0
 92
        1
 93
        1
 72
     4
 94
        3
 73
     0
 74
     1
 95
       17
 96
       13
 40
0.0
 40
0.0
 40
0.0
 40
0.0
 40
1.0
 40
1.0
 40
1.0
 40
2.0
 40
2.0
 40
2.0
 40
3.0
 40
3.0
 40
3.0
 40
4.0
 40
4.0
 40
4.0
 40
4.0
 10
103.8161679934642
 20
-116.0882625660475
 10
102.9871918923279
 20
-117.1923941372221
 10
101.4200179560878
 20
-117.4154425380471
 10
100.3159509804504
 20
-116.5864664369076
 10
99.21179787742783
 20
-115.7574688039226
 10
98.9887279447579
 20
-114.1903379313754
 10
99.81770404589807
 20
-113.0862063602008
 10
100.6466801470344
 20
-111.9820532571783
 10
102.2138540832745
 20
-111.7590048563532
 10
103.3180071862971
 20
-112.5880024893408
 10
104.4220741619345
 20
-113.4170001223258
 10
104.6451440946044
 20
-114.984109463025
 10
103.8161679934642
 20
-116.0882625660475
 97
        0
 97
        0
 92
        1
 93
        1
 72
     4
 94
        3
 73
     0
 74
     1
 95
       17
 96
       13
 40
0.0
 40
0.0
 40
0.0
 40
0.0
 40
1.0
 40
1.0
 40
1.0
 40
2.0
 40
2.0
 40
2.0
 40
3.0
 40
3.0
 40
3.0
 40
4.0
 40
4.0
 40
4.0
 40
4.0
 10
106.4129948428604
 20
-114.9431343585954
 10
105.8661720619621
 20
-115.0209719847171
 10
105.3598291530195
 20
-114.6408056979198
 10
105.282056122438
 20
-114.0940259807178
 10
105.2041969644714
 20
-113.5472677953605
 10
105.5843632512687
 20
-113.0409248864147
 10
106.1310999047779
 20
-112.9631087921442
 10
106.6779226856761
 20
-112.8852711660217
 10
107.1842655946187
 20
-113.265437452819
 10
107.2620386252002
 20
-113.8122171700243
 10
107.3398977831668
 20
-114.3589753553783
 10
106.9597314963695
 20
-114.8653182643249
 10
106.4129948428604
 20
-114.9431343585954
 97
        0
 97
        0
 92
        1
 93
        1
 72
     4
 94
        3
 73
     0
 74
     1
 95
       17
 96
       13
 40
0.0
 40
0.0
 40
0.0
 40
0.0
 40
1.0
 40
1.0
 40
1.0
 40
2.0
 40
2.0
 40
2.0
 40
3.0
 40
3.0
 40
3.0
 40
4.0
 40
4.0
 40
4.0
 40
4.0
 10
101.4657515986525
 20
-181.9908721415861
 10
101.544127520942
 20
-181.444135488077
 10
102.0509010668222
 20
-181.0645290292947
 10
102.5975515929462
 20
-181.1429049515841
 10
103.1442882464553
 20
-181.2213239375659
 10
103.5238516415408
 20
-181.7280113560616
 10
103.4454757192513
 20
-182.2747049458771
 10
103.3670997969619
 20
-182.8213985356902
 10
102.8604123784707
 20
-183.2010480581647
 10
102.3136757249616
 20
-183.1226721358753
 10
101.7670251988376
 20
-183.0442962135858
 10
101.3873756763631
 20
-182.5375226677056
 10
101.4657515986525
 20
-181.9908721415861
 97
        0
 97
        0
 92
        1
 93
        1
 72
     4
 94
        3
 73
     0
 74
     1
 95
       17
 96
       13
 40
0.0
 40
0.0
 40
0.0
 40
0.0
 40
1.0
 40
1.0
 40
1.0
 40
2.0
 40
2.0
 40
2.0
 40
3.0
 40
3.0
 40
3.0
 40
4.0
 40
4.0
 40
4.0
 40
4.0
 10
96.37260856064823
 20
-185.8065737736591
 10
96.45098448293767
 20
-185.2598801838461
 10
96.95775802881792
 20
-184.8802737250652
 10
97.50440855493801
 20
-184.9586496473546
 10
98.05114520844715
 20
-185.037025569644
 10
98.43079473092169
 20
-185.5437560518307
 10
98.35241880863225
 20
-186.0904496416437
 10
98.27395675895761
 20
-186.6371432314606
 10
97.76726934046258
 20
-187.0167496902428
 10
97.22053268695342
 20
-186.9383737679534
 10
96.67388216083333
 20
-186.859997845664
 10
96.29423263835879
 20
-186.353267363476
 10
96.37260856064823
 20
-185.8065737736591
 97
        0
 97
        0
 92
        1
 93
        1
 72
     4
 94
        3
 73
     0
 74
     1
 95
       17
 96
       13
 40
0.0
 40
0.0
 40
0.0
 40
0.0
 40
1.0
 40
1.0
 40
1.0
 40
2.0
 40
2.0
 40
2.0
 40
3.0
 40
3.0
 40
3.0
 40
4.0
 40
4.0
 40
4.0
 40
4.0
 10
97.87665881697244
 20
-190.8637843146723
 10
97.75911053878043
 20
-191.6837481420283
 10
96.99911570939054
 20
-192.2531145411517
 10
96.17918417551823
 20
-192.1355662629604
 10
95.35925264164335
 20
-192.0180179847664
 10
94.78985394903756
 20
-191.2580231553772
 10
94.90740222723021
 20
-190.4380916215036
 10
95.02501509238945
 20
-189.6181600876313
 10
95.78500992177678
 20
-189.0487613950242
 10
96.60494145565166
 20
-189.1663096732194
 10
97.42487298952396
 20
-189.2838902448931
 10
97.99420709516507
 20
-190.0438527807987
 10
97.87665881697244
 20
-190.8637843146723
 97
        0
 97
        0
 92
        1
 93
        1
 72
     4
 94
        3
 73
     0
 74
     1
 95
       17
 96
       13
 40
0.0
 40
0.0
 40
0.0
 40
0.0
 40
1.0
 40
1.0
 40
1.0
 40
2.0
 40
2.0
 40
2.0
 40
3.0
 40
3.0
 40
3.0
 40
4.0
 40
4.0
 40
4.0
 40
4.0
 10
102.1681204407098
 20
-191.1835926796525
 10
102.0897445184203
 20
-191.7303293331617
 10
101.5830570999253
 20
-192.1099357919426
 10
101.0363204464161
 20
-192.0315598696532
 10
100.4896699202961
 20
-191.9531408836676
 10
100.1100203978215
 20
-191.4464534651771
 10
100.188396320111
 20
-190.8997168116679
 10
100.2667722424004
 20
-190.3530662855433
 10
100.7734596608916
 20
-189.9734167630688
 10
101.3201963144007
 20
-190.0517926853582
 10
101.8668468405247
 20
-190.1301686076477
 10
102.2464963629992
 20
-190.6369421535279
 10
102.1681204407098
 20
-191.1835926796525
 97
        0
 97
        0
 92
        1
 93
        1
 72
     4
 94
        3
 73
     0
 74
     1
 95
       17
 96
       13
 40
0.0
 40
0.0
 40
0.0
 40
0.0
 40
1.0
 40
1.0
 40
1.0
 40
2.0
 40
2.0
 40
2.0
 40
3.0
 40
3.0
 40
3.0
 40
4.0
 40
4.0
 40
4.0
 40
4.0
 10
103.315940129006
 20
-188.5879716136756
 10
102.2109257521121
 20
-189.4158280587811
 10
100.6440101980352
 20
-189.1912078331428
 10
99.81615375292971
 20
-188.086193456249
 10
98.98829730782417
 20
-186.9811790793551
 10
99.21300366084766
 20
-185.4143496526634
 10
100.3179319103564
 20
-184.5864501438656
 10
101.4229462872502
 20
-183.7585936987601
 10
102.9898618413271
 20
-183.9832569880907
 10
103.8177182864326
 20
-185.0882713649845
 10
104.6455747315381
 20
-186.1932426781862
 10
104.4209545058998
 20
-187.7601151685701
 10
103.315940129006
 20
-188.5879716136756
 97
        0
 97
        0
 92
        1
 93
        1
 72
     4
 94
        3
 73
     0
 74
     1
 95
       17
 96
       13
 40
0.0
 40
0.0
 40
0.0
 40
0.0
 40
1.0
 40
1.0
 40
1.0
 40
2.0
 40
2.0
 40
2.0
 40
3.0
 40
3.0
 40
3.0
 40
4.0
 40
4.0
 40
4.0
 40
4.0
 10
107.2612634787141
 20
-187.3678049201898
 10
107.1828875564246
 20
-187.9144985100054
 10
106.6762001379334
 20
-188.2941480324799
 10
106.1294634844243
 20
-188.2157290464943
 10
105.5828129583004
 20
-188.1373531242049
 10
105.2031634358258
 20
-187.6306657057144
 10
105.2815393581153
 20
-187.0839290522052
 10
105.3599152804047
 20
-186.5372785260806
 10
105.8666026988997
 20
-186.1576290036061
 10
106.4133393524089
 20
-186.2360049258955
 10
106.959989878529
 20
-186.314380848185
 10
107.3396394010035
 20
-186.8211113303729
 10
107.2612634787141
 20
-187.3678049201898
 97
        0
 97
        0
 92
        1
 93
        1
 72
     4
 94
        3
 73
     0
 74
     1
 95
       23
 96
       19
 40
0.0
 40
0.0
 40
0.0
 40
0.0
 40
1.0
 40
1.0
 40
1.0
 40
2.0
 40
2.0
 40
2.0
 40
3.0
 40
3.0
 40
3.0
 40
4.0
 40
4.0
 40
4.0
 40
5.0
 40
5.0
 40
5.0
 40
6.0
 40
6.0
 40
6.0
 40
6.0
 10
160.2874411048896
 20
-120.7043244748857
 10
160.2874411048896
 20
-120.7043244748857
 10
160.2874411048896
 20
-129.0812679338931
 10
160.2874411048896
 20
-129.0812679338931
 10
160.2874411048896
 20
-130.0906378473783
 10
158.7938630209524
 20
-130.5961625461426
 10
157.9204451880564
 20
-129.8824033571399
 10
157.9204451880564
 20
-129.8824033571399
 10
152.7941861696969
 20
-125.6939208617141
 10
152.7941861696969
 20
-125.6939208617141
 10
152.2526602231086
 20
-125.2514844740221
 10
152.2526602231086
 20
-124.5341294666047
 10
152.7941861696969
 20
-124.0916930789128
 10
152.7941861696969
 20
-124.0916930789128
 10
157.9204451880564
 20
-119.9032105834838
 10
157.9204451880564
 20
-119.9032105834838
 10
158.7939491483415
 20
-119.1894944581765
 10
160.2874411048896
 20
-119.6949760932485
 10
160.2874411048896
 20
-120.7043244748857
 97
        0
 97
        0
 92
        1
 93
        1
 72
     4
 94
        3
 73
     0
 74
     1
 95
       23
 96
       19
 40
0.0
 40
0.0
 40
0.0
 40
0.0
 40
1.0
 40
1.0
 40
1.0
 40
2.0
 40
2.0
 40
2.0
 40
3.0
 40
3.0
 40
3.0
 40
4.0
 40
4.0
 40
4.0
 40
5.0
 40
5.0
 40
5.0
 40
6.0
 40
6.0
 40
6.0
 40
6.0
 10
160.0676870766236
 20
-146.1951027345721
 10
159.23922773981
 20
-146.1951027345721
 10
158.5676925023458
 20
-145.5235244334156
 10
158.5676925023458
 20
-144.6951081602943
 10
158.5676925023458
 20
-144.3091928704053
 10
158.5676925023458
 20
-141.081052273341
 10
158.5676925023458
 20
-140.695136983452
 10
158.5676925023458
 20
-139.8666776466353
 10
159.23922773981
 20
-139.1951424091743
 10
160.0676870766236
 20
-139.1951424091743
 10
160.8961033497448
 20
-139.1951424091743
 10
161.5676816509014
 20
-139.8666776466353
 10
161.5676816509014
 20
-140.695136983452
 10
161.5676816509014
 20
-141.081052273341
 10
161.5676816509014
 20
-144.3091928704053
 10
161.5676816509014
 20
-144.6951081602943
 10
161.5676816509014
 20
-145.5235244334156
 10
160.8961033497448
 20
-146.1951027345721
 10
160.0676870766236
 20
-146.1951027345721
 97
        0
 97
        0
 92
        1
 93
        1
 72
     4
 94
        3
 73
     0
 74
     1
 95
       23
 96
       19
 40
0.0
 40
0.0
 40
0.0
 40
0.0
 40
1.0
 40
1.0
 40
1.0
 40
2.0
 40
2.0
 40
2.0
 40
3.0
 40
3.0
 40
3.0
 40
4.0
 40
4.0
 40
4.0
 40
5.0
 40
5.0
 40
5.0
 40
6.0
 40
6.0
 40
6.0
 40
6.0
 10
161.5676816509014
 20
-160.6951435905949
 10
161.5676816509014
 20
-161.0810588804807
 10
161.5676816509014
 20
-164.3092210093963
 10
161.5676816509014
 20
-164.6951147674378
 10
161.5676816509014
 20
-165.5235310405584
 10
160.8961033497448
 20
-166.195066278022
 10
160.0676870766236
 20
-166.195066278022
 10
159.23922773981
 20
-166.195066278022
 10
158.5676925023458
 20
-165.5235310405584
 10
158.5676925023458
 20
-164.6951147674378
 10
158.5676925023458
 20
-164.3092210093963
 10
158.5676925023458
 20
-161.0810588804807
 10
158.5676925023458
 20
-160.6951435905949
 10
158.5676925023458
 20
-159.8667057856263
 10
159.23922773981
 20
-159.1951274844691
 10
160.0676870766236
 20
-159.1951274844691
 10
160.8961033497448
 20
-159.1951274844691
 10
161.5676816509014
 20
-159.8667057856263
 10
161.5676816509014
 20
-160.6951435905949
 97
        0
 97
        0
 92
        1
 93
        1
 72
     4
 94
        3
 73
     0
 74
     1
 95
       23
 96
       19
 40
0.0
 40
0.0
 40
0.0
 40
0.0
 40
1.0
 40
1.0
 40
1.0
 40
2.0
 40
2.0
 40
2.0
 40
3.0
 40
3.0
 40
3.0
 40
4.0
 40
4.0
 40
4.0
 40
5.0
 40
5.0
 40
5.0
 40
6.0
 40
6.0
 40
6.0
 40
6.0
 10
149.0767128226458
 20
-146.351811515458
 10
149.0767128226458
 20
-146.351811515458
 10
144.7782241220035
 20
-141.2874780884485
 10
144.7782241220035
 20
-141.2874780884485
 10
144.0457537581464
 20
-140.4245247330857
 10
144.5644990108399
 20
-138.9490118686012
 10
145.6003961595583
 20
-138.9490118686012
 10
145.6003961595583
 20
-138.9490118686012
 10
154.1973735608392
 20
-138.9490118686012
 10
154.1973735608392
 20
-138.9490118686012
 10
155.2332707095615
 20
-138.9490118686012
 10
155.7520159622511
 20
-140.4245247330857
 10
155.0195455983941
 20
-141.2874780884485
 10
155.0195455983941
 20
-141.2874780884485
 10
150.7210568977556
 20
-146.351811515458
 10
150.7210568977556
 20
-146.351811515458
 10
150.2669933127996
 20
-146.886770248777
 10
149.5307764076017
 20
-146.886770248777
 10
149.0767128226458
 20
-146.351811515458
 97
        0
 97
        0
 92
        1
 93
        1
 72
     4
 94
        3
 73
     0
 74
     1
 95
       23
 96
       19
 40
0.0
 40
0.0
 40
0.0
 40
0.0
 40
1.0
 40
1.0
 40
1.0
 40
2.0
 40
2.0
 40
2.0
 40
3.0
 40
3.0
 40
3.0
 40
4.0
 40
4.0
 40
4.0
 40
5.0
 40
5.0
 40
5.0
 40
6.0
 40
6.0
 40
6.0
 40
6.0
 10
155.0195455983941
 20
-160.1028886129844
 10
155.7520159622511
 20
-160.9658850320394
 10
155.2332707095615
 20
-162.4413978965277
 10
154.1973735608392
 20
-162.4413978965277
 10
154.1973735608392
 20
-162.4413978965277
 10
145.6003961595583
 20
-162.4413978965277
 10
145.6003961595583
 20
-162.4413978965277
 10
144.5644990108399
 20
-162.4413978965277
 10
144.0457537581464
 20
-160.9658850320394
 10
144.7782241220035
 20
-160.1028886129844
 10
144.7782241220035
 20
-160.1028886129844
 10
149.0767128226458
 20
-155.0385982496671
 10
149.0767128226458
 20
-155.0385982496671
 10
149.5307764076017
 20
-154.5036395163494
 10
150.2669933127996
 20
-154.5036395163494
 10
150.7210568977556
 20
-155.0385982496671
 10
150.7210568977556
 20
-155.0385982496671
 10
155.0195455983941
 20
-160.1028886129844
 10
155.0195455983941
 20
-160.1028886129844
 97
        0
 97
        0
 92
        1
 93
        1
 72
     4
 94
        3
 73
     0
 74
     1
 95
       23
 96
       19
 40
0.0
 40
0.0
 40
0.0
 40
0.0
 40
1.0
 40
1.0
 40
1.0
 40
2.0
 40
2.0
 40
2.0
 40
3.0
 40
3.0
 40
3.0
 40
4.0
 40
4.0
 40
4.0
 40
5.0
 40
5.0
 40
5.0
 40
6.0
 40
6.0
 40
6.0
 40
6.0
 10
155.1936521114812
 20
-134.9952910986472
 10
155.1936521114812
 20
-134.9952910986472
 10
144.9413063295371
 20
-134.9952910986472
 10
144.9413063295371
 20
-134.9952910986472
 10
143.7059812159156
 20
-134.9952910986472
 10
143.0873281941499
 20
-133.7749090866903
 10
143.960832154435
 20
-133.061171429535
 10
143.960832154435
 20
-133.061171429535
 10
149.0870481091016
 20
-128.8727104659541
 10
149.0870481091016
 20
-128.8727104659541
 10
149.6285309919938
 20
-128.4302525464141
 10
150.5064274490245
 20
-128.4302525464141
 10
151.0479533956097
 20
-128.8727104659541
 10
151.0479533956097
 20
-128.8727104659541
 10
156.1741262865833
 20
-133.0611929613799
 10
156.1741262865833
 20
-133.0611929613799
 10
157.0477163742536
 20
-133.7749306185384
 10
156.4290633524918
 20
-134.9952910986472
 10
155.1936521114812
 20
-134.9952910986472
 97
        0
 97
        0
 92
        1
 93
        1
 72
     4
 94
        3
 73
     0
 74
     1
 95
       23
 96
       19
 40
0.0
 40
0.0
 40
0.0
 40
0.0
 40
1.0
 40
1.0
 40
1.0
 40
2.0
 40
2.0
 40
2.0
 40
3.0
 40
3.0
 40
3.0
 40
4.0
 40
4.0
 40
4.0
 40
5.0
 40
5.0
 40
5.0
 40
6.0
 40
6.0
 40
6.0
 40
6.0
 10
144.8577197003269
 20
-147.6473396726862
 10
144.8577197003269
 20
-147.6473396726862
 10
147.1779915096427
 20
-149.9676545456949
 10
147.1779915096427
 20
-149.9676545456949
 10
147.6075949166533
 20
-150.3972364208604
 10
147.6075949166533
 20
-151.0937270687414
 10
147.1779915096427
 20
-151.5232874120598
 10
147.1779915096427
 20
-151.5232874120598
 10
144.8577197003269
 20
-153.8436238169159
 10
144.8577197003269
 20
-153.8436238169159
 10
144.1647387434689
 20
-154.5365832419259
 10
142.9798842787031
 20
-154.0457863263597
 10
142.9798842787031
 20
-153.0658073837349
 10
142.9798842787031
 20
-153.0658073837349
 10
142.9798842787031
 20
-148.4251561058672
 10
142.9798842787031
 20
-148.4251561058672
 10
142.9798842787031
 20
-147.445155631395
 10
144.1647387434689
 20
-146.9543802476763
 10
144.8577197003269
 20
-147.6473396726862
 97
        0
 97
        0
 92
        1
 93
        1
 72
     4
 94
        3
 73
     0
 74
     1
 95
       23
 96
       19
 40
0.0
 40
0.0
 40
0.0
 40
0.0
 40
1.0
 40
1.0
 40
1.0
 40
2.0
 40
2.0
 40
2.0
 40
3.0
 40
3.0
 40
3.0
 40
4.0
 40
4.0
 40
4.0
 40
5.0
 40
5.0
 40
5.0
 40
6.0
 40
6.0
 40
6.0
 40
6.0
 10
144.9413063295371
 20
-166.4956939228037
 10
144.9413063295371
 20
-166.4956939228037
 10
155.1937382388664
 20
-166.4957369864959
 10
155.1937382388664
 20
-166.4957369864959
 10
156.4290633524918
 20
-166.4957369864959
 10
157.0477163742536
 20
-167.7160113392195
 10
156.1741262865833
 20
-168.4298135919152
 10
156.1741262865833
 20
-168.4298135919152
 10
151.0479964593058
 20
-172.618253023648
 10
151.0479964593058
 20
-172.618253023648
 10
150.5065135764097
 20
-173.0607324750361
 10
149.6285309919938
 20
-173.0607324750361
 10
149.0870481091016
 20
-172.618253023648
 10
149.0870481091016
 20
-172.618253023648
 10
143.9609182818241
 20
-168.4298135919152
 10
143.9609182818241
 20
-168.4298135919152
 10
143.0873281941499
 20
-167.7160113392195
 10
143.7059812159156
 20
-166.4956939228037
 10
144.9413063295371
 20
-166.4956939228037
 97
        0
 97
        0
 92
        1
 93
        1
 72
     4
 94
        3
 73
     0
 74
     1
 95
       23
 96
       19
 40
0.0
 40
0.0
 40
0.0
 40
0.0
 40
1.0
 40
1.0
 40
1.0
 40
2.0
 40
2.0
 40
2.0
 40
3.0
 40
3.0
 40
3.0
 40
4.0
 40
4.0
 40
4.0
 40
5.0
 40
5.0
 40
5.0
 40
6.0
 40
6.0
 40
6.0
 40
6.0
 10
154.9430644786215
 20
-153.8402002532787
 10
154.9430644786215
 20
-153.8402002532787
 10
152.6268837201958
 20
-151.5228137114293
 10
152.6268837201958
 20
-151.5228137114293
 10
152.1980985233603
 20
-151.0937701324376
 10
152.1980985233603
 20
-150.3973010163982
 10
152.6268837201958
 20
-149.9671808450651
 10
152.6268837201958
 20
-149.9671808450651
 10
154.9430644786215
 20
-147.643959172742
 10
154.9430644786215
 20
-147.643959172742
 10
155.6347535246713
 20
-146.9501384738575
 10
156.817540932146
 20
-147.4394281601514
 10
156.817540932146
 20
-148.4194071027788
 10
156.817540932146
 20
-148.4194071027788
 10
156.817540932146
 20
-153.0600368487958
 10
156.817540932146
 20
-153.0600368487958
 10
156.817540932146
 20
-154.0400157914232
 10
155.6347965883674
 20
-154.5322768725693
 10
154.9430644786215
 20
-153.8402002532787
 97
        0
 97
        0
 92
        1
 93
        1
 72
     4
 94
        3
 73
     0
 74
     1
 95
       23
 96
       19
 40
0.0
 40
0.0
 40
0.0
 40
0.0
 40
1.0
 40
1.0
 40
1.0
 40
2.0
 40
2.0
 40
2.0
 40
3.0
 40
3.0
 40
3.0
 40
4.0
 40
4.0
 40
4.0
 40
5.0
 40
5.0
 40
5.0
 40
6.0
 40
6.0
 40
6.0
 40
6.0
 10
144.9413063295371
 20
-114.7903443738245
 10
144.9413063295371
 20
-114.7903443738245
 10
155.1937382388664
 20
-114.7903443738245
 10
155.1937382388664
 20
-114.7903443738245
 10
156.4290633524918
 20
-114.7903443738245
 10
157.0477163742536
 20
-116.0106833220884
 10
156.1741262865833
 20
-116.7243994473989
 10
156.1741262865833
 20
-116.7243994473989
 10
151.0479964593058
 20
-120.9129034746728
 10
151.0479964593058
 20
-120.9129034746728
 10
150.5065135764097
 20
-121.3553613942128
 10
149.6285309919938
 20
-121.3553613942128
 10
149.0870481091016
 20
-120.9128604109766
 10
149.0870481091016
 20
-120.9128604109766
 10
143.9609182818241
 20
-116.7243994473989
 10
143.9609182818241
 20
-116.7243994473989
 10
143.0873281941499
 20
-116.0106833220884
 10
143.7059812159156
 20
-114.7903443738245
 10
144.9413063295371
 20
-114.7903443738245
 97
        0
 97
        0
 92
        1
 93
        1
 72
     4
 94
        3
 73
     0
 74
     1
 95
       23
 96
       19
 40
0.0
 40
0.0
 40
0.0
 40
0.0
 40
1.0
 40
1.0
 40
1.0
 40
2.0
 40
2.0
 40
2.0
 40
3.0
 40
3.0
 40
3.0
 40
4.0
 40
4.0
 40
4.0
 40
5.0
 40
5.0
 40
5.0
 40
6.0
 40
6.0
 40
6.0
 40
6.0
 10
142.2145993803509
 20
-119.9031675197909
 10
142.2145993803509
 20
-119.9031675197909
 10
147.3408583987066
 20
-124.0916930789128
 10
147.3408583987066
 20
-124.0916930789128
 10
147.8823843452949
 20
-124.5341294666047
 10
147.8823843452949
 20
-125.2514844740221
 10
147.3408583987066
 20
-125.6939208617141
 10
147.3408583987066
 20
-125.6939208617141
 10
142.2145993803509
 20
-129.882381825295
 10
142.2145993803509
 20
-129.882381825295
 10
141.3410954200658
 20
-130.5961410142984
 10
139.8476034635139
 20
-130.0906163155303
 10
139.8476034635139
 20
-129.081246402045
 10
139.8476034635139
 20
-129.081246402045
 10
139.8476034635139
 20
-120.7043029430409
 10
139.8476034635139
 20
-120.7043029430409
 10
139.8476034635139
 20
-119.6949545614005
 10
141.341181547451
 20
-119.1894729263285
 10
142.2145993803509
 20
-119.9031675197909
 97
        0
 97
        0
 92
        1
 93
        1
 72
     4
 94
        3
 73
     0
 74
     1
 95
       23
 96
       19
 40
0.0
 40
0.0
 40
0.0
 40
0.0
 40
1.0
 40
1.0
 40
1.0
 40
2.0
 40
2.0
 40
2.0
 40
3.0
 40
3.0
 40
3.0
 40
4.0
 40
4.0
 40
4.0
 40
5.0
 40
5.0
 40
5.0
 40
6.0
 40
6.0
 40
6.0
 40
6.0
 10
138.5917369680622
 20
-160.6362324577972
 10
138.5917369680622
 20
-159.8078161846727
 10
139.2633152692155
 20
-159.1362163516713
 10
140.09173154234
 20
-159.1362163516713
 10
140.9201478154606
 20
-159.1362163516713
 10
141.5917261166178
 20
-159.8078161846727
 10
141.5917261166178
 20
-160.6362324577972
 10
141.5917261166178
 20
-161.0221477476829
 10
141.5917261166178
 20
-164.2503098765985
 10
141.5917261166178
 20
-164.6362036346401
 10
141.5917261166178
 20
-165.4646199077607
 10
140.9201478154606
 20
-166.1361551452243
 10
140.09173154234
 20
-166.1361551452243
 10
139.2633152692155
 20
-166.1361551452243
 10
138.5917369680622
 20
-165.4646199077607
 10
138.5917369680622
 20
-164.6362036346401
 10
138.5917369680622
 20
-164.2503098765985
 10
138.5917369680622
 20
-161.0221477476829
 10
138.5917369680622
 20
-160.6362324577972
 97
        0
 97
        0
 92
        1
 93
        1
 72
     4
 94
        3
 73
     0
 74
     1
 95
       23
 96
       19
 40
0.0
 40
0.0
 40
0.0
 40
0.0
 40
1.0
 40
1.0
 40
1.0
 40
2.0
 40
2.0
 40
2.0
 40
3.0
 40
3.0
 40
3.0
 40
4.0
 40
4.0
 40
4.0
 40
5.0
 40
5.0
 40
5.0
 40
6.0
 40
6.0
 40
6.0
 40
6.0
 10
138.5677074270507
 20
-144.6951081602943
 10
138.5677074270507
 20
-144.3091928704053
 10
138.5677074270507
 20
-141.081052273341
 10
138.5677074270507
 20
-140.695136983452
 10
138.5677074270507
 20
-139.8666776466353
 10
139.2392426645149
 20
-139.1951424091743
 10
140.0677020013284
 20
-139.1951424091743
 10
140.8961182744497
 20
-139.1951424091743
 10
141.5676965756062
 20
-139.8666776466353
 10
141.5676965756062
 20
-140.695136983452
 10
141.5676965756062
 20
-141.081052273341
 10
141.5676965756062
 20
-144.3091928704053
 10
141.5676965756062
 20
-144.6951081602943
 10
141.5676965756062
 20
-145.5235244334156
 10
140.8961182744497
 20
-146.1951027345721
 10
140.0677020013284
 20
-146.1951027345721
 10
139.2392426645149
 20
-146.1951027345721
 10
138.5677074270507
 20
-145.5235244334156
 10
138.5677074270507
 20
-144.6951081602943
 97
        0
 97
        0
 92
        1
 93
        1
 72
     4
 94
        3
 73
     0
 74
     1
 95
       17
 96
       13
 40
0.0
 40
0.0
 40
0.0
 40
0.0
 40
1.0
 40
1.0
 40
1.0
 40
2.0
 40
2.0
 40
2.0
 40
3.0
 40
3.0
 40
3.0
 40
4.0
 40
4.0
 40
4.0
 40
4.0
 10
139.5023618321989
 20
-114.6205011664017
 10
140.3308211690163
 20
-114.6205011664017
 10
141.0023564064767
 20
-115.2921009994063
 10
141.0023564064767
 20
-116.1205172725276
 10
141.0023564064767
 20
-116.9489335456482
 10
140.3308211690163
 20
-117.6205118468053
 10
139.5023618321989
 20
-117.6205118468053
 10
138.6739886227706
 20
-117.6205118468053
 10
138.0023672579212
 20
-116.9489335456482
 10
138.0023672579212
 20
-116.1205172725276
 10
138.0023672579212
 20
-115.2921009994063
 10
138.6739886227706
 20
-114.6205011664017
 10
139.5023618321989
 20
-114.6205011664017
 97
        0
 97
        0
 92
        1
 93
        1
 72
     4
 94
        3
 73
     0
 74
     1
 95
       17
 96
       13
 40
0.0
 40
0.0
 40
0.0
 40
0.0
 40
1.0
 40
1.0
 40
1.0
 40
2.0
 40
2.0
 40
2.0
 40
3.0
 40
3.0
 40
3.0
 40
4.0
 40
4.0
 40
4.0
 40
4.0
 10
139.4047795025812
 20
-186.7928184837016
 10
138.5764062931528
 20
-186.7928184837016
 10
137.9047849283034
 20
-186.1212401825444
 10
137.9047849283034
 20
-185.2928239094238
 10
137.9047849283034
 20
-184.4644506999955
 10
138.5764062931528
 20
-183.7928293351461
 10
139.4047795025812
 20
-183.7928293351461
 10
140.2332388393947
 20
-183.7928293351461
 10
140.904774076859
 20
-184.4644506999955
 10
140.904774076859
 20
-185.2928239094238
 10
140.904774076859
 20
-186.1212401825444
 10
140.2332388393947
 20
-186.7928184837016
 10
139.4047795025812
 20
-186.7928184837016
 97
        0
 97
        0
 92
        1
 93
        1
 72
     4
 94
        3
 73
     0
 74
     1
 95
       23
 96
       19
 40
0.0
 40
0.0
 40
0.0
 40
0.0
 40
1.0
 40
1.0
 40
1.0
 40
2.0
 40
2.0
 40
2.0
 40
3.0
 40
3.0
 40
3.0
 40
4.0
 40
4.0
 40
4.0
 40
5.0
 40
5.0
 40
5.0
 40
6.0
 40
6.0
 40
6.0
 40
6.0
 10
139.8476034635139
 20
-180.7865744191754
 10
139.8476034635139
 20
-180.7865744191754
 10
139.8476034635139
 20
-172.4096524920162
 10
139.8476034635139
 20
-172.4096524920162
 10
139.8476034635139
 20
-171.4003256422238
 10
141.341181547451
 20
-170.8948440071518
 10
142.2145993803509
 20
-171.6085601324629
 10
142.2145993803509
 20
-171.6085601324629
 10
147.3408583987066
 20
-175.7969995641958
 10
147.3408583987066
 20
-175.7969995641958
 10
147.8823843452949
 20
-176.23947901558
 10
147.8823843452949
 20
-176.9568124911493
 10
147.3408583987066
 20
-177.3992919425374
 10
147.3408583987066
 20
-177.3992919425374
 10
142.2145993803509
 20
-181.5877313742702
 10
142.2145993803509
 20
-181.5877313742702
 10
141.3410954200658
 20
-182.3015336269659
 10
139.8476034635139
 20
-181.7960089282017
 10
139.8476034635139
 20
-180.7865744191754
 97
        0
 97
        0
 92
        1
 93
        1
 72
     4
 94
        3
 73
     0
 74
     1
 95
       23
 96
       19
 40
0.0
 40
0.0
 40
0.0
 40
0.0
 40
1.0
 40
1.0
 40
1.0
 40
2.0
 40
2.0
 40
2.0
 40
3.0
 40
3.0
 40
3.0
 40
4.0
 40
4.0
 40
4.0
 40
5.0
 40
5.0
 40
5.0
 40
6.0
 40
6.0
 40
6.0
 40
6.0
 10
155.1936521114812
 20
-186.7006406476231
 10
155.1936521114812
 20
-186.7006406476231
 10
144.9413063295371
 20
-186.7006406476231
 10
144.9413063295371
 20
-186.7006406476231
 10
143.7059812159156
 20
-186.7006406476231
 10
143.0873281941499
 20
-185.4802801675137
 10
143.960832154435
 20
-184.7665640422038
 10
143.960832154435
 20
-184.7665640422038
 10
149.0870481091016
 20
-180.5781246104697
 10
149.0870481091016
 20
-180.5781246104697
 10
149.6285309919938
 20
-180.1356451590855
 10
150.5064274490245
 20
-180.1356451590855
 10
151.0479533956097
 20
-180.5781246104697
 10
151.0479533956097
 20
-180.5781246104697
 10
156.1741262865833
 20
-184.7665640422038
 10
156.1741262865833
 20
-184.7665640422038
 10
157.0477163742536
 20
-185.4802801675137
 10
156.4290633524918
 20
-186.7006406476231
 10
155.1936521114812
 20
-186.7006406476231
 97
        0
 97
        0
 92
        1
 93
        1
 72
     4
 94
        3
 73
     0
 74
     1
 95
       23
 96
       19
 40
0.0
 40
0.0
 40
0.0
 40
0.0
 40
1.0
 40
1.0
 40
1.0
 40
2.0
 40
2.0
 40
2.0
 40
3.0
 40
3.0
 40
3.0
 40
4.0
 40
4.0
 40
4.0
 40
5.0
 40
5.0
 40
5.0
 40
6.0
 40
6.0
 40
6.0
 40
6.0
 10
157.9204451880564
 20
-181.5877313742702
 10
157.9204451880564
 20
-181.5877313742702
 10
152.7941861696969
 20
-177.3992919425374
 10
152.7941861696969
 20
-177.3992919425374
 10
152.2526602231086
 20
-176.9568124911493
 10
152.2526602231086
 20
-176.23947901558
 10
152.7941861696969
 20
-175.7970856915816
 10
152.7941861696969
 20
-175.7970856915816
 10
157.9204451880564
 20
-171.6085601324629
 10
157.9204451880564
 20
-171.6085601324629
 10
158.7939491483415
 20
-170.8948440071518
 10
160.2874411048896
 20
-171.4003256422238
 10
160.2874411048896
 20
-172.4096524920162
 10
160.2874411048896
 20
-172.4096524920162
 10
160.2874411048896
 20
-180.7866820784093
 10
160.2874411048896
 20
-180.7866820784093
 10
160.2874411048896
 20
-181.7960089282017
 10
158.7938630209524
 20
-182.3015336269659
 10
157.9204451880564
 20
-181.5877313742702
 97
        0
 97
        0
 92
        1
 93
        1
 72
     4
 94
        3
 73
     0
 74
     1
 95
       17
 96
       13
 40
0.0
 40
0.0
 40
0.0
 40
0.0
 40
1.0
 40
1.0
 40
1.0
 40
2.0
 40
2.0
 40
2.0
 40
3.0
 40
3.0
 40
3.0
 40
4.0
 40
4.0
 40
4.0
 40
4.0
 10
160.7301789384371
 20
-186.7928184837016
 10
159.9018057290088
 20
-186.7928184837016
 10
159.2301843641594
 20
-186.1212401825444
 10
159.2301843641594
 20
-185.2928239094238
 10
159.2301843641594
 20
-184.4644506999955
 10
159.9018057290088
 20
-183.7928293351461
 10
160.7301789384371
 20
-183.7928293351461
 10
161.5586382752545
 20
-183.7928293351461
 10
162.2301735127149
 20
-184.4644506999955
 10
162.2301735127149
 20
-185.2928239094238
 10
162.2301735127149
 20
-186.1212401825444
 10
161.5586382752545
 20
-186.7928184837016
 10
160.7301789384371
 20
-186.7928184837016
 97
        0
 97
        0
 92
        1
 93
        1
 72
     4
 94
        3
 73
     0
 74
     1
 95
       17
 96
       13
 40
0.0
 40
0.0
 40
0.0
 40
0.0
 40
1.0
 40
1.0
 40
1.0
 40
2.0
 40
2.0
 40
2.0
 40
3.0
 40
3.0
 40
3.0
 40
4.0
 40
4.0
 40
4.0
 40
4.0
 10
160.7301789384371
 20
-117.5974297070542
 10
159.9018057290088
 20
-117.5974297070542
 10
159.2301843641594
 20
-116.925851405897
 10
159.2301843641594
 20
-116.0974351327764
 10
159.2301843641594
 20
-115.2690188596551
 10
159.9018057290088
 20
-114.5974190266505
 10
160.7301789384371
 20
-114.5974190266505
 10
161.5586382752545
 20
-114.5974190266505
 10
162.2301735127149
 20
-115.2690188596551
 10
162.2301735127149
 20
-116.0974351327764
 10
162.2301735127149
 20
-116.925851405897
 10
161.5586382752545
 20
-117.5974297070542
 10
160.7301789384371
 20
-117.5974297070542
 97
        0
 97
        0
 92
        1
 93
        1
 72
     4
 94
        3
 73
     0
 74
     1
 95
       17
 96
       13
 40
0.0
 40
0.0
 40
0.0
 40
0.0
 40
1.0
 40
1.0
 40
1.0
 40
2.0
 40
2.0
 40
2.0
 40
3.0
 40
3.0
 40
3.0
 40
4.0
 40
4.0
 40
4.0
 40
4.0
 10
193.5027693979108
 20
-188.2113365497532
 10
192.9559466170126
 20
-188.2891957077199
 10
192.44960370807
 20
-187.9090294209225
 10
192.3718306774885
 20
-187.3622497037198
 10
192.2939715195219
 20
-186.8154699865146
 10
192.6741378063192
 20
-186.3091270775725
 10
193.2209605872174
 20
-186.2313109832982
 10
193.7676972407265
 20
-186.1534948890238
 10
194.2740401496692
 20
-186.5336611758211
 10
194.3518131802506
 20
-187.0803978293303
 10
194.4296723382173
 20
-187.6272206102291
 10
194.04950605142
 20
-188.1335635191711
 10
193.5027693979108
 20
-188.2113365497532
 97
        0
 97
        0
 92
        1
 93
        1
 72
     4
 94
        3
 73
     0
 74
     1
 95
       17
 96
       13
 40
0.0
 40
0.0
 40
0.0
 40
0.0
 40
1.0
 40
1.0
 40
1.0
 40
2.0
 40
2.0
 40
2.0
 40
3.0
 40
3.0
 40
3.0
 40
4.0
 40
4.0
 40
4.0
 40
4.0
 10
202.1310971681042
 20
-184.9631282714854
 10
202.6779199490025
 20
-184.8852691135188
 10
203.1841767305599
 20
-185.2654354003161
 10
203.2620358885266
 20
-185.8122151175175
 10
203.3398950464932
 20
-186.3589948347189
 10
202.9597287596959
 20
-186.8653377436661
 10
202.4129921061867
 20
-186.9431107742431
 10
201.8661693252886
 20
-187.0209699322097
 10
201.3598264163459
 20
-186.6408036454124
 10
201.2819672583792
 20
-186.094023928211
 10
201.2041942277978
 20
-185.5472442110095
 10
201.5843605145951
 20
-185.0409013020624
 10
202.1310971681042
 20
-184.9631282714854
 97
        0
 97
        0
 92
        1
 93
        1
 72
     4
 94
        3
 73
     0
 74
     1
 95
       17
 96
       13
 40
0.0
 40
0.0
 40
0.0
 40
0.0
 40
1.0
 40
1.0
 40
1.0
 40
2.0
 40
2.0
 40
2.0
 40
3.0
 40
3.0
 40
3.0
 40
4.0
 40
4.0
 40
4.0
 40
4.0
 10
197.041915989908
 20
-181.1420867414051
 10
197.5886526434171
 20
-181.0643137108282
 10
198.0949955523598
 20
-181.4444369339319
 10
198.1727685829412
 20
-181.9912166511346
 10
198.2506277409079
 20
-182.5379963683361
 10
197.8704614541106
 20
-183.0443392772819
 10
197.3237248006014
 20
-183.1221553715525
 10
196.7769020197032
 20
-183.1999714658268
 10
196.2705591107606
 20
-182.8198482427218
 10
196.1927860801791
 20
-182.2730254618281
 10
196.1149269222125
 20
-181.7262888083189
 10
196.4950932090098
 20
-181.2199458993718
 10
197.041915989908
 20
-181.1420867414051
 97
        0
 97
        0
 92
        1
 93
        1
 72
     4
 94
        3
 73
     0
 74
     1
 95
       17
 96
       13
 40
0.0
 40
0.0
 40
0.0
 40
0.0
 40
1.0
 40
1.0
 40
1.0
 40
2.0
 40
2.0
 40
2.0
 40
3.0
 40
3.0
 40
3.0
 40
4.0
 40
4.0
 40
4.0
 40
4.0
 10
198.5919505761071
 20
-192.0323780798284
 10
198.0451277952127
 20
-192.1101511104105
 10
197.5387848862662
 20
-191.7300278873054
 10
197.4610118556886
 20
-191.183248170104
 10
197.383152697722
 20
-190.6364684529013
 10
197.7633189845193
 20
-190.1301255439554
 10
198.3100556380284
 20
-190.052309449681
 10
198.8568784189228
 20
-189.9744933554105
 10
199.3632213278693
 20
-190.3546165785117
 10
199.441080485836
 20
-190.9014393594105
 10
199.5188535164136
 20
-191.4481760129197
 10
199.1386872296162
 20
-191.9545189218617
 10
198.5919505761071
 20
-192.0323780798284
 97
        0
 97
        0
 92
        1
 93
        1
 72
     4
 94
        3
 73
     0
 74
     1
 95
       17
 96
       13
 40
0.0
 40
0.0
 40
0.0
 40
0.0
 40
1.0
 40
1.0
 40
1.0
 40
2.0
 40
2.0
 40
2.0
 40
3.0
 40
3.0
 40
3.0
 40
4.0
 40
4.0
 40
4.0
 40
4.0
 10
199.8161652567906
 20
-188.0882605135401
 10
198.9871891556543
 20
-189.1924136165627
 10
197.4200152194142
 20
-189.4154404855403
 10
196.3158621163916
 20
-188.5864643844034
 10
195.211709013369
 20
-187.7574452195716
 10
194.9887252080843
 20
-186.190357410716
 10
195.8177013092245
 20
-185.0862043076934
 10
196.6466774103608
 20
-183.9820512046708
 10
198.2137652192157
 20
-183.7589812720009
 10
199.3179183222383
 20
-184.588000436834
 10
200.4220714252609
 20
-185.4170196016671
 10
200.6451413579308
 20
-186.9841074105175
 10
199.8161652567906
 20
-188.0882605135401
 97
        0
 97
        0
 92
        1
 93
        1
 72
     4
 94
        3
 73
     0
 74
     1
 95
       17
 96
       13
 40
0.0
 40
0.0
 40
0.0
 40
0.0
 40
1.0
 40
1.0
 40
1.0
 40
2.0
 40
2.0
 40
2.0
 40
3.0
 40
3.0
 40
3.0
 40
4.0
 40
4.0
 40
4.0
 40
4.0
 10
203.4483866089316
 20
-192.14212040435
 10
202.6283939422758
 20
-192.2588285603537
 10
201.8689835945655
 20
-191.6886572259807
 10
201.7522108518659
 20
-190.868599972631
 10
201.6355026958589
 20
-190.048575012629
 10
202.2056740302345
 20
-189.2891969582636
 10
203.0257312835855
 20
-189.1724565089123
 10
203.8457885369332
 20
-189.0557160595596
 10
204.6051988846435
 20
-189.6258873939365
 10
204.7219070406505
 20
-190.4459446472823
 10
204.8386151966549
 20
-191.266001900632
 10
204.2684438622793
 20
-192.0254122483423
 10
203.4483866089316
 20
-192.14212040435
 97
        0
 97
        0
 75
     2
 76
     1
 98
        0
  0
ENDSEC
  0
SECTION
  2
OBJECTS
  0
DICTIONARY
  5
C
330
0
100
AcDbDictionary
281
     1
  3
ACAD_GROUP
350
D
  3
ACAD_LAYOUT
350
1A
  3
ACAD_MATERIAL
350
3B
  3
ACAD_MLEADERSTYLE
350
70
  3
ACAD_MLINESTYLE
350
17
  3
ACAD_PLOTSETTINGS
350
19
  3
ACAD_PLOTSTYLENAME
350
E
  3
ACAD_TABLESTYLE
350
6F
  3
ACAD_VISUALSTYLE
350
2A
  0
SUN
  5
3F
330
29
100
AcDbSun
 90
        1
290
     0
 63
     7
421
 16777215
 40
1.0
291
     1
 91
  2455826
 92
 54000000
292
     0
 70
     2
 71
   256
280
     1
  0
DICTIONARY
  5
D
102
{ACAD_REACTORS
330
C
102
}
330
C
100
AcDbDictionary
281
     1
  0
DICTIONARY
  5
1A
102
{ACAD_REACTORS
330
C
102
}
330
C
100
AcDbDictionary
281
     1
  3
Layout1
350
1E
  3
Layout2
350
26
  3
Model
350
22
  0
DICTIONARY
  5
3B
102
{ACAD_REACTORS
330
C
102
}
330
C
100
AcDbDictionary
281
     1
  3
ByBlock
350
3D
  3
ByLayer
350
3C
  3
Global
350
3E
  0
DICTIONARY
  5
70
102
{ACAD_REACTORS
330
C
102
}
330
C
100
AcDbDictionary
281
     1
  0
DICTIONARY
  5
17
102
{ACAD_REACTORS
330
C
102
}
330
C
100
AcDbDictionary
281
     1
  3
Standard
350
18
  0
DICTIONARY
  5
19
102
{ACAD_REACTORS
330
C
102
}
330
C
100
AcDbDictionary
281
     1
  0
ACDBDICTIONARYWDFLT
  5
E
102
{ACAD_REACTORS
330
C
102
}
330
C
100
AcDbDictionary
281
     1
  3
Normal
350
F
100
AcDbDictionaryWithDefault
340
F
  0
DICTIONARY
  5
6F
102
{ACAD_REACTORS
330
C
102
}
330
C
100
AcDbDictionary
281
     1
  0
DICTIONARY
  5
2A
102
{ACAD_REACTORS
330
C
102
}
330
C
100
AcDbDictionary
281
     1
  3
2dWireframe
350
2F
  3
3D Hidden
350
31
  3
3dWireframe
350
30
  3
Basic
350
32
  3
Brighten
350
36
  3
ColorChange
350
3A
  3
Conceptual
350
34
  3
Dim
350
35
  3
Facepattern
350
39
  3
Flat
350
2B
  3
FlatWithEdges
350
2C
  3
Gouraud
350
2D
  3
GouraudWithEdges
350
2E
  3
Linepattern
350
38
  3
Realistic
350
33
  3
Thicken
350
37
  0
LAYOUT
  5
1E
102
{ACAD_REACTORS
330
1A
102
}
330
1A
100
AcDbPlotSettings
  1

  2
none_device
  4

  6

 40
0.0
 41
0.0
 42
0.0
 43
0.0
 44
0.0
 45
0.0
 46
0.0
 47
0.0
 48
0.0
 49
0.0
140
0.0
141
0.0
142
1.0
143
1.0
 70
   688
 72
     0
 73
     0
 74
     5
  7

 75
    16
 76
     0
 77
     2
 78
   300
147
1.0
148
0.0
149
0.0
100
AcDbLayout
  1
Layout1
 70
     1
 71
     1
 10
0.0
 20
0.0
 11
12.0
 21
9.0
 12
0.0
 22
0.0
 32
0.0
 14
1.000000000000000E+20
 24
1.000000000000000E+20
 34
1.000000000000000E+20
 15
-1.000000000000000E+20
 25
-1.000000000000000E+20
 35
-1.000000000000000E+20
146
0.0
 13
0.0
 23
0.0
 33
0.0
 16
1.0
 26
0.0
 36
0.0
 17
0.0
 27
1.0
 37
0.0
 76
     0
330
1B
  0
LAYOUT
  5
26
102
{ACAD_REACTORS
330
1A
102
}
330
1A
100
AcDbPlotSettings
  1

  2
none_device
  4

  6

 40
0.0
 41
0.0
 42
0.0
 43
0.0
 44
0.0
 45
0.0
 46
0.0
 47
0.0
 48
0.0
 49
0.0
140
0.0
141
0.0
142
1.0
143
1.0
 70
   688
 72
     0
 73
     0
 74
     5
  7

 75
    16
 76
     0
 77
     2
 78
   300
147
1.0
148
0.0
149
0.0
100
AcDbLayout
  1
Layout2
 70
     1
 71
     2
 10
0.0
 20
0.0
 11
0.0
 21
0.0
 12
0.0
 22
0.0
 32
0.0
 14
0.0
 24
0.0
 34
0.0
 15
0.0
 25
0.0
 35
0.0
146
0.0
 13
0.0
 23
0.0
 33
0.0
 16
1.0
 26
0.0
 36
0.0
 17
0.0
 27
1.0
 37
0.0
 76
     0
330
23
  0
LAYOUT
  5
22
102
{ACAD_REACTORS
330
1A
102
}
330
1A
100
AcDbPlotSettings
  1

  2
none_device
  4

  6

 40
0.0
 41
0.0
 42
0.0
 43
0.0
 44
0.0
 45
0.0
 46
0.0
 47
0.0
 48
0.0
 49
0.0
140
0.0
141
0.0
142
1.0
143
1.0
 70
  1712
 72
     0
 73
     0
 74
     0
  7

 75
     0
 76
     0
 77
     2
 78
   300
147
1.0
148
0.0
149
0.0
100
AcDbLayout
  1
Model
 70
     1
 71
     0
 10
0.0
 20
0.0
 11
12.0
 21
9.0
 12
0.0
 22
0.0
 32
0.0
 14
1.000000000000000E+20
 24
1.000000000000000E+20
 34
1.000000000000000E+20
 15
-1.000000000000000E+20
 25
-1.000000000000000E+20
 35
-1.000000000000000E+20
146
0.0
 13
0.0
 23
0.0
 33
0.0
 16
1.0
 26
0.0
 36
0.0
 17
0.0
 27
1.0
 37
0.0
 76
     0
330
1F
331
29
  0
MATERIAL
  5
3D
102
{ACAD_REACTORS
330
3B
102
}
330
3B
100
AcDbMaterial
  1
ByBlock
 72
     1
 94
      127
  0
MATERIAL
  5
3C
102
{ACAD_REACTORS
330
3B
102
}
330
3B
100
AcDbMaterial
  1
ByLayer
 72
     1
 94
      127
  0
MATERIAL
  5
3E
102
{ACAD_REACTORS
330
3B
102
}
330
3B
100
AcDbMaterial
  1
Global
 72
     1
 94
      127
  0
MLINESTYLE
  5
18
102
{ACAD_REACTORS
330
17
102
}
330
17
100
AcDbMlineStyle
  2
Standard
 70
     0
  3

 62
   256
 51
90.0
 52
90.0
 71
     2
 49
0.5
 62
   256
  6
BYLAYER
 49
-0.5
 62
   256
  6
BYLAYER
  0
ACDBPLACEHOLDER
  5
F
102
{ACAD_REACTORS
330
E
102
}
330
E
  0
VISUALSTYLE
  5
2F
102
{ACAD_REACTORS
330
2A
102
}
330
2A
100
AcDbVisualStyle
  2
2dWireframe
 70
     4
177
     2
291
     0
 71
     0
176
     1
 72
     2
176
     1
 73
     0
176
     1
 90
        0
176
     1
 40
-0.6
176
     1
 41
-30.0
176
     1
 62
     5
 63
     7
421
 16777215
176
     1
 74
     1
176
     1
 91
        4
176
     1
 64
     7
176
     1
 65
   257
176
     1
 75
     1
176
     1
175
     1
176
     1
 42
1.0
176
     1
 92
        0
176
     1
 66
   257
176
     1
 43
1.0
176
     1
 76
     1
176
     1
 77
     6
176
     1
 78
     2
176
     1
 67
     7
176
     1
 79
     5
176
     1
170
     0
176
     1
171
     0
176
     1
290
     0
176
     1
 93
        1
176
     1
 44
0.0
176
     1
173
     0
176
     1
  0
VISUALSTYLE
  5
31
102
{ACAD_REACTORS
330
2A
102
}
330
2A
100
AcDbVisualStyle
  2
3D Hidden
 70
     6
177
     2
291
     0
 71
     1
176
     1
 72
     2
176
     1
 73
     2
176
     1
 90
        0
176
     1
 40
-0.6
176
     1
 41
-30.0
176
     1
 62
     5
 63
     7
421
 16777215
176
     1
 74
     2
176
     1
 91
        2
176
     1
 64
     7
176
     1
 65
   257
176
     1
 75
     2
176
     1
175
     1
176
     1
 42
40.0
176
     1
 92
        0
176
     1
 66
   257
176
     1
 43
1.0
176
     1
 76
     1
176
     1
 77
     6
176
     1
 78
     2
176
     1
 67
     7
176
     1
 79
     3
176
     1
170
     0
176
     1
171
     0
176
     1
290
     0
176
     1
 93
        1
176
     1
 44
0.0
176
     1
173
     0
176
     1
  0
VISUALSTYLE
  5
30
102
{ACAD_REACTORS
330
2A
102
}
330
2A
100
AcDbVisualStyle
  2
3dWireframe
 70
     5
177
     2
291
     0
 71
     0
176
     1
 72
     2
176
     1
 73
     0
176
     1
 90
        0
176
     1
 40
-0.6
176
     1
 41
-30.0
176
     1
 62
     5
 63
     7
421
 16777215
176
     1
 74
     1
176
     1
 91
        4
176
     1
 64
     7
176
     1
 65
   257
176
     1
 75
     1
176
     1
175
     1
176
     1
 42
1.0
176
     1
 92
        0
176
     1
 66
   257
176
     1
 43
1.0
176
     1
 76
     1
176
     1
 77
     6
176
     1
 78
     2
176
     1
 67
     7
176
     1
 79
     5
176
     1
170
     0
176
     1
171
     0
176
     1
290
     0
176
     1
 93
        1
176
     1
 44
0.0
176
     1
173
     0
176
     1
  0
VISUALSTYLE
  5
32
102
{ACAD_REACTORS
330
2A
102
}
330
2A
100
AcDbVisualStyle
  2
Basic
 70
     7
177
     2
291
     1
 71
     1
176
     1
 72
     0
176
     1
 73
     1
176
     1
 90
        0
176
     1
 40
-0.6
176
     1
 41
-30.0
176
     1
 62
     5
 63
     7
421
 16777215
176
     1
 74
     0
176
     1
 91
        4
176
     1
 64
     7
176
     1
 65
   257
176
     1
 75
     1
176
     1
175
     1
176
     1
 42
1.0
176
     1
 92
        8
176
     1
 66
     7
176
     1
 43
1.0
176
     1
 76
     1
176
     1
 77
     6
176
     1
 78
     2
176
     1
 67
     7
176
     1
 79
     5
176
     1
170
     0
176
     1
171
     0
176
     1
290
     0
176
     1
 93
        1
176
     1
 44
0.0
176
     1
173
     0
176
     1
  0
VISUALSTYLE
  5
36
102
{ACAD_REACTORS
330
2A
102
}
330
2A
100
AcDbVisualStyle
  2
Brighten
 70
    12
177
     2
291
     1
 71
     2
176
     1
 72
     2
176
     1
 73
     0
176
     1
 90
        0
176
     1
 40
-0.6
176
     1
 41
-30.0
176
     1
 62
     5
 63
     7
421
 16777215
176
     1
 74
     1
176
     1
 91
        4
176
     1
 64
     7
176
     1
 65
   257
176
     1
 75
     1
176
     1
175
     1
176
     1
 42
1.0
176
     1
 92
        8
176
     1
 66
     7
176
     1
 43
1.0
176
     1
 76
     1
176
     1
 77
     6
176
     1
 78
     2
176
     1
 67
     7
176
     1
 79
     5
176
     1
170
     0
176
     1
171
     0
176
     1
290
     0
176
     1
 93
        1
176
     1
 44
50.0
176
     1
173
     0
176
     1
  0
VISUALSTYLE
  5
3A
102
{ACAD_REACTORS
330
2A
102
}
330
2A
100
AcDbVisualStyle
  2
ColorChange
 70
    16
177
     2
291
     1
 71
     2
176
     1
 72
     2
176
     1
 73
     3
176
     1
 90
        0
176
     1
 40
-0.6
176
     1
 41
-30.0
176
     1
 62
     5
 63
     8
421
  8421504
176
     1
 74
     1
176
     1
 91
        4
176
     1
 64
     7
176
     1
 65
   257
176
     1
 75
     1
176
     1
175
     1
176
     1
 42
1.0
176
     1
 92
        8
176
     1
 66
     8
424
  8421504
176
     1
 43
1.0
176
     1
 76
     1
176
     1
 77
     6
176
     1
 78
     2
176
     1
 67
     7
176
     1
 79
     5
176
     1
170
     0
176
     1
171
     0
176
     1
290
     0
176
     1
 93
        1
176
     1
 44
0.0
176
     1
173
     0
176
     1
  0
VISUALSTYLE
  5
34
102
{ACAD_REACTORS
330
2A
102
}
330
2A
100
AcDbVisualStyle
  2
Conceptual
 70
     9
177
     2
291
     0
 71
     3
176
     1
 72
     2
176
     1
 73
     0
176
     1
 90
        0
176
     1
 40
-0.6
176
     1
 41
-30.0
176
     1
 62
     5
 63
     7
421
 16777215
176
     1
 74
     2
176
     1
 91
        2
176
     1
 64
     7
176
     1
 65
   257
176
     1
 75
     1
176
     1
175
     1
176
     1
 42
40.0
176
     1
 92
        8
176
     1
 66
     7
176
     1
 43
1.0
176
     1
 76
     1
176
     1
 77
     6
176
     1
 78
     2
176
     1
 67
     7
176
     1
 79
     3
176
     1
170
     0
176
     1
171
     0
176
     1
290
     0
176
     1
 93
        1
176
     1
 44
0.0
176
     1
173
     0
176
     1
  0
VISUALSTYLE
  5
35
102
{ACAD_REACTORS
330
2A
102
}
330
2A
100
AcDbVisualStyle
  2
Dim
 70
    11
177
     2
291
     1
 71
     2
176
     1
 72
     2
176
     1
 73
     0
176
     1
 90
        0
176
     1
 40
-0.6
176
     1
 41
-30.0
176
     1
 62
     5
 63
     7
421
 16777215
176
     1
 74
     1
176
     1
 91
        4
176
     1
 64
     7
176
     1
 65
   257
176
     1
 75
     1
176
     1
175
     1
176
     1
 42
1.0
176
     1
 92
        8
176
     1
 66
     7
176
     1
 43
1.0
176
     1
 76
     1
176
     1
 77
     6
176
     1
 78
     2
176
     1
 67
     7
176
     1
 79
     5
176
     1
170
     0
176
     1
171
     0
176
     1
290
     0
176
     1
 93
        1
176
     1
 44
-50.0
176
     1
173
     0
176
     1
  0
VISUALSTYLE
  5
39
102
{ACAD_REACTORS
330
2A
102
}
330
2A
100
AcDbVisualStyle
  2
Facepattern
 70
    15
177
     2
291
     1
 71
     2
176
     1
 72
     2
176
     1
 73
     0
176
     1
 90
        0
176
     1
 40
-0.6
176
     1
 41
-30.0
176
     1
 62
     5
 63
     7
421
 16777215
176
     1
 74
     1
176
     1
 91
        4
176
     1
 64
     7
176
     1
 65
   257
176
     1
 75
     1
176
     1
175
     1
176
     1
 42
1.0
176
     1
 92
        8
176
     1
 66
     7
176
     1
 43
1.0
176
     1
 76
     1
176
     1
 77
     6
176
     1
 78
     2
176
     1
 67
     7
176
     1
 79
     5
176
     1
170
     0
176
     1
171
     0
176
     1
290
     0
176
     1
 93
        1
176
     1
 44
0.0
176
     1
173
     0
176
     1
  0
VISUALSTYLE
  5
2B
102
{ACAD_REACTORS
330
2A
102
}
330
2A
100
AcDbVisualStyle
  2
Flat
 70
     0
177
     2
291
     1
 71
     2
176
     1
 72
     1
176
     1
 73
     1
176
     1
 90
        2
176
     1
 40
-0.6
176
     1
 41
30.0
176
     1
 62
     5
 63
     7
421
 16777215
176
     1
 74
     0
176
     1
 91
        4
176
     1
 64
     7
176
     1
 65
   257
176
     1
 75
     1
176
     1
175
     1
176
     1
 42
1.0
176
     1
 92
        8
176
     1
 66
     7
176
     1
 43
1.0
176
     1
 76
     1
176
     1
 77
     6
176
     1
 78
     2
176
     1
 67
     7
176
     1
 79
     5
176
     1
170
     0
176
     1
171
     0
176
     1
290
     0
176
     1
 93
       13
176
     1
 44
0.0
176
     1
173
     0
176
     1
  0
VISUALSTYLE
  5
2C
102
{ACAD_REACTORS
330
2A
102
}
330
2A
100
AcDbVisualStyle
  2
FlatWithEdges
 70
     1
177
     2
291
     1
 71
     2
176
     1
 72
     1
176
     1
 73
     1
176
     1
 90
        2
176
     1
 40
-0.6
176
     1
 41
30.0
176
     1
 62
     5
 63
     7
421
 16777215
176
     1
 74
     1
176
     1
 91
        4
176
     1
 64
     7
176
     1
 65
   257
176
     1
 75
     1
176
     1
175
     1
176
     1
 42
1.0
176
     1
 92
        0
176
     1
 66
   257
176
     1
 43
1.0
176
     1
 76
     1
176
     1
 77
     6
176
     1
 78
     2
176
     1
 67
     7
176
     1
 79
     5
176
     1
170
     0
176
     1
171
     0
176
     1
290
     0
176
     1
 93
       13
176
     1
 44
0.0
176
     1
173
     0
176
     1
  0
VISUALSTYLE
  5
2D
102
{ACAD_REACTORS
330
2A
102
}
330
2A
100
AcDbVisualStyle
  2
Gouraud
 70
     2
177
     2
291
     1
 71
     2
176
     1
 72
     2
176
     1
 73
     1
176
     1
 90
        2
176
     1
 40
-0.6
176
     1
 41
30.0
176
     1
 62
     5
 63
     7
421
 16777215
176
     1
 74
     0
176
     1
 91
        4
176
     1
 64
     7
176
     1
 65
   257
176
     1
 75
     1
176
     1
175
     1
176
     1
 42
1.0
176
     1
 92
        0
176
     1
 66
     7
176
     1
 43
1.0
176
     1
 76
     1
176
     1
 77
     6
176
     1
 78
     2
176
     1
 67
     7
176
     1
 79
     5
176
     1
170
     0
176
     1
171
     0
176
     1
290
     0
176
     1
 93
       13
176
     1
 44
0.0
176
     1
173
     0
176
     1
  0
VISUALSTYLE
  5
2E
102
{ACAD_REACTORS
330
2A
102
}
330
2A
100
AcDbVisualStyle
  2
GouraudWithEdges
 70
     3
177
     2
291
     1
 71
     2
176
     1
 72
     2
176
     1
 73
     1
176
     1
 90
        2
176
     1
 40
-0.6
176
     1
 41
30.0
176
     1
 62
     5
 63
     7
421
 16777215
176
     1
 74
     1
176
     1
 91
        4
176
     1
 64
     7
176
     1
 65
   257
176
     1
 75
     1
176
     1
175
     1
176
     1
 42
1.0
176
     1
 92
        0
176
     1
 66
   257
176
     1
 43
1.0
176
     1
 76
     1
176
     1
 77
     6
176
     1
 78
     2
176
     1
 67
     7
176
     1
 79
     5
176
     1
170
     0
176
     1
171
     0
176
     1
290
     0
176
     1
 93
       13
176
     1
 44
0.0
176
     1
173
     0
176
     1
  0
VISUALSTYLE
  5
38
102
{ACAD_REACTORS
330
2A
102
}
330
2A
100
AcDbVisualStyle
  2
Linepattern
 70
    14
177
     2
291
     1
 71
     2
176
     1
 72
     2
176
     1
 73
     0
176
     1
 90
        0
176
     1
 40
-0.6
176
     1
 41
-30.0
176
     1
 62
     5
 63
     7
421
 16777215
176
     1
 74
     1
176
     1
 91
        4
176
     1
 64
     7
176
     1
 65
   257
176
     1
 75
     7
176
     1
175
     7
176
     1
 42
1.0
176
     1
 92
        8
176
     1
 66
     7
176
     1
 43
1.0
176
     1
 76
     1
176
     1
 77
     6
176
     1
 78
     2
176
     1
 67
     7
176
     1
 79
     5
176
     1
170
     0
176
     1
171
     0
176
     1
290
     0
176
     1
 93
        1
176
     1
 44
0.0
176
     1
173
     0
176
     1
  0
VISUALSTYLE
  5
33
102
{ACAD_REACTORS
330
2A
102
}
330
2A
100
AcDbVisualStyle
  2
Realistic
 70
     8
177
     2
291
     0
 71
     2
176
     1
 72
     2
176
     1
 73
     0
176
     1
 90
        0
176
     1
 40
-0.6
176
     1
 41
-30.0
176
     1
 62
     5
 63
     7
421
 16777215
176
     1
 74
     1
176
     1
 91
        0
176
     1
 64
     7
176
     1
 65
   257
176
     1
 75
     1
176
     1
175
     1
176
     1
 42
1.0
176
     1
 92
        8
176
     1
 66
     8
424
  7895160
176
     1
 43
1.0
176
     1
 76
     1
176
     1
 77
     6
176
     1
 78
     2
176
     1
 67
     7
176
     1
 79
     5
176
     1
170
     0
176
     1
171
     0
176
     1
290
     0
176
     1
 93
       13
176
     1
 44
0.0
176
     1
173
     0
176
     1
  0
VISUALSTYLE
  5
37
102
{ACAD_REACTORS
330
2A
102
}
330
2A
100
AcDbVisualStyle
  2
Thicken
 70
    13
177
     2
291
     1
 71
     2
176
     1
 72
     2
176
     1
 73
     0
176
     1
 90
        0
176
     1
 40
-0.6
176
     1
 41
-30.0
176
     1
 62
     5
 63
     7
421
 16777215
176
     1
 74
     1
176
     1
 91
        4
176
     1
 64
     7
176
     1
 65
   257
176
     1
 75
     1
176
     1
175
     1
176
     1
 42
1.0
176
     1
 92
       12
176
     1
 66
     7
176
     1
 43
1.0
176
     1
 76
     1
176
     1
 77
     6
176
     1
 78
     2
176
     1
 67
     7
176
     1
 79
     5
176
     1
170
     0
176
     1
171
     0
176
     1
290
     0
176
     1
 93
        1
176
     1
 44
0.0
176
     1
173
     0
176
     1
  0
ENDSEC
  0
EOF
