  0
SECTION
  2
HEADER
  9
$ACADVER
  1
AC1024
  9
$ACADMAINTVER
 70
     6
  9
$DWGCODEPAGE
  3
UNDEFINED
  9
$INSBASE
 10
0.0
 20
0.0
 30
0.0
  9
$EXTMIN
 10
1.000000000000000E+20
 20
1.000000000000000E+20
 30
1.000000000000000E+20
  9
$EXTMAX
 10
-1.000000000000000E+20
 20
-1.000000000000000E+20
 30
-1.000000000000000E+20
  9
$LIMMIN
 10
0.0
 20
0.0
  9
$LIMMAX
 10
12.0
 20
9.0
  9
$ORTHOMODE
 70
     0
  9
$REGENMODE
 70
     1
  9
$FILLMODE
 70
     1
  9
$QTEXTMODE
 70
     0
  9
$MIRRTEXT
 70
     1
  9
$LTSCALE
 40
1.0
  9
$ATTMODE
 70
     1
  9
$TEXTSIZE
 40
0.2
  9
$TRACEWID
 40
0.05
  9
$TEXTSTYLE
  7
Standard
  9
$CLAYER
  8
0
  9
$CELTYPE
  6
ByLayer
  9
$CECOLOR
 62
   256
  9
$CELTSCALE
 40
1.0
  9
$DISPSILH
 70
     0
  9
$DIMSCALE
 40
1.0
  9
$DIMASZ
 40
0.18
  9
$DIMEXO
 40
0.0625
  9
$DIMDLI
 40
0.38
  9
$DIMRND
 40
0.0
  9
$DIMDLE
 40
0.0
  9
$DIMEXE
 40
0.18
  9
$DIMTP
 40
0.0
  9
$DIMTM
 40
0.0
  9
$DIMTXT
 40
0.18
  9
$DIMCEN
 40
0.09
  9
$DIMTSZ
 40
0.0
  9
$DIMTOL
 70
     0
  9
$DIMLIM
 70
     0
  9
$DIMTIH
 70
     1
  9
$DIMTOH
 70
     1
  9
$DIMSE1
 70
     0
  9
$DIMSE2
 70
     0
  9
$DIMTAD
 70
     0
  9
$DIMZIN
 70
     0
  9
$DIMBLK
  1

  9
$DIMASO
 70
     1
  9
$DIMSHO
 70
     1
  9
$DIMPOST
  1

  9
$DIMAPOST
  1

  9
$DIMALT
 70
     0
  9
$DIMALTD
 70
     2
  9
$DIMALTF
 40
25.4
  9
$DIMLFAC
 40
1.0
  9
$DIMTOFL
 70
     0
  9
$DIMTVP
 40
0.0
  9
$DIMTIX
 70
     0
  9
$DIMSOXD
 70
     0
  9
$DIMSAH
 70
     0
  9
$DIMBLK1
  1

  9
$DIMBLK2
  1

  9
$DIMSTYLE
  2
Standard
  9
$DIMCLRD
 70
     0
  9
$DIMCLRE
 70
     0
  9
$DIMCLRT
 70
     0
  9
$DIMTFAC
 40
1.0
  9
$DIMGAP
 40
0.09
  9
$DIMJUST
 70
     0
  9
$DIMSD1
 70
     0
  9
$DIMSD2
 70
     0
  9
$DIMTOLJ
 70
     1
  9
$DIMTZIN
 70
     0
  9
$DIMALTZ
 70
     0
  9
$DIMALTTZ
 70
     0
  9
$DIMUPT
 70
     0
  9
$DIMDEC
 70
     4
  9
$DIMTDEC
 70
     4
  9
$DIMALTU
 70
     2
  9
$DIMALTTD
 70
     2
  9
$DIMTXSTY
  7
Standard
  9
$DIMAUNIT
 70
     0
  9
$DIMADEC
 70
     0
  9
$DIMALTRND
 40
0.0
  9
$DIMAZIN
 70
     0
  9
$DIMDSEP
 70
    46
  9
$DIMATFIT
 70
     3
  9
$DIMFRAC
 70
     0
  9
$DIMLDRBLK
  1

  9
$DIMLUNIT
 70
     2
  9
$DIMLWD
 70
    -2
  9
$DIMLWE
 70
    -2
  9
$DIMTMOVE
 70
     0
  9
$DIMFXL
 40
1.0
  9
$DIMFXLON
 70
     0
  9
$DIMJOGANG
 40
0.7853981633974483
  9
$DIMTFILL
 70
     0
  9
$DIMTFILLCLR
 70
     0
  9
$DIMARCSYM
 70
     0
  9
$DIMLTYPE
  6

  9
$DIMLTEX1
  6

  9
$DIMLTEX2
  6

  9
$DIMTXTDIRECTION
 70
     0
  9
$LUNITS
 70
     2
  9
$LUPREC
 70
     4
  9
$SKETCHINC
 40
0.1
  9
$FILLETRAD
 40
0.5
  9
$AUNITS
 70
     0
  9
$AUPREC
 70
     0
  9
$MENU
  1
.
  9
$ELEVATION
 40
0.0
  9
$PELEVATION
 40
0.0
  9
$THICKNESS
 40
0.0
  9
$LIMCHECK
 70
     0
  9
$CHAMFERA
 40
0.5
  9
$CHAMFERB
 40
0.5
  9
$CHAMFERC
 40
1.0
  9
$CHAMFERD
 40
0.0
  9
$SKPOLY
 70
     0
  9
$TDCREATE
 40
2458133.011770822
  9
$TDUCREATE
 40
2458133.220104167
  9
$TDUPDATE
 40
2458133.011770822
  9
$TDUUPDATE
 40
2458133.220104167
  9
$TDINDWG
 40
0.0000000116
  9
$TDUSRTIMER
 40
0.0000000116
  9
$USRTIMER
 70
     1
  9
$ANGBASE
 50
0.0
  9
$ANGDIR
 70
     0
  9
$PDMODE
 70
     0
  9
$PDSIZE
 40
0.0
  9
$PLINEWID
 40
0.0
  9
$SPLFRAME
 70
     0
  9
$SPLINETYPE
 70
     6
  9
$SPLINESEGS
 70
     8
  9
$HANDSEED
  5
51
  9
$SURFTAB1
 70
     6
  9
$SURFTAB2
 70
     6
  9
$SURFTYPE
 70
     6
  9
$SURFU
 70
     6
  9
$SURFV
 70
     6
  9
$UCSBASE
  2

  9
$UCSNAME
  2

  9
$UCSORG
 10
0.0
 20
0.0
 30
0.0
  9
$UCSXDIR
 10
1.0
 20
0.0
 30
0.0
  9
$UCSYDIR
 10
0.0
 20
1.0
 30
0.0
  9
$UCSORTHOREF
  2

  9
$UCSORTHOVIEW
 70
     0
  9
$UCSORGTOP
 10
0.0
 20
0.0
 30
0.0
  9
$UCSORGBOTTOM
 10
0.0
 20
0.0
 30
0.0
  9
$UCSORGLEFT
 10
0.0
 20
0.0
 30
0.0
  9
$UCSORGRIGHT
 10
0.0
 20
0.0
 30
0.0
  9
$UCSORGFRONT
 10
0.0
 20
0.0
 30
0.0
  9
$UCSORGBACK
 10
0.0
 20
0.0
 30
0.0
  9
$PUCSBASE
  2

  9
$PUCSNAME
  2

  9
$PUCSORG
 10
0.0
 20
0.0
 30
0.0
  9
$PUCSXDIR
 10
1.0
 20
0.0
 30
0.0
  9
$PUCSYDIR
 10
0.0
 20
1.0
 30
0.0
  9
$PUCSORTHOREF
  2

  9
$PUCSORTHOVIEW
 70
     0
  9
$PUCSORGTOP
 10
0.0
 20
0.0
 30
0.0
  9
$PUCSORGBOTTOM
 10
0.0
 20
0.0
 30
0.0
  9
$PUCSORGLEFT
 10
0.0
 20
0.0
 30
0.0
  9
$PUCSORGRIGHT
 10
0.0
 20
0.0
 30
0.0
  9
$PUCSORGFRONT
 10
0.0
 20
0.0
 30
0.0
  9
$PUCSORGBACK
 10
0.0
 20
0.0
 30
0.0
  9
$USERI1
 70
     0
  9
$USERI2
 70
     0
  9
$USERI3
 70
     0
  9
$USERI4
 70
     0
  9
$USERI5
 70
     0
  9
$USERR1
 40
0.0
  9
$USERR2
 40
0.0
  9
$USERR3
 40
0.0
  9
$USERR4
 40
0.0
  9
$USERR5
 40
0.0
  9
$WORLDVIEW
 70
     1
  9
$SHADEDGE
 70
     3
  9
$SHADEDIF
 70
    70
  9
$TILEMODE
 70
     1
  9
$MAXACTVP
 70
    64
  9
$PINSBASE
 10
0.0
 20
0.0
 30
0.0
  9
$PLIMCHECK
 70
     0
  9
$PEXTMIN
 10
1.000000000000000E+20
 20
1.000000000000000E+20
 30
1.000000000000000E+20
  9
$PEXTMAX
 10
-1.000000000000000E+20
 20
-1.000000000000000E+20
 30
-1.000000000000000E+20
  9
$PLIMMIN
 10
0.0
 20
0.0
  9
$PLIMMAX
 10
12.0
 20
9.0
  9
$UNITMODE
 70
     0
  9
$VISRETAIN
 70
     1
  9
$PLINEGEN
 70
     0
  9
$PSLTSCALE
 70
     1
  9
$TREEDEPTH
 70
  3020
  9
$CMLSTYLE
  2
Standard
  9
$CMLJUST
 70
     0
  9
$CMLSCALE
 40
1.0
  9
$PROXYGRAPHICS
 70
     1
  9
$MEASUREMENT
 70
     0
  9
$CELWEIGHT
370
    -1
  9
$ENDCAPS
280
     0
  9
$JOINSTYLE
280
     0
  9
$LWDISPLAY
290
     1
  9
$INSUNITS
 70
     1
  9
$HYPERLINKBASE
  1

  9
$STYLESHEET
  1

  9
$XEDIT
290
     1
  9
$CEPSNTYPE
380
     0
  9
$PSTYLEMODE
290
     1
  9
$FINGERPRINTGUID
  2
{8EAB9048-699F-9561-B41F-6B608433CFC7}
  9
$VERSIONGUID
  2
{FAEB1C32-E019-11D5-929B-00C0DF256EC4}
  9
$EXTNAMES
290
     1
  9
$PSVPSCALE
 40
0.0
  9
$OLESTARTUP
290
     0
  9
$SORTENTS
280
   127
  9
$INDEXCTL
280
     0
  9
$HIDETEXT
280
     1
  9
$XCLIPFRAME
280
     2
  9
$HALOGAP
280
     0
  9
$OBSCOLOR
 70
   257
  9
$OBSLTYPE
280
     0
  9
$INTERSECTIONDISPLAY
280
     0
  9
$INTERSECTIONCOLOR
 70
   257
  9
$DIMASSOC
280
     2
  9
$PROJECTNAME
  1

  9
$CAMERADISPLAY
290
     0
  9
$LENSLENGTH
 40
50.0
  9
$CAMERAHEIGHT
 40
0.0
  9
$STEPSPERSEC
 40
2.0
  9
$STEPSIZE
 40
6.0
  9
$3DDWFPREC
 40
2.0
  9
$PSOLWIDTH
 40
0.25
  9
$PSOLHEIGHT
 40
4.0
  9
$LOFTANG1
 40
1.570796326794897
  9
$LOFTANG2
 40
1.570796326794897
  9
$LOFTMAG1
 40
0.0
  9
$LOFTMAG2
 40
0.0
  9
$LOFTPARAM
 70
     7
  9
$LOFTNORMALS
280
     1
  9
$LATITUDE
 40
37.795
  9
$LONGITUDE
 40
-122.394
  9
$NORTHDIRECTION
 40
0.0
  9
$TIMEZONE
 70
 -8000
  9
$LIGHTGLYPHDISPLAY
280
     1
  9
$TILEMODELIGHTSYNCH
280
     1
  9
$CMATERIAL
347
3C
  9
$SOLIDHIST
280
     1
  9
$SHOWHIST
280
     1
  9
$DWFFRAME
280
     2
  9
$DGNFRAME
280
     2
  9
$REALWORLDSCALE
290
     1
  9
$INTERFERECOLOR
 62
   256
  9
$CSHADOW
280
     0
  9
$SHADOWPLANELOCATION
 40
0.0
  0
ENDSEC
  0
SECTION
  2
CLASSES
  0
CLASS
  1
ACDBDICTIONARYWDFLT
  2
AcDbDictionaryWithDefault
  3
ObjectDBX Classes
 90
        0
 91
        4
280
     0
281
     0
  0
CLASS
  1
VISUALSTYLE
  2
AcDbVisualStyle
  3
ObjectDBX Classes
 90
     4095
 91
        4
280
     0
281
     0
  0
CLASS
  1
MATERIAL
  2
AcDbMaterial
  3
ObjectDBX Classes
 90
     1153
 91
        4
280
     0
281
     0
  0
CLASS
  1
SUN
  2
AcDbSun
  3
SCENEOE
 90
     1024
 91
        4
280
     0
281
     0
  0
ENDSEC
  0
SECTION
  2
TABLES
  0
TABLE
  2
VPORT
  5
8
330
0
100
AcDbSymbolTable
 70
     1
  0
VPORT
  5
29
330
8
100
AcDbSymbolTableRecord
100
AcDbViewportTableRecord
  2
*Active
 70
     0
 10
0.0
 20
0.0
 11
1.0
 21
1.0
 12
0.0
 22
0.0
 13
0.0
 23
0.0
 14
0.5
 24
0.5
 15
0.5
 25
0.5
 16
0.0
 26
0.0
 36
1.0
 17
149.9993471847223
 27
-149.9993471847223
 37
0.0
 40
75.20232851085652
 41
1.0
 42
50.0
 43
0.0
 44
0.0
 50
0.0
 51
0.0
 71
     0
 72
   100
 73
     1
 74
     3
 75
     0
 76
     0
 77
     0
 78
     0
281
     0
 65
     1
110
0.0
120
0.0
130
0.0
111
1.0
121
0.0
131
0.0
112
0.0
122
1.0
132
0.0
 79
     0
146
0.0
 60
     3
 61
     5
292
     1
282
     1
141
0.0
142
0.0
 63
   250
361
3F
  0
ENDTAB
  0
TABLE
  2
LTYPE
  5
5
330
0
100
AcDbSymbolTable
 70
     1
  0
LTYPE
  5
14
330
5
100
AcDbSymbolTableRecord
100
AcDbLinetypeTableRecord
  2
ByBlock
 70
     0
  3

 72
    65
 73
     0
 40
0.0
  0
LTYPE
  5
15
330
5
100
AcDbSymbolTableRecord
100
AcDbLinetypeTableRecord
  2
ByLayer
 70
     0
  3

 72
    65
 73
     0
 40
0.0
  0
LTYPE
  5
16
330
5
100
AcDbSymbolTableRecord
100
AcDbLinetypeTableRecord
  2
Continuous
 70
     0
  3
Solid line
 72
    65
 73
     0
 40
0.0
  0
ENDTAB
  0
TABLE
  2
LAYER
  5
2
330
0
100
AcDbSymbolTable
 70
     2
  0
LAYER
  5
10
330
2
100
AcDbSymbolTableRecord
100
AcDbLayerTableRecord
  2
0
 70
     0
 62
     7
  6
Continuous
370
    -3
390
F
347
3E
  0
LAYER
  5
40
330
2
100
AcDbSymbolTableRecord
100
AcDbLayerTableRecord
  2
Layer 1
 70
     0
 62
     7
  6
Continuous
370
    -3
390
F
347
3E
  0
ENDTAB
  0
TABLE
  2
STYLE
  5
3
330
0
100
AcDbSymbolTable
 70
     1
  0
STYLE
  5
11
330
3
100
AcDbSymbolTableRecord
100
AcDbTextStyleTableRecord
  2
Standard
 70
     0
 40
0.0
 41
1.0
 50
0.0
 71
     0
 42
0.2
  3
txt
  4

  0
ENDTAB
  0
TABLE
  2
VIEW
  5
6
330
0
100
AcDbSymbolTable
 70
     0
  0
ENDTAB
  0
TABLE
  2
UCS
  5
7
330
0
100
AcDbSymbolTable
 70
     0
  0
ENDTAB
  0
TABLE
  2
APPID
  5
9
330
0
100
AcDbSymbolTable
 70
     1
  0
APPID
  5
12
330
9
100
AcDbSymbolTableRecord
100
AcDbRegAppTableRecord
  2
ACAD
 70
     0
  0
ENDTAB
  0
TABLE
  2
DIMSTYLE
  5
A
330
0
100
AcDbSymbolTable
 70
     1
100
AcDbDimStyleTable
  0
DIMSTYLE
105
27
330
A
100
AcDbSymbolTableRecord
100
AcDbDimStyleTableRecord
  2
Standard
 70
     0
178
     0
340
11
  0
ENDTAB
  0
TABLE
  2
BLOCK_RECORD
  5
1
330
0
100
AcDbSymbolTable
 70
     1
  0
BLOCK_RECORD
  5
1F
330
1
100
AcDbSymbolTableRecord
100
AcDbBlockTableRecord
  2
*Model_Space
340
22
 70
     0
280
     1
281
     0
  0
BLOCK_RECORD
  5
1B
330
1
100
AcDbSymbolTableRecord
100
AcDbBlockTableRecord
  2
*Paper_Space
340
1E
 70
     0
280
     1
281
     0
  0
BLOCK_RECORD
  5
23
330
1
100
AcDbSymbolTableRecord
100
AcDbBlockTableRecord
  2
*Paper_Space0
340
26
 70
     0
280
     1
281
     0
  0
ENDTAB
  0
ENDSEC
  0
SECTION
  2
BLOCKS
  0
BLOCK
  5
20
330
1F
100
AcDbEntity
  8
0
100
AcDbBlockBegin
  2
*Model_Space
 70
     0
 10
0.0
 20
0.0
 30
0.0
  3
*Model_Space
  1

  0
ENDBLK
  5
21
330
1F
100
AcDbEntity
  8
0
100
AcDbBlockEnd
  0
BLOCK
  5
1C
330
1B
100
AcDbEntity
 67
     1
  8
0
100
AcDbBlockBegin
  2
*Paper_Space
 70
     0
 10
0.0
 20
0.0
 30
0.0
  3
*Paper_Space
  1

  0
ENDBLK
  5
1D
330
1B
100
AcDbEntity
 67
     1
  8
0
100
AcDbBlockEnd
  0
BLOCK
  5
24
330
23
100
AcDbEntity
  8
0
100
AcDbBlockBegin
  2
*Paper_Space0
 70
     0
 10
0.0
 20
0.0
 30
0.0
  3
*Paper_Space0
  1

  0
ENDBLK
  5
25
330
23
100
AcDbEntity
  8
0
100
AcDbBlockEnd
  0
ENDSEC
  0
SECTION
  2
ENTITIES
  0
SPLINE
  5
41
330
1F
100
AcDbEntity
  8
Layer 1
370
     0
100
AcDbSpline
210
0.0
220
0.0
230
1.0
 70
    11
 71
     3
 72
    77
 73
    73
 74
     0
 42
0.0000000001
 43
0.0000000001
 12
1.0
 22
0.0
 32
0.0
 13
1.0
 23
0.0
 33
0.0
 40
0.0
 40
0.0
 40
0.0
 40
0.0
 40
1.0
 40
1.0
 40
1.0
 40
2.0
 40
2.0
 40
2.0
 40
3.0
 40
3.0
 40
3.0
 40
4.0
 40
4.0
 40
4.0
 40
5.0
 40
5.0
 40
5.0
 40
6.0
 40
6.0
 40
6.0
 40
7.0
 40
7.0
 40
7.0
 40
8.0
 40
8.0
 40
8.0
 40
9.0
 40
9.0
 40
9.0
 40
10.0
 40
10.0
 40
10.0
 40
11.0
 40
11.0
 40
11.0
 40
12.0
 40
12.0
 40
12.0
 40
13.0
 40
13.0
 40
13.0
 40
14.0
 40
14.0
 40
14.0
 40
15.0
 40
15.0
 40
15.0
 40
16.0
 40
16.0
 40
16.0
 40
17.0
 40
17.0
 40
17.0
 40
18.0
 40
18.0
 40
18.0
 40
19.0
 40
19.0
 40
19.0
 40
20.0
 40
20.0
 40
20.0
 40
21.0
 40
21.0
 40
21.0
 40
22.0
 40
22.0
 40
22.0
 40
23.0
 40
23.0
 40
23.0
 40
24.0
 40
24.0
 40
24.0
 40
24.0
 10
175.4991068083388
 20
-158.049935025863
 30
0.0
 10
175.4991068083388
 20
-158.049935025863
 30
0.0
 10
170.226969528027
 20
-154.0860942879216
 30
0.0
 10
170.226969528027
 20
-154.0860942879216
 30
0.0
 10
167.603852293711
 20
-152.1139063136968
 30
0.0
 10
167.603852293711
 20
-148.1772818300889
 30
0.0
 10
170.226969528027
 20
-146.2050938558641
 30
0.0
 10
170.226969528027
 20
-146.2050938558641
 30
0.0
 10
175.499085276492
 20
-142.2412746497695
 30
0.0
 10
175.499085276492
 20
-142.2412746497695
 30
0.0
 10
177.285173498973
 20
-140.8984194933127
 30
0.0
 10
177.644453894391
 20
-138.361924878604
 30
0.0
 10
176.3015987379342
 20
-136.575836656123
 30
0.0
 10
176.3015987379342
 20
-136.575836656123
 30
0.0
 10
170.2850839824938
 20
-128.5735257992911
 30
0.0
 10
170.2850839824938
 20
-128.5735257992911
 30
0.0
 10
168.942228826037
 20
-126.7874591086569
 30
0.0
 10
166.4057126794815
 20
-126.4281571813921
 30
0.0
 10
164.6196459888473
 20
-127.7710123378489
 30
0.0
 10
164.6196459888473
 20
-127.7710123378489
 30
0.0
 10
152.8877824189178
 20
-136.5916194998148
 30
0.0
 10
152.8877824189178
 20
-136.5916194998148
 30
0.0
 10
151.1317957182392
 20
-137.9118446853029
 30
0.0
 10
148.7143722162394
 20
-137.9118446853029
 30
0.0
 10
146.9583855155608
 20
-136.5916194998148
 30
0.0
 10
146.9583855155608
 20
-136.5916194998148
 30
0.0
 10
135.2265004137845
 20
-127.7710123378489
 30
0.0
 10
135.2265004137845
 20
-127.7710123378489
 30
0.0
 10
133.4404337231503
 20
-126.4281571813921
 30
0.0
 10
130.9039175765948
 20
-126.7874591086569
 30
0.0
 10
129.5610624201379
 20
-128.5735257992911
 30
0.0
 10
129.5610624201379
 20
-128.5735257992911
 30
0.0
 10
123.5445476646976
 20
-136.575836656123
 30
0.0
 10
123.5445476646976
 20
-136.575836656123
 30
0.0
 10
122.2016925082408
 20
-138.361924878604
 30
0.0
 10
122.5609729036588
 20
-140.8984194933127
 30
0.0
 10
124.3470611261398
 20
-142.2412746497695
 30
0.0
 10
124.3470611261398
 20
-142.2412746497695
 30
0.0
 10
129.6191768746048
 20
-146.2050938558641
 30
0.0
 10
129.6191768746048
 20
-146.2050938558641
 30
0.0
 10
132.2422941089208
 20
-148.1772818300889
 30
0.0
 10
132.2422941089208
 20
-152.1139063136968
 30
0.0
 10
129.6191768746048
 20
-154.0860942879216
 30
0.0
 10
129.6191768746048
 20
-154.0860942879216
 30
0.0
 10
124.347039594293
 20
-158.049935025863
 30
0.0
 10
124.347039594293
 20
-158.049935025863
 30
0.0
 10
122.5609729036588
 20
-159.3927901823198
 30
0.0
 10
122.2016925082408
 20
-161.9292847970285
 30
0.0
 10
123.5445476646976
 20
-163.7153730195095
 30
0.0
 10
123.5445476646976
 20
-163.7153730195095
 30
0.0
 10
129.5610624201379
 20
-171.7176838763414
 30
0.0
 10
129.5610624201379
 20
-171.7176838763414
 30
0.0
 10
130.9039175765948
 20
-173.5037505669756
 30
0.0
 10
133.4404337231503
 20
-173.8630524942404
 30
0.0
 10
135.2265004137845
 20
-172.5201973377836
 30
0.0
 10
135.2265004137845
 20
-172.5201973377836
 30
0.0
 10
146.9583855155608
 20
-163.6995901758177
 30
0.0
 10
146.9583855155608
 20
-163.6995901758177
 30
0.0
 10
148.7143722162394
 20
-162.3793649903296
 30
0.0
 10
151.1317957182392
 20
-162.3793649903296
 30
0.0
 10
152.8877824189178
 20
-163.6995901758177
 30
0.0
 10
152.8877824189178
 20
-163.6995901758177
 30
0.0
 10
164.6196459888473
 20
-172.5201973377836
 30
0.0
 10
164.6196459888473
 20
-172.5201973377836
 30
0.0
 10
166.4057126794815
 20
-173.8630524942404
 30
0.0
 10
168.942228826037
 20
-173.5037505669756
 30
0.0
 10
170.2850839824938
 20
-171.7176838763414
 30
0.0
 10
170.2850839824938
 20
-171.7176838763414
 30
0.0
 10
176.3015987379342
 20
-163.7153730195095
 30
0.0
 10
176.3015987379342
 20
-163.7153730195095
 30
0.0
 10
177.644453894391
 20
-161.9292847970285
 30
0.0
 10
177.285173498973
 20
-159.3927901823198
 30
0.0
 10
175.4991068083388
 20
-158.049935025863
 30
0.0
  0
SPLINE
  5
42
330
1F
100
AcDbEntity
  8
Layer 1
370
     0
100
AcDbSpline
210
0.0
220
0.0
230
1.0
 70
    11
 71
     3
 72
    17
 73
    13
 74
     0
 42
0.0000000001
 43
0.0000000001
 12
1.0
 22
0.0
 32
0.0
 13
1.0
 23
0.0
 33
0.0
 40
0.0
 40
0.0
 40
0.0
 40
0.0
 40
1.0
 40
1.0
 40
1.0
 40
2.0
 40
2.0
 40
2.0
 40
3.0
 40
3.0
 40
3.0
 40
4.0
 40
4.0
 40
4.0
 40
4.0
 10
173.1263188247197
 20
-137.4956125551443
 30
0.0
 10
173.9547566296884
 20
-137.4956125551443
 30
0.0
 10
174.6263349308443
 20
-138.1671693244535
 30
0.0
 10
174.6263349308443
 20
-138.9956071294221
 30
0.0
 10
174.6263349308443
 20
-139.824023402544
 30
0.0
 10
173.9547566296884
 20
-140.4956017036999
 30
0.0
 10
173.1263188247197
 20
-140.4956017036999
 30
0.0
 10
172.2979025515978
 20
-140.4956017036999
 30
0.0
 10
171.6263242504419
 20
-139.824023402544
 30
0.0
 10
171.6263242504419
 20
-138.9956071294221
 30
0.0
 10
171.6263242504419
 20
-138.1671693244535
 30
0.0
 10
172.2979025515978
 20
-137.4956125551443
 30
0.0
 10
173.1263188247197
 20
-137.4956125551443
 30
0.0
  0
SPLINE
  5
43
330
1F
100
AcDbEntity
  8
Layer 1
370
     0
100
AcDbSpline
210
0.0
220
0.0
230
1.0
 70
    11
 71
     3
 72
    17
 73
    13
 74
     0
 42
0.0000000001
 43
0.0000000001
 12
1.0
 22
0.0
 32
0.0
 13
1.0
 23
0.0
 33
0.0
 40
0.0
 40
0.0
 40
0.0
 40
0.0
 40
1.0
 40
1.0
 40
1.0
 40
2.0
 40
2.0
 40
2.0
 40
3.0
 40
3.0
 40
3.0
 40
4.0
 40
4.0
 40
4.0
 40
4.0
 10
126.7263301956405
 20
-140.4956017036999
 30
0.0
 10
125.8978923906718
 20
-140.4956017036999
 30
0.0
 10
125.2263140895159
 20
-139.824023402544
 30
0.0
 10
125.2263140895159
 20
-138.9956071294221
 30
0.0
 10
125.2263140895159
 20
-138.1671693244535
 30
0.0
 10
125.8978923906718
 20
-137.4956125551443
 30
0.0
 10
126.7263301956405
 20
-137.4956125551443
 30
0.0
 10
127.5547464687624
 20
-137.4956125551443
 30
0.0
 10
128.2263247699183
 20
-138.1671693244535
 30
0.0
 10
128.2263247699183
 20
-138.9956071294221
 30
0.0
 10
128.2263247699183
 20
-139.824023402544
 30
0.0
 10
127.5547464687624
 20
-140.4956017036999
 30
0.0
 10
126.7263301956405
 20
-140.4956017036999
 30
0.0
  0
SPLINE
  5
44
330
1F
100
AcDbEntity
  8
Layer 1
370
     0
100
AcDbSpline
210
0.0
220
0.0
230
1.0
 70
    11
 71
     3
 72
    17
 73
    13
 74
     0
 42
0.0000000001
 43
0.0000000001
 12
1.0
 22
0.0
 32
0.0
 13
1.0
 23
0.0
 33
0.0
 40
0.0
 40
0.0
 40
0.0
 40
0.0
 40
1.0
 40
1.0
 40
1.0
 40
2.0
 40
2.0
 40
2.0
 40
3.0
 40
3.0
 40
3.0
 40
4.0
 40
4.0
 40
4.0
 40
4.0
 10
126.7263301956405
 20
-162.7955971204882
 30
0.0
 10
125.8978923906718
 20
-162.7955971204882
 30
0.0
 10
125.2263140895159
 20
-162.1240188193323
 30
0.0
 10
125.2263140895159
 20
-161.2956025462104
 30
0.0
 10
125.2263140895159
 20
-160.4671647412417
 30
0.0
 10
125.8978923906718
 20
-159.7956079719326
 30
0.0
 10
126.7263301956405
 20
-159.7956079719326
 30
0.0
 10
127.5547464687624
 20
-159.7956079719326
 30
0.0
 10
128.2263247699183
 20
-160.4671647412417
 30
0.0
 10
128.2263247699183
 20
-161.2956025462104
 30
0.0
 10
128.2263247699183
 20
-162.1240188193323
 30
0.0
 10
127.5547464687624
 20
-162.7955971204882
 30
0.0
 10
126.7263301956405
 20
-162.7955971204882
 30
0.0
  0
SPLINE
  5
45
330
1F
100
AcDbEntity
  8
Layer 1
370
     0
100
AcDbSpline
210
0.0
220
0.0
230
1.0
 70
    11
 71
     3
 72
    17
 73
    13
 74
     0
 42
0.0000000001
 43
0.0000000001
 12
1.0
 22
0.0
 32
0.0
 13
1.0
 23
0.0
 33
0.0
 40
0.0
 40
0.0
 40
0.0
 40
0.0
 40
1.0
 40
1.0
 40
1.0
 40
2.0
 40
2.0
 40
2.0
 40
3.0
 40
3.0
 40
3.0
 40
4.0
 40
4.0
 40
4.0
 40
4.0
 10
134.6730673559259
 20
-166.9373555083959
 30
0.0
 10
133.844651082804
 20
-166.9373555083959
 30
0.0
 10
133.1730727816481
 20
-166.26577720724
 30
0.0
 10
133.1730727816481
 20
-165.4373609341181
 30
0.0
 10
133.1730727816481
 20
-164.6089231291494
 30
0.0
 10
133.844651082804
 20
-163.9373448279935
 30
0.0
 10
134.6730673559259
 20
-163.9373448279935
 30
0.0
 10
135.5015051608946
 20
-163.9373448279935
 30
0.0
 10
136.1730834620505
 20
-164.6089231291494
 30
0.0
 10
136.1730834620505
 20
-165.4373609341181
 30
0.0
 10
136.1730834620505
 20
-166.26577720724
 30
0.0
 10
135.5015051608946
 20
-166.9373555083959
 30
0.0
 10
134.6730673559259
 20
-166.9373555083959
 30
0.0
  0
SPLINE
  5
46
330
1F
100
AcDbEntity
  8
Layer 1
370
     0
100
AcDbSpline
210
0.0
220
0.0
230
1.0
 70
    11
 71
     3
 72
    17
 73
    13
 74
     0
 42
0.0000000001
 43
0.0000000001
 12
1.0
 22
0.0
 32
0.0
 13
1.0
 23
0.0
 33
0.0
 40
0.0
 40
0.0
 40
0.0
 40
0.0
 40
1.0
 40
1.0
 40
1.0
 40
2.0
 40
2.0
 40
2.0
 40
3.0
 40
3.0
 40
3.0
 40
4.0
 40
4.0
 40
4.0
 40
4.0
 10
134.6730673559259
 20
-136.4373438176159
 30
0.0
 10
133.844651082804
 20
-136.4373438176159
 30
0.0
 10
133.1730727816481
 20
-135.7657870483068
 30
0.0
 10
133.1730727816481
 20
-134.9373492433382
 30
0.0
 10
133.1730727816481
 20
-134.1089329702163
 30
0.0
 10
133.844651082804
 20
-133.4373546690604
 30
0.0
 10
134.6730673559259
 20
-133.4373546690604
 30
0.0
 10
135.5015051608946
 20
-133.4373546690604
 30
0.0
 10
136.1730834620505
 20
-134.1089329702163
 30
0.0
 10
136.1730834620505
 20
-134.9373492433382
 30
0.0
 10
136.1730834620505
 20
-135.7657870483068
 30
0.0
 10
135.5015051608946
 20
-136.4373438176159
 30
0.0
 10
134.6730673559259
 20
-136.4373438176159
 30
0.0
  0
SPLINE
  5
47
330
1F
100
AcDbEntity
  8
Layer 1
370
     0
100
AcDbSpline
210
0.0
220
0.0
230
1.0
 70
    11
 71
     3
 72
    17
 73
    13
 74
     0
 42
0.0000000001
 43
0.0000000001
 12
1.0
 22
0.0
 32
0.0
 13
1.0
 23
0.0
 33
0.0
 40
0.0
 40
0.0
 40
0.0
 40
0.0
 40
1.0
 40
1.0
 40
1.0
 40
2.0
 40
2.0
 40
2.0
 40
3.0
 40
3.0
 40
3.0
 40
4.0
 40
4.0
 40
4.0
 40
4.0
 10
143.5230654887503
 20
-156.4455971220757
 30
0.0
 10
142.6946492156284
 20
-156.4455971220757
 30
0.0
 10
142.0230709144725
 20
-155.7740403527666
 30
0.0
 10
142.0230709144725
 20
-154.9456025477979
 30
0.0
 10
142.0230709144725
 20
-154.117186274676
 30
0.0
 10
142.6946492156284
 20
-153.4456079735201
 30
0.0
 10
143.5230654887503
 20
-153.4456079735201
 30
0.0
 10
144.351503293719
 20
-153.4456079735201
 30
0.0
 10
145.0230815948749
 20
-154.117186274676
 30
0.0
 10
145.0230815948749
 20
-154.9456025477979
 30
0.0
 10
145.0230815948749
 20
-155.7740403527666
 30
0.0
 10
144.351503293719
 20
-156.4455971220757
 30
0.0
 10
143.5230654887503
 20
-156.4455971220757
 30
0.0
  0
SPLINE
  5
48
330
1F
100
AcDbEntity
  8
Layer 1
370
     0
100
AcDbSpline
210
0.0
220
0.0
230
1.0
 70
    11
 71
     3
 72
    17
 73
    13
 74
     0
 42
0.0000000001
 43
0.0000000001
 12
1.0
 22
0.0
 32
0.0
 13
1.0
 23
0.0
 33
0.0
 40
0.0
 40
0.0
 40
0.0
 40
0.0
 40
1.0
 40
1.0
 40
1.0
 40
2.0
 40
2.0
 40
2.0
 40
3.0
 40
3.0
 40
3.0
 40
4.0
 40
4.0
 40
4.0
 40
4.0
 10
143.5230654887503
 20
-146.8456017021124
 30
0.0
 10
142.6946492156284
 20
-146.8456017021124
 30
0.0
 10
142.0230709144725
 20
-146.1740234009565
 30
0.0
 10
142.0230709144725
 20
-145.3456071278346
 30
0.0
 10
142.0230709144725
 20
-144.517169322866
 30
0.0
 10
142.6946492156284
 20
-143.8456125535568
 30
0.0
 10
143.5230654887503
 20
-143.8456125535568
 30
0.0
 10
144.351503293719
 20
-143.8456125535568
 30
0.0
 10
145.0230815948749
 20
-144.517169322866
 30
0.0
 10
145.0230815948749
 20
-145.3456071278346
 30
0.0
 10
145.0230815948749
 20
-146.1740234009565
 30
0.0
 10
144.351503293719
 20
-146.8456017021124
 30
0.0
 10
143.5230654887503
 20
-146.8456017021124
 30
0.0
  0
SPLINE
  5
49
330
1F
100
AcDbEntity
  8
Layer 1
370
     0
100
AcDbSpline
210
0.0
220
0.0
230
1.0
 70
    11
 71
     3
 72
    17
 73
    13
 74
     0
 42
0.0000000001
 43
0.0000000001
 12
1.0
 22
0.0
 32
0.0
 13
1.0
 23
0.0
 33
0.0
 40
0.0
 40
0.0
 40
0.0
 40
0.0
 40
1.0
 40
1.0
 40
1.0
 40
2.0
 40
2.0
 40
2.0
 40
3.0
 40
3.0
 40
3.0
 40
4.0
 40
4.0
 40
4.0
 40
4.0
 10
156.3230809138815
 20
-156.4455971220757
 30
0.0
 10
155.4946431089128
 20
-156.4455971220757
 30
0.0
 10
154.8230648077569
 20
-155.7740403527666
 30
0.0
 10
154.8230648077569
 20
-154.9456025477979
 30
0.0
 10
154.8230648077569
 20
-154.117186274676
 30
0.0
 10
155.4946431089128
 20
-153.4456079735201
 30
0.0
 10
156.3230809138815
 20
-153.4456079735201
 30
0.0
 10
157.1514971870034
 20
-153.4456079735201
 30
0.0
 10
157.8230754881592
 20
-154.117186274676
 30
0.0
 10
157.8230754881592
 20
-154.9456025477979
 30
0.0
 10
157.8230754881592
 20
-155.7740403527666
 30
0.0
 10
157.1514971870034
 20
-156.4455971220757
 30
0.0
 10
156.3230809138815
 20
-156.4455971220757
 30
0.0
  0
SPLINE
  5
4A
330
1F
100
AcDbEntity
  8
Layer 1
370
     0
100
AcDbSpline
210
0.0
220
0.0
230
1.0
 70
    11
 71
     3
 72
    17
 73
    13
 74
     0
 42
0.0000000001
 43
0.0000000001
 12
1.0
 22
0.0
 32
0.0
 13
1.0
 23
0.0
 33
0.0
 40
0.0
 40
0.0
 40
0.0
 40
0.0
 40
1.0
 40
1.0
 40
1.0
 40
2.0
 40
2.0
 40
2.0
 40
3.0
 40
3.0
 40
3.0
 40
4.0
 40
4.0
 40
4.0
 40
4.0
 10
156.3230809138815
 20
-146.8456017021124
 30
0.0
 10
155.4946431089128
 20
-146.8456017021124
 30
0.0
 10
154.8230648077569
 20
-146.1740234009565
 30
0.0
 10
154.8230648077569
 20
-145.3456071278346
 30
0.0
 10
154.8230648077569
 20
-144.517169322866
 30
0.0
 10
155.4946431089128
 20
-143.8456125535568
 30
0.0
 10
156.3230809138815
 20
-143.8456125535568
 30
0.0
 10
157.1514971870034
 20
-143.8456125535568
 30
0.0
 10
157.8230754881592
 20
-144.517169322866
 30
0.0
 10
157.8230754881592
 20
-145.3456071278346
 30
0.0
 10
157.8230754881592
 20
-146.1740234009565
 30
0.0
 10
157.1514971870034
 20
-146.8456017021124
 30
0.0
 10
156.3230809138815
 20
-146.8456017021124
 30
0.0
  0
SPLINE
  5
4B
330
1F
100
AcDbEntity
  8
Layer 1
370
     0
100
AcDbSpline
210
0.0
220
0.0
230
1.0
 70
    11
 71
     3
 72
    17
 73
    13
 74
     0
 42
0.0000000001
 43
0.0000000001
 12
1.0
 22
0.0
 32
0.0
 13
1.0
 23
0.0
 33
0.0
 40
0.0
 40
0.0
 40
0.0
 40
0.0
 40
1.0
 40
1.0
 40
1.0
 40
2.0
 40
2.0
 40
2.0
 40
3.0
 40
3.0
 40
3.0
 40
4.0
 40
4.0
 40
4.0
 40
4.0
 10
165.1730790467059
 20
-166.9373555083959
 30
0.0
 10
164.3446412417372
 20
-166.9373555083959
 30
0.0
 10
163.6730844724281
 20
-166.26577720724
 30
0.0
 10
163.6730844724281
 20
-165.4373609341181
 30
0.0
 10
163.6730844724281
 20
-164.6089231291494
 30
0.0
 10
164.3446412417372
 20
-163.9373448279935
 30
0.0
 10
165.1730790467059
 20
-163.9373448279935
 30
0.0
 10
166.0014953198278
 20
-163.9373448279935
 30
0.0
 10
166.6730736209836
 20
-164.6089231291494
 30
0.0
 10
166.6730736209836
 20
-165.4373609341181
 30
0.0
 10
166.6730736209836
 20
-166.26577720724
 30
0.0
 10
166.0014953198278
 20
-166.9373555083959
 30
0.0
 10
165.1730790467059
 20
-166.9373555083959
 30
0.0
  0
SPLINE
  5
4C
330
1F
100
AcDbEntity
  8
Layer 1
370
     0
100
AcDbSpline
210
0.0
220
0.0
230
1.0
 70
    11
 71
     3
 72
    17
 73
    13
 74
     0
 42
0.0000000001
 43
0.0000000001
 12
1.0
 22
0.0
 32
0.0
 13
1.0
 23
0.0
 33
0.0
 40
0.0
 40
0.0
 40
0.0
 40
0.0
 40
1.0
 40
1.0
 40
1.0
 40
2.0
 40
2.0
 40
2.0
 40
3.0
 40
3.0
 40
3.0
 40
4.0
 40
4.0
 40
4.0
 40
4.0
 10
165.1730790467059
 20
-136.4373438176159
 30
0.0
 10
164.3446412417372
 20
-136.4373438176159
 30
0.0
 10
163.6730844724281
 20
-135.7657870483068
 30
0.0
 10
163.6730844724281
 20
-134.9373492433382
 30
0.0
 10
163.6730844724281
 20
-134.1089329702163
 30
0.0
 10
164.3446412417372
 20
-133.4373546690604
 30
0.0
 10
165.1730790467059
 20
-133.4373546690604
 30
0.0
 10
166.0014953198278
 20
-133.4373546690604
 30
0.0
 10
166.6730736209836
 20
-134.1089329702163
 30
0.0
 10
166.6730736209836
 20
-134.9373492433382
 30
0.0
 10
166.6730736209836
 20
-135.7657870483068
 30
0.0
 10
166.0014953198278
 20
-136.4373438176159
 30
0.0
 10
165.1730790467059
 20
-136.4373438176159
 30
0.0
  0
SPLINE
  5
4D
330
1F
100
AcDbEntity
  8
Layer 1
370
     0
100
AcDbSpline
210
0.0
220
0.0
230
1.0
 70
    11
 71
     3
 72
    17
 73
    13
 74
     0
 42
0.0000000001
 43
0.0000000001
 12
1.0
 22
0.0
 32
0.0
 13
1.0
 23
0.0
 33
0.0
 40
0.0
 40
0.0
 40
0.0
 40
0.0
 40
1.0
 40
1.0
 40
1.0
 40
2.0
 40
2.0
 40
2.0
 40
3.0
 40
3.0
 40
3.0
 40
4.0
 40
4.0
 40
4.0
 40
4.0
 10
173.1263188247197
 20
-162.7955971204882
 30
0.0
 10
172.2979025515978
 20
-162.7955971204882
 30
0.0
 10
171.6263242504419
 20
-162.1240188193323
 30
0.0
 10
171.6263242504419
 20
-161.2956025462104
 30
0.0
 10
171.6263242504419
 20
-160.4671647412417
 30
0.0
 10
172.2979025515978
 20
-159.7956079719326
 30
0.0
 10
173.1263188247197
 20
-159.7956079719326
 30
0.0
 10
173.9547566296884
 20
-159.7956079719326
 30
0.0
 10
174.6263349308443
 20
-160.4671647412417
 30
0.0
 10
174.6263349308443
 20
-161.2956025462104
 30
0.0
 10
174.6263349308443
 20
-162.1240188193323
 30
0.0
 10
173.9547566296884
 20
-162.7955971204882
 30
0.0
 10
173.1263188247197
 20
-162.7955971204882
 30
0.0
  0
HATCH
  5
4E
330
1F
100
AcDbEntity
  8
Layer 1
 62
     6
420
 16711935
100
AcDbHatch
 10
0.0
 20
0.0
 30
0.0
210
0.0
220
0.0
230
1.0
  2
SOLID
 70
     1
 71
     0
 91
       13
 92
        1
 93
        1
 72
     4
 94
        3
 73
     0
 74
     1
 95
       77
 96
       73
 40
0.0
 40
0.0
 40
0.0
 40
0.0
 40
1.0
 40
1.0
 40
1.0
 40
2.0
 40
2.0
 40
2.0
 40
3.0
 40
3.0
 40
3.0
 40
4.0
 40
4.0
 40
4.0
 40
5.0
 40
5.0
 40
5.0
 40
6.0
 40
6.0
 40
6.0
 40
7.0
 40
7.0
 40
7.0
 40
8.0
 40
8.0
 40
8.0
 40
9.0
 40
9.0
 40
9.0
 40
10.0
 40
10.0
 40
10.0
 40
11.0
 40
11.0
 40
11.0
 40
12.0
 40
12.0
 40
12.0
 40
13.0
 40
13.0
 40
13.0
 40
14.0
 40
14.0
 40
14.0
 40
15.0
 40
15.0
 40
15.0
 40
16.0
 40
16.0
 40
16.0
 40
17.0
 40
17.0
 40
17.0
 40
18.0
 40
18.0
 40
18.0
 40
19.0
 40
19.0
 40
19.0
 40
20.0
 40
20.0
 40
20.0
 40
21.0
 40
21.0
 40
21.0
 40
22.0
 40
22.0
 40
22.0
 40
23.0
 40
23.0
 40
23.0
 40
24.0
 40
24.0
 40
24.0
 40
24.0
 10
175.4991068083388
 20
-158.049935025863
 10
175.4991068083388
 20
-158.049935025863
 10
170.226969528027
 20
-154.0860942879216
 10
170.226969528027
 20
-154.0860942879216
 10
167.603852293711
 20
-152.1139063136968
 10
167.603852293711
 20
-148.1772818300889
 10
170.226969528027
 20
-146.2050938558641
 10
170.226969528027
 20
-146.2050938558641
 10
175.499085276492
 20
-142.2412746497695
 10
175.499085276492
 20
-142.2412746497695
 10
177.285173498973
 20
-140.8984194933127
 10
177.644453894391
 20
-138.361924878604
 10
176.3015987379342
 20
-136.575836656123
 10
176.3015987379342
 20
-136.575836656123
 10
170.2850839824938
 20
-128.5735257992911
 10
170.2850839824938
 20
-128.5735257992911
 10
168.942228826037
 20
-126.7874591086569
 10
166.4057126794815
 20
-126.4281571813921
 10
164.6196459888473
 20
-127.7710123378489
 10
164.6196459888473
 20
-127.7710123378489
 10
152.8877824189178
 20
-136.5916194998148
 10
152.8877824189178
 20
-136.5916194998148
 10
151.1317957182392
 20
-137.9118446853029
 10
148.7143722162394
 20
-137.9118446853029
 10
146.9583855155608
 20
-136.5916194998148
 10
146.9583855155608
 20
-136.5916194998148
 10
135.2265004137845
 20
-127.7710123378489
 10
135.2265004137845
 20
-127.7710123378489
 10
133.4404337231503
 20
-126.4281571813921
 10
130.9039175765948
 20
-126.7874591086569
 10
129.5610624201379
 20
-128.5735257992911
 10
129.5610624201379
 20
-128.5735257992911
 10
123.5445476646976
 20
-136.575836656123
 10
123.5445476646976
 20
-136.575836656123
 10
122.2016925082408
 20
-138.361924878604
 10
122.5609729036588
 20
-140.8984194933127
 10
124.3470611261398
 20
-142.2412746497695
 10
124.3470611261398
 20
-142.2412746497695
 10
129.6191768746048
 20
-146.2050938558641
 10
129.6191768746048
 20
-146.2050938558641
 10
132.2422941089208
 20
-148.1772818300889
 10
132.2422941089208
 20
-152.1139063136968
 10
129.6191768746048
 20
-154.0860942879216
 10
129.6191768746048
 20
-154.0860942879216
 10
124.347039594293
 20
-158.049935025863
 10
124.347039594293
 20
-158.049935025863
 10
122.5609729036588
 20
-159.3927901823198
 10
122.2016925082408
 20
-161.9292847970285
 10
123.5445476646976
 20
-163.7153730195095
 10
123.5445476646976
 20
-163.7153730195095
 10
129.5610624201379
 20
-171.7176838763414
 10
129.5610624201379
 20
-171.7176838763414
 10
130.9039175765948
 20
-173.5037505669756
 10
133.4404337231503
 20
-173.8630524942404
 10
135.2265004137845
 20
-172.5201973377836
 10
135.2265004137845
 20
-172.5201973377836
 10
146.9583855155608
 20
-163.6995901758177
 10
146.9583855155608
 20
-163.6995901758177
 10
148.7143722162394
 20
-162.3793649903296
 10
151.1317957182392
 20
-162.3793649903296
 10
152.8877824189178
 20
-163.6995901758177
 10
152.8877824189178
 20
-163.6995901758177
 10
164.6196459888473
 20
-172.5201973377836
 10
164.6196459888473
 20
-172.5201973377836
 10
166.4057126794815
 20
-173.8630524942404
 10
168.942228826037
 20
-173.5037505669756
 10
170.2850839824938
 20
-171.7176838763414
 10
170.2850839824938
 20
-171.7176838763414
 10
176.3015987379342
 20
-163.7153730195095
 10
176.3015987379342
 20
-163.7153730195095
 10
177.644453894391
 20
-161.9292847970285
 10
177.285173498973
 20
-159.3927901823198
 10
175.4991068083388
 20
-158.049935025863
 97
        0
 97
        0
 92
        1
 93
        1
 72
     4
 94
        3
 73
     0
 74
     1
 95
       17
 96
       13
 40
0.0
 40
0.0
 40
0.0
 40
0.0
 40
1.0
 40
1.0
 40
1.0
 40
2.0
 40
2.0
 40
2.0
 40
3.0
 40
3.0
 40
3.0
 40
4.0
 40
4.0
 40
4.0
 40
4.0
 10
173.1263188247197
 20
-137.4956125551443
 10
173.9547566296884
 20
-137.4956125551443
 10
174.6263349308443
 20
-138.1671693244535
 10
174.6263349308443
 20
-138.9956071294221
 10
174.6263349308443
 20
-139.824023402544
 10
173.9547566296884
 20
-140.4956017036999
 10
173.1263188247197
 20
-140.4956017036999
 10
172.2979025515978
 20
-140.4956017036999
 10
171.6263242504419
 20
-139.824023402544
 10
171.6263242504419
 20
-138.9956071294221
 10
171.6263242504419
 20
-138.1671693244535
 10
172.2979025515978
 20
-137.4956125551443
 10
173.1263188247197
 20
-137.4956125551443
 97
        0
 97
        0
 92
        1
 93
        1
 72
     4
 94
        3
 73
     0
 74
     1
 95
       17
 96
       13
 40
0.0
 40
0.0
 40
0.0
 40
0.0
 40
1.0
 40
1.0
 40
1.0
 40
2.0
 40
2.0
 40
2.0
 40
3.0
 40
3.0
 40
3.0
 40
4.0
 40
4.0
 40
4.0
 40
4.0
 10
126.7263301956405
 20
-140.4956017036999
 10
125.8978923906718
 20
-140.4956017036999
 10
125.2263140895159
 20
-139.824023402544
 10
125.2263140895159
 20
-138.9956071294221
 10
125.2263140895159
 20
-138.1671693244535
 10
125.8978923906718
 20
-137.4956125551443
 10
126.7263301956405
 20
-137.4956125551443
 10
127.5547464687624
 20
-137.4956125551443
 10
128.2263247699183
 20
-138.1671693244535
 10
128.2263247699183
 20
-138.9956071294221
 10
128.2263247699183
 20
-139.824023402544
 10
127.5547464687624
 20
-140.4956017036999
 10
126.7263301956405
 20
-140.4956017036999
 97
        0
 97
        0
 92
        1
 93
        1
 72
     4
 94
        3
 73
     0
 74
     1
 95
       17
 96
       13
 40
0.0
 40
0.0
 40
0.0
 40
0.0
 40
1.0
 40
1.0
 40
1.0
 40
2.0
 40
2.0
 40
2.0
 40
3.0
 40
3.0
 40
3.0
 40
4.0
 40
4.0
 40
4.0
 40
4.0
 10
126.7263301956405
 20
-162.7955971204882
 10
125.8978923906718
 20
-162.7955971204882
 10
125.2263140895159
 20
-162.1240188193323
 10
125.2263140895159
 20
-161.2956025462104
 10
125.2263140895159
 20
-160.4671647412417
 10
125.8978923906718
 20
-159.7956079719326
 10
126.7263301956405
 20
-159.7956079719326
 10
127.5547464687624
 20
-159.7956079719326
 10
128.2263247699183
 20
-160.4671647412417
 10
128.2263247699183
 20
-161.2956025462104
 10
128.2263247699183
 20
-162.1240188193323
 10
127.5547464687624
 20
-162.7955971204882
 10
126.7263301956405
 20
-162.7955971204882
 97
        0
 97
        0
 92
        1
 93
        1
 72
     4
 94
        3
 73
     0
 74
     1
 95
       17
 96
       13
 40
0.0
 40
0.0
 40
0.0
 40
0.0
 40
1.0
 40
1.0
 40
1.0
 40
2.0
 40
2.0
 40
2.0
 40
3.0
 40
3.0
 40
3.0
 40
4.0
 40
4.0
 40
4.0
 40
4.0
 10
134.6730673559259
 20
-166.9373555083959
 10
133.844651082804
 20
-166.9373555083959
 10
133.1730727816481
 20
-166.26577720724
 10
133.1730727816481
 20
-165.4373609341181
 10
133.1730727816481
 20
-164.6089231291494
 10
133.844651082804
 20
-163.9373448279935
 10
134.6730673559259
 20
-163.9373448279935
 10
135.5015051608946
 20
-163.9373448279935
 10
136.1730834620505
 20
-164.6089231291494
 10
136.1730834620505
 20
-165.4373609341181
 10
136.1730834620505
 20
-166.26577720724
 10
135.5015051608946
 20
-166.9373555083959
 10
134.6730673559259
 20
-166.9373555083959
 97
        0
 97
        0
 92
        1
 93
        1
 72
     4
 94
        3
 73
     0
 74
     1
 95
       17
 96
       13
 40
0.0
 40
0.0
 40
0.0
 40
0.0
 40
1.0
 40
1.0
 40
1.0
 40
2.0
 40
2.0
 40
2.0
 40
3.0
 40
3.0
 40
3.0
 40
4.0
 40
4.0
 40
4.0
 40
4.0
 10
134.6730673559259
 20
-136.4373438176159
 10
133.844651082804
 20
-136.4373438176159
 10
133.1730727816481
 20
-135.7657870483068
 10
133.1730727816481
 20
-134.9373492433382
 10
133.1730727816481
 20
-134.1089329702163
 10
133.844651082804
 20
-133.4373546690604
 10
134.6730673559259
 20
-133.4373546690604
 10
135.5015051608946
 20
-133.4373546690604
 10
136.1730834620505
 20
-134.1089329702163
 10
136.1730834620505
 20
-134.9373492433382
 10
136.1730834620505
 20
-135.7657870483068
 10
135.5015051608946
 20
-136.4373438176159
 10
134.6730673559259
 20
-136.4373438176159
 97
        0
 97
        0
 92
        1
 93
        1
 72
     4
 94
        3
 73
     0
 74
     1
 95
       17
 96
       13
 40
0.0
 40
0.0
 40
0.0
 40
0.0
 40
1.0
 40
1.0
 40
1.0
 40
2.0
 40
2.0
 40
2.0
 40
3.0
 40
3.0
 40
3.0
 40
4.0
 40
4.0
 40
4.0
 40
4.0
 10
143.5230654887503
 20
-156.4455971220757
 10
142.6946492156284
 20
-156.4455971220757
 10
142.0230709144725
 20
-155.7740403527666
 10
142.0230709144725
 20
-154.9456025477979
 10
142.0230709144725
 20
-154.117186274676
 10
142.6946492156284
 20
-153.4456079735201
 10
143.5230654887503
 20
-153.4456079735201
 10
144.351503293719
 20
-153.4456079735201
 10
145.0230815948749
 20
-154.117186274676
 10
145.0230815948749
 20
-154.9456025477979
 10
145.0230815948749
 20
-155.7740403527666
 10
144.351503293719
 20
-156.4455971220757
 10
143.5230654887503
 20
-156.4455971220757
 97
        0
 97
        0
 92
        1
 93
        1
 72
     4
 94
        3
 73
     0
 74
     1
 95
       17
 96
       13
 40
0.0
 40
0.0
 40
0.0
 40
0.0
 40
1.0
 40
1.0
 40
1.0
 40
2.0
 40
2.0
 40
2.0
 40
3.0
 40
3.0
 40
3.0
 40
4.0
 40
4.0
 40
4.0
 40
4.0
 10
143.5230654887503
 20
-146.8456017021124
 10
142.6946492156284
 20
-146.8456017021124
 10
142.0230709144725
 20
-146.1740234009565
 10
142.0230709144725
 20
-145.3456071278346
 10
142.0230709144725
 20
-144.517169322866
 10
142.6946492156284
 20
-143.8456125535568
 10
143.5230654887503
 20
-143.8456125535568
 10
144.351503293719
 20
-143.8456125535568
 10
145.0230815948749
 20
-144.517169322866
 10
145.0230815948749
 20
-145.3456071278346
 10
145.0230815948749
 20
-146.1740234009565
 10
144.351503293719
 20
-146.8456017021124
 10
143.5230654887503
 20
-146.8456017021124
 97
        0
 97
        0
 92
        1
 93
        1
 72
     4
 94
        3
 73
     0
 74
     1
 95
       17
 96
       13
 40
0.0
 40
0.0
 40
0.0
 40
0.0
 40
1.0
 40
1.0
 40
1.0
 40
2.0
 40
2.0
 40
2.0
 40
3.0
 40
3.0
 40
3.0
 40
4.0
 40
4.0
 40
4.0
 40
4.0
 10
156.3230809138815
 20
-156.4455971220757
 10
155.4946431089128
 20
-156.4455971220757
 10
154.8230648077569
 20
-155.7740403527666
 10
154.8230648077569
 20
-154.9456025477979
 10
154.8230648077569
 20
-154.117186274676
 10
155.4946431089128
 20
-153.4456079735201
 10
156.3230809138815
 20
-153.4456079735201
 10
157.1514971870034
 20
-153.4456079735201
 10
157.8230754881592
 20
-154.117186274676
 10
157.8230754881592
 20
-154.9456025477979
 10
157.8230754881592
 20
-155.7740403527666
 10
157.1514971870034
 20
-156.4455971220757
 10
156.3230809138815
 20
-156.4455971220757
 97
        0
 97
        0
 92
        1
 93
        1
 72
     4
 94
        3
 73
     0
 74
     1
 95
       17
 96
       13
 40
0.0
 40
0.0
 40
0.0
 40
0.0
 40
1.0
 40
1.0
 40
1.0
 40
2.0
 40
2.0
 40
2.0
 40
3.0
 40
3.0
 40
3.0
 40
4.0
 40
4.0
 40
4.0
 40
4.0
 10
156.3230809138815
 20
-146.8456017021124
 10
155.4946431089128
 20
-146.8456017021124
 10
154.8230648077569
 20
-146.1740234009565
 10
154.8230648077569
 20
-145.3456071278346
 10
154.8230648077569
 20
-144.517169322866
 10
155.4946431089128
 20
-143.8456125535568
 10
156.3230809138815
 20
-143.8456125535568
 10
157.1514971870034
 20
-143.8456125535568
 10
157.8230754881592
 20
-144.517169322866
 10
157.8230754881592
 20
-145.3456071278346
 10
157.8230754881592
 20
-146.1740234009565
 10
157.1514971870034
 20
-146.8456017021124
 10
156.3230809138815
 20
-146.8456017021124
 97
        0
 97
        0
 92
        1
 93
        1
 72
     4
 94
        3
 73
     0
 74
     1
 95
       17
 96
       13
 40
0.0
 40
0.0
 40
0.0
 40
0.0
 40
1.0
 40
1.0
 40
1.0
 40
2.0
 40
2.0
 40
2.0
 40
3.0
 40
3.0
 40
3.0
 40
4.0
 40
4.0
 40
4.0
 40
4.0
 10
165.1730790467059
 20
-166.9373555083959
 10
164.3446412417372
 20
-166.9373555083959
 10
163.6730844724281
 20
-166.26577720724
 10
163.6730844724281
 20
-165.4373609341181
 10
163.6730844724281
 20
-164.6089231291494
 10
164.3446412417372
 20
-163.9373448279935
 10
165.1730790467059
 20
-163.9373448279935
 10
166.0014953198278
 20
-163.9373448279935
 10
166.6730736209836
 20
-164.6089231291494
 10
166.6730736209836
 20
-165.4373609341181
 10
166.6730736209836
 20
-166.26577720724
 10
166.0014953198278
 20
-166.9373555083959
 10
165.1730790467059
 20
-166.9373555083959
 97
        0
 97
        0
 92
        1
 93
        1
 72
     4
 94
        3
 73
     0
 74
     1
 95
       17
 96
       13
 40
0.0
 40
0.0
 40
0.0
 40
0.0
 40
1.0
 40
1.0
 40
1.0
 40
2.0
 40
2.0
 40
2.0
 40
3.0
 40
3.0
 40
3.0
 40
4.0
 40
4.0
 40
4.0
 40
4.0
 10
165.1730790467059
 20
-136.4373438176159
 10
164.3446412417372
 20
-136.4373438176159
 10
163.6730844724281
 20
-135.7657870483068
 10
163.6730844724281
 20
-134.9373492433382
 10
163.6730844724281
 20
-134.1089329702163
 10
164.3446412417372
 20
-133.4373546690604
 10
165.1730790467059
 20
-133.4373546690604
 10
166.0014953198278
 20
-133.4373546690604
 10
166.6730736209836
 20
-134.1089329702163
 10
166.6730736209836
 20
-134.9373492433382
 10
166.6730736209836
 20
-135.7657870483068
 10
166.0014953198278
 20
-136.4373438176159
 10
165.1730790467059
 20
-136.4373438176159
 97
        0
 97
        0
 92
        1
 93
        1
 72
     4
 94
        3
 73
     0
 74
     1
 95
       17
 96
       13
 40
0.0
 40
0.0
 40
0.0
 40
0.0
 40
1.0
 40
1.0
 40
1.0
 40
2.0
 40
2.0
 40
2.0
 40
3.0
 40
3.0
 40
3.0
 40
4.0
 40
4.0
 40
4.0
 40
4.0
 10
173.1263188247197
 20
-162.7955971204882
 10
172.2979025515978
 20
-162.7955971204882
 10
171.6263242504419
 20
-162.1240188193323
 10
171.6263242504419
 20
-161.2956025462104
 10
171.6263242504419
 20
-160.4671647412417
 10
172.2979025515978
 20
-159.7956079719326
 10
173.1263188247197
 20
-159.7956079719326
 10
173.9547566296884
 20
-159.7956079719326
 10
174.6263349308443
 20
-160.4671647412417
 10
174.6263349308443
 20
-161.2956025462104
 10
174.6263349308443
 20
-162.1240188193323
 10
173.9547566296884
 20
-162.7955971204882
 10
173.1263188247197
 20
-162.7955971204882
 97
        0
 97
        0
 75
     2
 76
     1
 98
        0
  0
ENDSEC
  0
SECTION
  2
OBJECTS
  0
DICTIONARY
  5
C
330
0
100
AcDbDictionary
281
     1
  3
ACAD_GROUP
350
D
  3
ACAD_LAYOUT
350
1A
  3
ACAD_MATERIAL
350
3B
  3
ACAD_MLEADERSTYLE
350
50
  3
ACAD_MLINESTYLE
350
17
  3
ACAD_PLOTSETTINGS
350
19
  3
ACAD_PLOTSTYLENAME
350
E
  3
ACAD_TABLESTYLE
350
4F
  3
ACAD_VISUALSTYLE
350
2A
  0
SUN
  5
3F
330
29
100
AcDbSun
 90
        1
290
     0
 63
     7
421
 16777215
 40
1.0
291
     1
 91
  2455826
 92
 54000000
292
     0
 70
     2
 71
   256
280
     1
  0
DICTIONARY
  5
D
102
{ACAD_REACTORS
330
C
102
}
330
C
100
AcDbDictionary
281
     1
  0
DICTIONARY
  5
1A
102
{ACAD_REACTORS
330
C
102
}
330
C
100
AcDbDictionary
281
     1
  3
Layout1
350
1E
  3
Layout2
350
26
  3
Model
350
22
  0
DICTIONARY
  5
3B
102
{ACAD_REACTORS
330
C
102
}
330
C
100
AcDbDictionary
281
     1
  3
ByBlock
350
3D
  3
ByLayer
350
3C
  3
Global
350
3E
  0
DICTIONARY
  5
50
102
{ACAD_REACTORS
330
C
102
}
330
C
100
AcDbDictionary
281
     1
  0
DICTIONARY
  5
17
102
{ACAD_REACTORS
330
C
102
}
330
C
100
AcDbDictionary
281
     1
  3
Standard
350
18
  0
DICTIONARY
  5
19
102
{ACAD_REACTORS
330
C
102
}
330
C
100
AcDbDictionary
281
     1
  0
ACDBDICTIONARYWDFLT
  5
E
102
{ACAD_REACTORS
330
C
102
}
330
C
100
AcDbDictionary
281
     1
  3
Normal
350
F
100
AcDbDictionaryWithDefault
340
F
  0
DICTIONARY
  5
4F
102
{ACAD_REACTORS
330
C
102
}
330
C
100
AcDbDictionary
281
     1
  0
DICTIONARY
  5
2A
102
{ACAD_REACTORS
330
C
102
}
330
C
100
AcDbDictionary
281
     1
  3
2dWireframe
350
2F
  3
3D Hidden
350
31
  3
3dWireframe
350
30
  3
Basic
350
32
  3
Brighten
350
36
  3
ColorChange
350
3A
  3
Conceptual
350
34
  3
Dim
350
35
  3
Facepattern
350
39
  3
Flat
350
2B
  3
FlatWithEdges
350
2C
  3
Gouraud
350
2D
  3
GouraudWithEdges
350
2E
  3
Linepattern
350
38
  3
Realistic
350
33
  3
Thicken
350
37
  0
LAYOUT
  5
1E
102
{ACAD_REACTORS
330
1A
102
}
330
1A
100
AcDbPlotSettings
  1

  2
none_device
  4

  6

 40
0.0
 41
0.0
 42
0.0
 43
0.0
 44
0.0
 45
0.0
 46
0.0
 47
0.0
 48
0.0
 49
0.0
140
0.0
141
0.0
142
1.0
143
1.0
 70
   688
 72
     0
 73
     0
 74
     5
  7

 75
    16
 76
     0
 77
     2
 78
   300
147
1.0
148
0.0
149
0.0
100
AcDbLayout
  1
Layout1
 70
     1
 71
     1
 10
0.0
 20
0.0
 11
12.0
 21
9.0
 12
0.0
 22
0.0
 32
0.0
 14
1.000000000000000E+20
 24
1.000000000000000E+20
 34
1.000000000000000E+20
 15
-1.000000000000000E+20
 25
-1.000000000000000E+20
 35
-1.000000000000000E+20
146
0.0
 13
0.0
 23
0.0
 33
0.0
 16
1.0
 26
0.0
 36
0.0
 17
0.0
 27
1.0
 37
0.0
 76
     0
330
1B
  0
LAYOUT
  5
26
102
{ACAD_REACTORS
330
1A
102
}
330
1A
100
AcDbPlotSettings
  1

  2
none_device
  4

  6

 40
0.0
 41
0.0
 42
0.0
 43
0.0
 44
0.0
 45
0.0
 46
0.0
 47
0.0
 48
0.0
 49
0.0
140
0.0
141
0.0
142
1.0
143
1.0
 70
   688
 72
     0
 73
     0
 74
     5
  7

 75
    16
 76
     0
 77
     2
 78
   300
147
1.0
148
0.0
149
0.0
100
AcDbLayout
  1
Layout2
 70
     1
 71
     2
 10
0.0
 20
0.0
 11
0.0
 21
0.0
 12
0.0
 22
0.0
 32
0.0
 14
0.0
 24
0.0
 34
0.0
 15
0.0
 25
0.0
 35
0.0
146
0.0
 13
0.0
 23
0.0
 33
0.0
 16
1.0
 26
0.0
 36
0.0
 17
0.0
 27
1.0
 37
0.0
 76
     0
330
23
  0
LAYOUT
  5
22
102
{ACAD_REACTORS
330
1A
102
}
330
1A
100
AcDbPlotSettings
  1

  2
none_device
  4

  6

 40
0.0
 41
0.0
 42
0.0
 43
0.0
 44
0.0
 45
0.0
 46
0.0
 47
0.0
 48
0.0
 49
0.0
140
0.0
141
0.0
142
1.0
143
1.0
 70
  1712
 72
     0
 73
     0
 74
     0
  7

 75
     0
 76
     0
 77
     2
 78
   300
147
1.0
148
0.0
149
0.0
100
AcDbLayout
  1
Model
 70
     1
 71
     0
 10
0.0
 20
0.0
 11
12.0
 21
9.0
 12
0.0
 22
0.0
 32
0.0
 14
1.000000000000000E+20
 24
1.000000000000000E+20
 34
1.000000000000000E+20
 15
-1.000000000000000E+20
 25
-1.000000000000000E+20
 35
-1.000000000000000E+20
146
0.0
 13
0.0
 23
0.0
 33
0.0
 16
1.0
 26
0.0
 36
0.0
 17
0.0
 27
1.0
 37
0.0
 76
     0
330
1F
331
29
  0
MATERIAL
  5
3D
102
{ACAD_REACTORS
330
3B
102
}
330
3B
100
AcDbMaterial
  1
ByBlock
 72
     1
 94
      127
  0
MATERIAL
  5
3C
102
{ACAD_REACTORS
330
3B
102
}
330
3B
100
AcDbMaterial
  1
ByLayer
 72
     1
 94
      127
  0
MATERIAL
  5
3E
102
{ACAD_REACTORS
330
3B
102
}
330
3B
100
AcDbMaterial
  1
Global
 72
     1
 94
      127
  0
MLINESTYLE
  5
18
102
{ACAD_REACTORS
330
17
102
}
330
17
100
AcDbMlineStyle
  2
Standard
 70
     0
  3

 62
   256
 51
90.0
 52
90.0
 71
     2
 49
0.5
 62
   256
  6
BYLAYER
 49
-0.5
 62
   256
  6
BYLAYER
  0
ACDBPLACEHOLDER
  5
F
102
{ACAD_REACTORS
330
E
102
}
330
E
  0
VISUALSTYLE
  5
2F
102
{ACAD_REACTORS
330
2A
102
}
330
2A
100
AcDbVisualStyle
  2
2dWireframe
 70
     4
177
     2
291
     0
 71
     0
176
     1
 72
     2
176
     1
 73
     0
176
     1
 90
        0
176
     1
 40
-0.6
176
     1
 41
-30.0
176
     1
 62
     5
 63
     7
421
 16777215
176
     1
 74
     1
176
     1
 91
        4
176
     1
 64
     7
176
     1
 65
   257
176
     1
 75
     1
176
     1
175
     1
176
     1
 42
1.0
176
     1
 92
        0
176
     1
 66
   257
176
     1
 43
1.0
176
     1
 76
     1
176
     1
 77
     6
176
     1
 78
     2
176
     1
 67
     7
176
     1
 79
     5
176
     1
170
     0
176
     1
171
     0
176
     1
290
     0
176
     1
 93
        1
176
     1
 44
0.0
176
     1
173
     0
176
     1
  0
VISUALSTYLE
  5
31
102
{ACAD_REACTORS
330
2A
102
}
330
2A
100
AcDbVisualStyle
  2
3D Hidden
 70
     6
177
     2
291
     0
 71
     1
176
     1
 72
     2
176
     1
 73
     2
176
     1
 90
        0
176
     1
 40
-0.6
176
     1
 41
-30.0
176
     1
 62
     5
 63
     7
421
 16777215
176
     1
 74
     2
176
     1
 91
        2
176
     1
 64
     7
176
     1
 65
   257
176
     1
 75
     2
176
     1
175
     1
176
     1
 42
40.0
176
     1
 92
        0
176
     1
 66
   257
176
     1
 43
1.0
176
     1
 76
     1
176
     1
 77
     6
176
     1
 78
     2
176
     1
 67
     7
176
     1
 79
     3
176
     1
170
     0
176
     1
171
     0
176
     1
290
     0
176
     1
 93
        1
176
     1
 44
0.0
176
     1
173
     0
176
     1
  0
VISUALSTYLE
  5
30
102
{ACAD_REACTORS
330
2A
102
}
330
2A
100
AcDbVisualStyle
  2
3dWireframe
 70
     5
177
     2
291
     0
 71
     0
176
     1
 72
     2
176
     1
 73
     0
176
     1
 90
        0
176
     1
 40
-0.6
176
     1
 41
-30.0
176
     1
 62
     5
 63
     7
421
 16777215
176
     1
 74
     1
176
     1
 91
        4
176
     1
 64
     7
176
     1
 65
   257
176
     1
 75
     1
176
     1
175
     1
176
     1
 42
1.0
176
     1
 92
        0
176
     1
 66
   257
176
     1
 43
1.0
176
     1
 76
     1
176
     1
 77
     6
176
     1
 78
     2
176
     1
 67
     7
176
     1
 79
     5
176
     1
170
     0
176
     1
171
     0
176
     1
290
     0
176
     1
 93
        1
176
     1
 44
0.0
176
     1
173
     0
176
     1
  0
VISUALSTYLE
  5
32
102
{ACAD_REACTORS
330
2A
102
}
330
2A
100
AcDbVisualStyle
  2
Basic
 70
     7
177
     2
291
     1
 71
     1
176
     1
 72
     0
176
     1
 73
     1
176
     1
 90
        0
176
     1
 40
-0.6
176
     1
 41
-30.0
176
     1
 62
     5
 63
     7
421
 16777215
176
     1
 74
     0
176
     1
 91
        4
176
     1
 64
     7
176
     1
 65
   257
176
     1
 75
     1
176
     1
175
     1
176
     1
 42
1.0
176
     1
 92
        8
176
     1
 66
     7
176
     1
 43
1.0
176
     1
 76
     1
176
     1
 77
     6
176
     1
 78
     2
176
     1
 67
     7
176
     1
 79
     5
176
     1
170
     0
176
     1
171
     0
176
     1
290
     0
176
     1
 93
        1
176
     1
 44
0.0
176
     1
173
     0
176
     1
  0
VISUALSTYLE
  5
36
102
{ACAD_REACTORS
330
2A
102
}
330
2A
100
AcDbVisualStyle
  2
Brighten
 70
    12
177
     2
291
     1
 71
     2
176
     1
 72
     2
176
     1
 73
     0
176
     1
 90
        0
176
     1
 40
-0.6
176
     1
 41
-30.0
176
     1
 62
     5
 63
     7
421
 16777215
176
     1
 74
     1
176
     1
 91
        4
176
     1
 64
     7
176
     1
 65
   257
176
     1
 75
     1
176
     1
175
     1
176
     1
 42
1.0
176
     1
 92
        8
176
     1
 66
     7
176
     1
 43
1.0
176
     1
 76
     1
176
     1
 77
     6
176
     1
 78
     2
176
     1
 67
     7
176
     1
 79
     5
176
     1
170
     0
176
     1
171
     0
176
     1
290
     0
176
     1
 93
        1
176
     1
 44
50.0
176
     1
173
     0
176
     1
  0
VISUALSTYLE
  5
3A
102
{ACAD_REACTORS
330
2A
102
}
330
2A
100
AcDbVisualStyle
  2
ColorChange
 70
    16
177
     2
291
     1
 71
     2
176
     1
 72
     2
176
     1
 73
     3
176
     1
 90
        0
176
     1
 40
-0.6
176
     1
 41
-30.0
176
     1
 62
     5
 63
     8
421
  8421504
176
     1
 74
     1
176
     1
 91
        4
176
     1
 64
     7
176
     1
 65
   257
176
     1
 75
     1
176
     1
175
     1
176
     1
 42
1.0
176
     1
 92
        8
176
     1
 66
     8
424
  8421504
176
     1
 43
1.0
176
     1
 76
     1
176
     1
 77
     6
176
     1
 78
     2
176
     1
 67
     7
176
     1
 79
     5
176
     1
170
     0
176
     1
171
     0
176
     1
290
     0
176
     1
 93
        1
176
     1
 44
0.0
176
     1
173
     0
176
     1
  0
VISUALSTYLE
  5
34
102
{ACAD_REACTORS
330
2A
102
}
330
2A
100
AcDbVisualStyle
  2
Conceptual
 70
     9
177
     2
291
     0
 71
     3
176
     1
 72
     2
176
     1
 73
     0
176
     1
 90
        0
176
     1
 40
-0.6
176
     1
 41
-30.0
176
     1
 62
     5
 63
     7
421
 16777215
176
     1
 74
     2
176
     1
 91
        2
176
     1
 64
     7
176
     1
 65
   257
176
     1
 75
     1
176
     1
175
     1
176
     1
 42
40.0
176
     1
 92
        8
176
     1
 66
     7
176
     1
 43
1.0
176
     1
 76
     1
176
     1
 77
     6
176
     1
 78
     2
176
     1
 67
     7
176
     1
 79
     3
176
     1
170
     0
176
     1
171
     0
176
     1
290
     0
176
     1
 93
        1
176
     1
 44
0.0
176
     1
173
     0
176
     1
  0
VISUALSTYLE
  5
35
102
{ACAD_REACTORS
330
2A
102
}
330
2A
100
AcDbVisualStyle
  2
Dim
 70
    11
177
     2
291
     1
 71
     2
176
     1
 72
     2
176
     1
 73
     0
176
     1
 90
        0
176
     1
 40
-0.6
176
     1
 41
-30.0
176
     1
 62
     5
 63
     7
421
 16777215
176
     1
 74
     1
176
     1
 91
        4
176
     1
 64
     7
176
     1
 65
   257
176
     1
 75
     1
176
     1
175
     1
176
     1
 42
1.0
176
     1
 92
        8
176
     1
 66
     7
176
     1
 43
1.0
176
     1
 76
     1
176
     1
 77
     6
176
     1
 78
     2
176
     1
 67
     7
176
     1
 79
     5
176
     1
170
     0
176
     1
171
     0
176
     1
290
     0
176
     1
 93
        1
176
     1
 44
-50.0
176
     1
173
     0
176
     1
  0
VISUALSTYLE
  5
39
102
{ACAD_REACTORS
330
2A
102
}
330
2A
100
AcDbVisualStyle
  2
Facepattern
 70
    15
177
     2
291
     1
 71
     2
176
     1
 72
     2
176
     1
 73
     0
176
     1
 90
        0
176
     1
 40
-0.6
176
     1
 41
-30.0
176
     1
 62
     5
 63
     7
421
 16777215
176
     1
 74
     1
176
     1
 91
        4
176
     1
 64
     7
176
     1
 65
   257
176
     1
 75
     1
176
     1
175
     1
176
     1
 42
1.0
176
     1
 92
        8
176
     1
 66
     7
176
     1
 43
1.0
176
     1
 76
     1
176
     1
 77
     6
176
     1
 78
     2
176
     1
 67
     7
176
     1
 79
     5
176
     1
170
     0
176
     1
171
     0
176
     1
290
     0
176
     1
 93
        1
176
     1
 44
0.0
176
     1
173
     0
176
     1
  0
VISUALSTYLE
  5
2B
102
{ACAD_REACTORS
330
2A
102
}
330
2A
100
AcDbVisualStyle
  2
Flat
 70
     0
177
     2
291
     1
 71
     2
176
     1
 72
     1
176
     1
 73
     1
176
     1
 90
        2
176
     1
 40
-0.6
176
     1
 41
30.0
176
     1
 62
     5
 63
     7
421
 16777215
176
     1
 74
     0
176
     1
 91
        4
176
     1
 64
     7
176
     1
 65
   257
176
     1
 75
     1
176
     1
175
     1
176
     1
 42
1.0
176
     1
 92
        8
176
     1
 66
     7
176
     1
 43
1.0
176
     1
 76
     1
176
     1
 77
     6
176
     1
 78
     2
176
     1
 67
     7
176
     1
 79
     5
176
     1
170
     0
176
     1
171
     0
176
     1
290
     0
176
     1
 93
       13
176
     1
 44
0.0
176
     1
173
     0
176
     1
  0
VISUALSTYLE
  5
2C
102
{ACAD_REACTORS
330
2A
102
}
330
2A
100
AcDbVisualStyle
  2
FlatWithEdges
 70
     1
177
     2
291
     1
 71
     2
176
     1
 72
     1
176
     1
 73
     1
176
     1
 90
        2
176
     1
 40
-0.6
176
     1
 41
30.0
176
     1
 62
     5
 63
     7
421
 16777215
176
     1
 74
     1
176
     1
 91
        4
176
     1
 64
     7
176
     1
 65
   257
176
     1
 75
     1
176
     1
175
     1
176
     1
 42
1.0
176
     1
 92
        0
176
     1
 66
   257
176
     1
 43
1.0
176
     1
 76
     1
176
     1
 77
     6
176
     1
 78
     2
176
     1
 67
     7
176
     1
 79
     5
176
     1
170
     0
176
     1
171
     0
176
     1
290
     0
176
     1
 93
       13
176
     1
 44
0.0
176
     1
173
     0
176
     1
  0
VISUALSTYLE
  5
2D
102
{ACAD_REACTORS
330
2A
102
}
330
2A
100
AcDbVisualStyle
  2
Gouraud
 70
     2
177
     2
291
     1
 71
     2
176
     1
 72
     2
176
     1
 73
     1
176
     1
 90
        2
176
     1
 40
-0.6
176
     1
 41
30.0
176
     1
 62
     5
 63
     7
421
 16777215
176
     1
 74
     0
176
     1
 91
        4
176
     1
 64
     7
176
     1
 65
   257
176
     1
 75
     1
176
     1
175
     1
176
     1
 42
1.0
176
     1
 92
        0
176
     1
 66
     7
176
     1
 43
1.0
176
     1
 76
     1
176
     1
 77
     6
176
     1
 78
     2
176
     1
 67
     7
176
     1
 79
     5
176
     1
170
     0
176
     1
171
     0
176
     1
290
     0
176
     1
 93
       13
176
     1
 44
0.0
176
     1
173
     0
176
     1
  0
VISUALSTYLE
  5
2E
102
{ACAD_REACTORS
330
2A
102
}
330
2A
100
AcDbVisualStyle
  2
GouraudWithEdges
 70
     3
177
     2
291
     1
 71
     2
176
     1
 72
     2
176
     1
 73
     1
176
     1
 90
        2
176
     1
 40
-0.6
176
     1
 41
30.0
176
     1
 62
     5
 63
     7
421
 16777215
176
     1
 74
     1
176
     1
 91
        4
176
     1
 64
     7
176
     1
 65
   257
176
     1
 75
     1
176
     1
175
     1
176
     1
 42
1.0
176
     1
 92
        0
176
     1
 66
   257
176
     1
 43
1.0
176
     1
 76
     1
176
     1
 77
     6
176
     1
 78
     2
176
     1
 67
     7
176
     1
 79
     5
176
     1
170
     0
176
     1
171
     0
176
     1
290
     0
176
     1
 93
       13
176
     1
 44
0.0
176
     1
173
     0
176
     1
  0
VISUALSTYLE
  5
38
102
{ACAD_REACTORS
330
2A
102
}
330
2A
100
AcDbVisualStyle
  2
Linepattern
 70
    14
177
     2
291
     1
 71
     2
176
     1
 72
     2
176
     1
 73
     0
176
     1
 90
        0
176
     1
 40
-0.6
176
     1
 41
-30.0
176
     1
 62
     5
 63
     7
421
 16777215
176
     1
 74
     1
176
     1
 91
        4
176
     1
 64
     7
176
     1
 65
   257
176
     1
 75
     7
176
     1
175
     7
176
     1
 42
1.0
176
     1
 92
        8
176
     1
 66
     7
176
     1
 43
1.0
176
     1
 76
     1
176
     1
 77
     6
176
     1
 78
     2
176
     1
 67
     7
176
     1
 79
     5
176
     1
170
     0
176
     1
171
     0
176
     1
290
     0
176
     1
 93
        1
176
     1
 44
0.0
176
     1
173
     0
176
     1
  0
VISUALSTYLE
  5
33
102
{ACAD_REACTORS
330
2A
102
}
330
2A
100
AcDbVisualStyle
  2
Realistic
 70
     8
177
     2
291
     0
 71
     2
176
     1
 72
     2
176
     1
 73
     0
176
     1
 90
        0
176
     1
 40
-0.6
176
     1
 41
-30.0
176
     1
 62
     5
 63
     7
421
 16777215
176
     1
 74
     1
176
     1
 91
        0
176
     1
 64
     7
176
     1
 65
   257
176
     1
 75
     1
176
     1
175
     1
176
     1
 42
1.0
176
     1
 92
        8
176
     1
 66
     8
424
  7895160
176
     1
 43
1.0
176
     1
 76
     1
176
     1
 77
     6
176
     1
 78
     2
176
     1
 67
     7
176
     1
 79
     5
176
     1
170
     0
176
     1
171
     0
176
     1
290
     0
176
     1
 93
       13
176
     1
 44
0.0
176
     1
173
     0
176
     1
  0
VISUALSTYLE
  5
37
102
{ACAD_REACTORS
330
2A
102
}
330
2A
100
AcDbVisualStyle
  2
Thicken
 70
    13
177
     2
291
     1
 71
     2
176
     1
 72
     2
176
     1
 73
     0
176
     1
 90
        0
176
     1
 40
-0.6
176
     1
 41
-30.0
176
     1
 62
     5
 63
     7
421
 16777215
176
     1
 74
     1
176
     1
 91
        4
176
     1
 64
     7
176
     1
 65
   257
176
     1
 75
     1
176
     1
175
     1
176
     1
 42
1.0
176
     1
 92
       12
176
     1
 66
     7
176
     1
 43
1.0
176
     1
 76
     1
176
     1
 77
     6
176
     1
 78
     2
176
     1
 67
     7
176
     1
 79
     5
176
     1
170
     0
176
     1
171
     0
176
     1
290
     0
176
     1
 93
        1
176
     1
 44
0.0
176
     1
173
     0
176
     1
  0
ENDSEC
  0
EOF
