0
SECTION
2
HEADER
9
$INSUNITS
70
4
9
$ACADVER
1
AC1014
9
$HANDSEED
5
FFFF
0
ENDSEC
0
SECTION
2
TABLES
0
TABLE
2
VPORT
5
8
100
AcDbSymbolTable
0
ENDTAB
0
TABLE
2
LTYPE
5
5
100
AcDbSymbolTable
0
LTYPE
5
14
100
AcDbSymbolTableRecord
100
AcDbLinetypeTableRecord
2
BYBLOCK
70
0
0
LTYPE
5
15
100
AcDbSymbolTableRecord
100
AcDbLinetypeTableRecord
2
BYLAYER
70
0
0
ENDTAB
0
TABLE
2
LAYER
5
2
100
AcDbSymbolTable
70
2
0
LAYER
5
50
100
AcDbSymbolTableRecord
100
AcDbLayerTableRecord
2
0
70
0
6
CONTINUOUS
0
ENDTAB
0
TABLE
2
STYLE
5
3
100
AcDbSymbolTable
70
1
0
STYLE
5
11
100
AcDbSymbolTableRecord
100
AcDbTextStyleTableRecord
2
STANDARD
70
0
0
ENDTAB
0
TABLE
2
VIEW
5
6
100
AcDbSymbolTable
70
0
0
ENDTAB
0
TABLE
2
UCS
5
7
100
AcDbSymbolTable
70
0
0
ENDTAB
0
TABLE
2
APPID
5
9
100
AcDbSymbolTable
70
2
0
APPID
5
12
100
AcDbSymbolTableRecord
100
AcDbRegAppTableRecord
2
ACAD
70
0
0
ENDTAB
0
TABLE
2
DIMSTYLE
5
A
100
AcDbSymbolTable
70
1
0
ENDTAB
0
TABLE
2
BLOCK_RECORD
5
1
100
AcDbSymbolTable
70
1
0
BLOCK_RECORD
5
1F
100
AcDbSymbolTableRecord
100
AcDbBlockTableRecord
2
*MODEL_SPACE
0
BLOCK_RECORD
5
1B
100
AcDbSymbolTableRecord
100
AcDbBlockTableRecord
2
*PAPER_SPACE
0
ENDTAB
0
ENDSEC
0
SECTION
2
BLOCKS
0
BLOCK
5
20
100
AcDbEntity
100
AcDbBlockBegin
2
*MODEL_SPACE
0
ENDBLK
5
21
100
AcDbEntity
100
AcDbBlockEnd
0
BLOCK
5
1C
100
AcDbEntity
100
AcDbBlockBegin
2
*PAPER_SPACE
0
ENDBLK
5
1D
100
AcDbEntity
100
AcDbBlockEnd
0
ENDSEC
0
SECTION
2
ENTITIES
0
LWPOLYLINE
5
100
100
AcDbEntity
8
0
100
AcDbPolyline
90
28
70
1
43
0.0
10
13.499999999999996
20
-50
42
-0.41421356237309404
10
11.499999999999996
20
-48
10
11.5
20
-32.20615367098857
42
0.41134262241143327
10
9.5196235689520101
20
-30.206249944420314
10
-9.4803764310479863
20
-30.019817065109656
42
0.41709034237397408
10
-11.5
20
-32.019720791677912
10
-11.500000000000011
20
-48.000000000000007
42
-0.41421356237309404
10
-13.499999999999996
20
-50
10
-16
20
-50
42
-0.41421356237309503
10
-20
20
-46
10
-19.999999999999996
20
5.999999999999992
42
0.23606797749978967
10
-22
20
9.9999999999999911
42
0.23606797749978994
10
-20
20
13.999999999999995
10
-20
20
29.999999999999993
42
0.23606797749978947
10
-22
20
33.999999999999993
42
0.23606797749978936
10
-20
20
38
10
-19.999999999999996
20
48.000000000000007
42
-0.41421356237309503
10
-16
20
52
10
16
20
51.999999999999993
42
-0.41421356237309437
10
20
20
48.000000000000007
10
20
20
38
42
0.23606797749978947
10
22
20
33.999999999999993
42
0.23606797749978889
10
19.999999999999996
20
29.999999999999993
10
19.999999999999996
20
13.999999999999988
42
0.23606797749978936
10
22
20
9.9999999999999893
42
0.2360679774997903
10
20
20
5.9999999999999876
10
20.000000000000004
20
-46
42
-0.41421356237309503
10
16
20
-50
0
LWPOLYLINE
5
101
100
AcDbEntity
8
0
100
AcDbPolyline
90
5
70
1
43
0.0
10
4.5591585311642184
20
38.596796705636748
10
1.9999999999999885
20
37.236067977499772
10
1.9999999999999907
20
31.236067977499779
10
4.9999999999999893
20
32.831196272484227
10
4.9999999999999858
20
38.331912427779066
42
0.56577277818777139
0
LWPOLYLINE
5
102
100
AcDbEntity
8
0
100
AcDbPolyline
90
6
70
1
43
0.0
10
9.4999999999999982
20
-6.2238887149608857
10
6.9408414688357656
20
-4.8631599868239226
42
0.56577277818776983
10
6.4999999999999991
20
-5.128044264681602
10
6.4999999999999982
20
-12.628760419976448
10
9.0591585311642309
20
-13.989489148113407
42
0.56577277818777039
10
9.4999999999999964
20
-13.72460487025573
0
LWPOLYLINE
5
103
100
AcDbEntity
8
0
100
AcDbPolyline
90
6
70
1
43
0.0
10
-6.9408414688357656
20
-4.8631599868239235
10
-9.4999999999999964
20
-6.2238887149608857
10
-9.5
20
-13.72460487025573
42
0.56577277818777139
10
-9.0591585311642309
20
-13.989489148113407
10
-6.4999999999999991
20
-12.628760419976448
10
-6.4999999999999991
20
-5.1280442646816002
42
0.56577277818776961
0
LWPOLYLINE
5
104
100
AcDbEntity
8
0
100
AcDbPolyline
90
4
70
1
43
0.0
10
-1.9999999999999996
20
10.23606797749979
10
-4.9999999999999982
20
11.831196272484226
10
-4.9999999999999991
20
5.1789484679778921
42
0.80188144425757768
10
-4.4283251053555057
20
5.0516977248763171
0
LWPOLYLINE
5
105
100
AcDbEntity
8
0
100
AcDbPolyline
90
4
70
1
43
0.0
10
4.9999999999999956
20
22.831196272484217
10
4.9999999999999911
20
30.831196272484224
10
1.9999999999999929
20
29.236067977499779
10
1.9999999999999951
20
21.236067977499783
0
LWPOLYLINE
5
106
100
AcDbEntity
8
0
100
AcDbPolyline
90
4
70
1
43
0.0
10
-9.5
20
16.223888714960886
10
-6.4999999999999982
20
14.62876041997645
10
-6.4999999999999964
20
20.628760419976444
10
-9.4999999999999964
20
22.223888714960886
0
LWPOLYLINE
5
107
100
AcDbEntity
8
0
100
AcDbPolyline
90
5
70
1
43
0.0
10
-9.4999999999999964
20
14.223888714960884
10
-9.5
20
6.2238887149608857
10
-6.9408414688357656
20
4.8631599868239235
42
0.56577277818777016
10
-6.4999999999999991
20
5.128044264681602
10
-6.4999999999999982
20
12.628760419976448
0
LWPOLYLINE
5
108
100
AcDbEntity
8
0
100
AcDbPolyline
90
4
70
1
43
0.0
10
-1.9999999999999996
20
12.236067977499792
10
-2
20
18.236067977499786
10
-4.9999999999999982
20
19.831196272484231
10
-4.9999999999999982
20
13.831196272484227
0
LWPOLYLINE
5
109
100
AcDbEntity
8
0
100
AcDbPolyline
90
5
70
1
43
0.0
10
-9.5000000000000036
20
25.223888714960871
10
-6.5000000000000018
20
23.62876041997643
10
-6.5000000000000053
20
31.628760419976434
10
-9.059158531164238
20
32.989489148113393
42
0.5657727781877725
10
-9.5000000000000089
20
32.724604870255718
0
LWPOLYLINE
5
110
100
AcDbEntity
8
0
100
AcDbPolyline
90
5
70
1
43
0.0
10
9.4999999999999929
20
25.223888714960879
10
9.4999999999999893
20
32.724604870255725
42
0.56577277818776939
10
9.059158531164222
20
32.9894891481134
10
6.4999999999999902
20
31.628760419976444
10
6.4999999999999938
20
23.628760419976437
0
LWPOLYLINE
5
111
100
AcDbEntity
8
0
100
AcDbPolyline
90
4
70
1
43
0.0
10
-2.0000000000000062
20
29.236067977499779
10
-5.0000000000000071
20
30.831196272484217
10
-5.0000000000000018
20
22.831196272484213
10
-2.000000000000004
20
21.236067977499783
0
LWPOLYLINE
5
112
100
AcDbEntity
8
0
100
AcDbPolyline
90
5
70
1
43
0.0
10
-2.0000000000000129
20
37.236067977499772
10
-4.5591585311642371
20
38.596796705636734
42
0.56577277818777205
10
-5.0000000000000071
20
38.331912427779059
10
-5.0000000000000071
20
32.83119627248422
10
-2.0000000000000084
20
31.236067977499779
0
CIRCLE
5
113
100
AcDbEntity
8
0
100
AcDbCircle
10
15.250000000000002
20
-20
30
0
40
1.5999999999999992
0
CIRCLE
5
114
100
AcDbEntity
8
0
100
AcDbCircle
10
15.250000000000002
20
-40
30
0
40
1.5500000000000003
0
CIRCLE
5
115
100
AcDbEntity
8
0
100
AcDbCircle
10
-9.9999999999999982
20
46.79999999999999
30
0
40
1.5499999999999969
0
CIRCLE
5
116
100
AcDbEntity
8
0
100
AcDbCircle
10
-15.250000000000004
20
-20
30
0
40
1.6000000000000014
0
CIRCLE
5
117
100
AcDbEntity
8
0
100
AcDbCircle
10
10
20
46.79999999999999
30
0
40
1.5499999999999958
0
CIRCLE
5
118
100
AcDbEntity
8
0
100
AcDbCircle
10
-15.250000000000002
20
-40
30
0
40
1.5500000000000003
0
LWPOLYLINE
5
119
100
AcDbEntity
8
0
100
AcDbPolyline
90
5
70
1
43
0.0
10
6.9408414688357656
20
4.8631599868239235
10
9.4999999999999982
20
6.2238887149608857
10
9.5
20
14.223888714960884
10
6.4999999999999982
20
12.628760419976448
10
6.4999999999999991
20
5.1280442646816002
42
0.56577277818776961
0
LWPOLYLINE
5
120
100
AcDbEntity
8
0
100
AcDbPolyline
90
4
70
1
43
0.0
10
4.9999999999999991
20
13.831196272484227
10
4.9999999999999982
20
19.831196272484231
10
2.0000000000000018
20
18.236067977499786
10
2.0000000000000009
20
12.236067977499792
0
LWPOLYLINE
5
121
100
AcDbEntity
8
0
100
AcDbPolyline
90
4
70
1
43
0.0
10
9.5
20
16.223888714960886
10
9.5
20
22.223888714960886
10
6.4999999999999982
20
20.628760419976444
10
6.4999999999999982
20
14.62876041997645
0
LWPOLYLINE
5
122
100
AcDbEntity
8
0
100
AcDbPolyline
90
4
70
1
43
0.0
10
-4.9999999999999991
20
-5.1789484679778948
10
-4.9999999999999991
20
-11.831196272484226
10
-2
20
-10.23606797749979
10
-4.4283251053555048
20
-5.0516977248763206
42
0.80188144425757768
0
LWPOLYLINE
5
123
100
AcDbEntity
8
0
100
AcDbPolyline
90
4
70
1
43
0.0
10
1.9999999999999996
20
-10.23606797749979
10
4.9999999999999982
20
-11.831196272484226
10
4.9999999999999991
20
-5.1789484679778921
42
0.80188144425757735
10
4.4283251053555066
20
-5.0516977248763171
0
LWPOLYLINE
5
124
100
AcDbEntity
8
0
100
AcDbPolyline
90
5
70
1
43
0.0
10
4.9999999999999982
20
-13.831196272484227
10
1.9999999999999996
20
-12.236067977499792
10
2
20
-18.236067977499786
10
4.55915853116423
20
-19.596796705636752
42
0.56577277818777083
10
4.9999999999999973
20
-19.331912427779073
0
LWPOLYLINE
5
125
100
AcDbEntity
8
0
100
AcDbPolyline
90
5
70
1
43
0.0
10
-4.9999999999999991
20
-13.831196272484227
10
-4.9999999999999982
20
-19.33191242777907
42
0.56577277818777039
10
-4.55915853116423
20
-19.596796705636748
10
-2.0000000000000018
20
-18.236067977499786
10
-2.0000000000000009
20
-12.236067977499792
0
LWPOLYLINE
5
126
100
AcDbEntity
8
0
100
AcDbPolyline
90
4
70
1
43
0.0
10
4.9999999999999991
20
5.1789484679778948
10
4.9999999999999991
20
11.831196272484226
10
2
20
10.23606797749979
10
4.4283251053555048
20
5.0516977248763206
42
0.80188144425757768
0
LWPOLYLINE
5
127
100
AcDbEntity
8
0
100
AcDbPolyline
90
5
70
1
43
0.0
10
9.0591585311642202
20
32.9894891481134
42
-0.56577277818776939
10
9.4999999999999893
20
32.724604870255725
10
9.4999999999999929
20
25.223888714960879
10
6.4999999999999938
20
23.628760419976437
10
6.4999999999999902
20
31.628760419976444
0
LWPOLYLINE
5
128
100
AcDbEntity
8
0
100
AcDbPolyline
90
5
70
1
43
0.0
10
-9.5000000000000071
20
32.724604870255718
42
-0.56577277818777039
10
-9.059158531164238
20
32.989489148113393
10
-6.5000000000000053
20
31.628760419976434
10
-6.5000000000000018
20
23.62876041997643
10
-9.5000000000000036
20
25.223888714960871
0
LWPOLYLINE
5
129
100
AcDbEntity
8
0
100
AcDbPolyline
90
5
70
1
43
0.0
10
-5.0000000000000053
20
38.331912427779059
42
-0.56577277818777083
10
-4.5591585311642371
20
38.596796705636734
10
-2.0000000000000129
20
37.236067977499772
10
-2.0000000000000084
20
31.236067977499779
10
-5.0000000000000071
20
32.83119627248422
0
LWPOLYLINE
5
130
100
AcDbEntity
8
0
100
AcDbPolyline
90
5
70
1
43
0.0
10
4.5591585311642211
20
38.596796705636748
42
-0.56577277818776206
10
4.9999999999999858
20
38.331912427779066
10
4.9999999999999893
20
32.831196272484227
10
1.9999999999999907
20
31.236067977499779
10
1.9999999999999885
20
37.236067977499772
0
LWPOLYLINE
5
131
100
AcDbEntity
8
0
100
AcDbPolyline
90
6
70
1
43
0.0
10
-9.0591585311642309
20
-13.989489148113407
42
-0.56577277818777039
10
-9.4999999999999982
20
-13.72460487025573
10
-9.4999999999999982
20
-6.2238887149608857
10
-6.9408414688357656
20
-4.8631599868239226
42
-0.56577277818777083
10
-6.5
20
-5.1280442646816002
10
-6.4999999999999991
20
-12.628760419976448
0
LWPOLYLINE
5
132
100
AcDbEntity
8
0
100
AcDbPolyline
90
6
70
1
43
0.0
10
9.4999999999999982
20
-13.72460487025573
42
-0.56577277818777039
10
9.0591585311642309
20
-13.989489148113407
10
6.4999999999999982
20
-12.628760419976448
10
6.4999999999999991
20
-5.128044264681602
42
-0.56577277818776761
10
6.9408414688357647
20
-4.8631599868239226
10
9.4999999999999982
20
-6.2238887149608857
0
LWPOLYLINE
5
133
100
AcDbEntity
8
0
100
AcDbPolyline
90
5
70
1
43
0.0
10
4.9999999999999991
20
-19.331912427779073
42
-0.56577277818776672
10
4.55915853116423
20
-19.596796705636752
10
2
20
-18.236067977499786
10
1.9999999999999996
20
-12.236067977499792
10
4.9999999999999982
20
-13.831196272484229
0
LWPOLYLINE
5
134
100
AcDbEntity
8
0
100
AcDbPolyline
90
5
70
1
43
0.0
10
-4.55915853116423
20
-19.596796705636748
42
-0.56577277818777039
10
-4.9999999999999973
20
-19.33191242777907
10
-4.9999999999999991
20
-13.831196272484229
10
-2.0000000000000004
20
-12.236067977499792
10
-2.0000000000000018
20
-18.236067977499786
0
LWPOLYLINE
5
135
100
AcDbEntity
8
0
100
AcDbPolyline
90
5
70
1
43
0.0
10
-6.4999999999999982
20
5.1280442646816029
42
-0.56577277818777139
10
-6.9408414688357656
20
4.8631599868239235
10
-9.5
20
6.2238887149608848
10
-9.4999999999999982
20
14.223888714960884
10
-6.4999999999999982
20
12.628760419976448
0
LWPOLYLINE
5
136
100
AcDbEntity
8
0
100
AcDbPolyline
90
5
70
1
43
0.0
10
6.9408414688357656
20
4.8631599868239226
42
-0.56577277818777083
10
6.5
20
5.1280442646816002
10
6.4999999999999982
20
12.628760419976448
10
9.5
20
14.223888714960884
10
9.4999999999999982
20
6.2238887149608857
0
LWPOLYLINE
5
137
100
AcDbEntity
8
0
100
AcDbPolyline
90
4
70
1
43
0.0
10
-4.9999999999999991
20
-5.1789484679778948
42
-0.8018814442575779
10
-4.4283251053555048
20
-5.0516977248763206
10
-2
20
-10.23606797749979
10
-4.9999999999999991
20
-11.831196272484227
0
LWPOLYLINE
5
138
100
AcDbEntity
8
0
100
AcDbPolyline
90
4
70
1
43
0.0
10
-4.4283251053555066
20
5.0516977248763171
42
-0.80188144425757768
10
-5
20
5.1789484679778921
10
-4.9999999999999982
20
11.831196272484227
10
-1.9999999999999996
20
10.23606797749979
0
LWPOLYLINE
5
139
100
AcDbEntity
8
0
100
AcDbPolyline
90
4
70
1
43
0.0
10
4.4283251053555066
20
-5.0516977248763171
42
-0.80188144425757768
10
5
20
-5.1789484679778921
10
4.9999999999999982
20
-11.831196272484227
10
1.9999999999999996
20
-10.23606797749979
0
LWPOLYLINE
5
140
100
AcDbEntity
8
0
100
AcDbPolyline
90
4
70
1
43
0.0
10
4.9999999999999991
20
5.1789484679778948
42
-0.8018814442575779
10
4.4283251053555048
20
5.0516977248763206
10
2
20
10.23606797749979
10
4.9999999999999991
20
11.831196272484227
0
LWPOLYLINE
5
141
100
AcDbEntity
8
0
100
AcDbPolyline
90
28
70
1
43
0.0
10
13.499999999999996
20
-50
42
-0.41421356237309503
10
11.499999999999996
20
-48
10
11.499999999999996
20
-32.20615367098857
42
0.41134262241143393
10
9.5196235689520101
20
-30.206249944420307
10
-9.4803764310479863
20
-30.019817065109649
42
0.4170903423739733
10
-11.499999999999995
20
-32.019720791677912
10
-11.499999999999996
20
-48.000000000000007
42
-0.4142135623730947
10
-13.499999999999996
20
-50.000000000000007
10
-16
20
-50
42
-0.41421356237309503
10
-20
20
-46
10
-20
20
5.9999999999999876
42
0.23606797749978992
10
-22
20
9.9999999999999911
42
0.23606797749979003
10
-20
20
13.999999999999993
10
-20
20
29.999999999999993
42
0.23606797749978986
10
-22
20
33.999999999999993
42
0.23606797749978972
10
-20
20
38
10
-20.000000000000004
20
48.000000000000007
42
-0.4142135623730952
10
-15.999999999999998
20
52.000000000000014
10
16
20
51.999999999999993
42
-0.41421356237309437
10
20
20
48.000000000000007
10
20
20
38.000000000000007
42
0.23606797749979019
10
22
20
33.999999999999993
42
0.23606797749979011
10
19.999999999999996
20
29.999999999999986
10
20
20
13.999999999999986
42
0.23606797749978972
10
22
20
9.9999999999999911
42
0.23606797749978983
10
20
20
5.9999999999999876
10
20.000000000000004
20
-46
42
-0.41421356237309492
10
16.000000000000004
20
-50
0
LWPOLYLINE
5
142
100
AcDbEntity
8
0
100
AcDbPolyline
90
4
70
1
43
0.0
10
4.9999999999999956
20
22.831196272484217
10
4.9999999999999911
20
30.831196272484224
10
1.9999999999999929
20
29.236067977499779
10
1.9999999999999951
20
21.236067977499783
0
LWPOLYLINE
5
143
100
AcDbEntity
8
0
100
AcDbPolyline
90
4
70
1
43
0.0
10
-9.5
20
16.223888714960886
10
-6.4999999999999982
20
14.628760419976448
10
-6.4999999999999964
20
20.628760419976444
10
-9.4999999999999964
20
22.223888714960886
0
LWPOLYLINE
5
144
100
AcDbEntity
8
0
100
AcDbPolyline
90
4
70
1
43
0.0
10
-1.9999999999999998
20
12.236067977499792
10
-2
20
18.236067977499786
10
-4.9999999999999973
20
19.831196272484231
10
-4.9999999999999982
20
13.831196272484227
0
LWPOLYLINE
5
145
100
AcDbEntity
8
0
100
AcDbPolyline
90
4
70
1
43
0.0
10
-2.0000000000000062
20
29.236067977499779
10
-5.0000000000000071
20
30.831196272484217
10
-5.0000000000000018
20
22.831196272484213
10
-2.000000000000004
20
21.236067977499783
0
CIRCLE
5
146
100
AcDbEntity
8
0
100
AcDbCircle
10
15.250000000000002
20
-20
30
0
40
1.5999999999999992
0
CIRCLE
5
147
100
AcDbEntity
8
0
100
AcDbCircle
10
15.250000000000002
20
-40
30
0
40
1.5500000000000003
0
CIRCLE
5
148
100
AcDbEntity
8
0
100
AcDbCircle
10
-9.9999999999999982
20
46.79999999999999
30
0
40
1.5499999999999969
0
CIRCLE
5
149
100
AcDbEntity
8
0
100
AcDbCircle
10
-15.250000000000004
20
-20
30
0
40
1.6000000000000014
0
CIRCLE
5
150
100
AcDbEntity
8
0
100
AcDbCircle
10
10
20
46.79999999999999
30
0
40
1.5499999999999958
0
CIRCLE
5
151
100
AcDbEntity
8
0
100
AcDbCircle
10
-15.250000000000002
20
-40
30
0
40
1.5500000000000003
0
LWPOLYLINE
5
152
100
AcDbEntity
8
0
100
AcDbPolyline
90
4
70
1
43
0.0
10
4.9999999999999991
20
13.831196272484227
10
4.9999999999999982
20
19.831196272484231
10
2.0000000000000018
20
18.236067977499786
10
2.0000000000000009
20
12.236067977499792
0
LWPOLYLINE
5
153
100
AcDbEntity
8
0
100
AcDbPolyline
90
4
70
1
43
0.0
10
9.5
20
16.223888714960886
10
9.5
20
22.223888714960886
10
6.4999999999999982
20
20.628760419976444
10
6.4999999999999982
20
14.628760419976448
0
ENDSEC
0
SECTION
2
OBJECTS
0
DICTIONARY
5
C
100
AcDbDictionary
3
ACAD_GROUP
350
D
3
ACAD_MLINESTYLE
350
17
0
DICTIONARY
5
D
100
AcDbDictionary
0
DICTIONARY
5
1A
330
C
100
AcDbDictionary
0
DICTIONARY
5
17
100
AcDbDictionary
0
ENDSEC
0
EOF
