0
SECTION
2
HEADER
9
$INSUNITS
70
4
9
$ACADVER
1
AC1014
9
$HANDSEED
5
FFFF
0
ENDSEC
0
SECTION
2
TABLES
0
TABLE
2
VPORT
5
8
100
AcDbSymbolTable
0
ENDTAB
0
TABLE
2
LTYPE
5
5
100
AcDbSymbolTable
0
LTYPE
5
14
100
AcDbSymbolTableRecord
100
AcDbLinetypeTableRecord
2
BYBLOCK
70
0
0
LTYPE
5
15
100
AcDbSymbolTableRecord
100
AcDbLinetypeTableRecord
2
BYLAYER
70
0
0
ENDTAB
0
TABLE
2
LAYER
5
2
100
AcDbSymbolTable
70
2
0
LAYER
5
50
100
AcDbSymbolTableRecord
100
AcDbLayerTableRecord
2
0
70
0
6
CONTINUOUS
0
ENDTAB
0
TABLE
2
STYLE
5
3
100
AcDbSymbolTable
70
1
0
STYLE
5
11
100
AcDbSymbolTableRecord
100
AcDbTextStyleTableRecord
2
STANDARD
70
0
0
ENDTAB
0
TABLE
2
VIEW
5
6
100
AcDbSymbolTable
70
0
0
ENDTAB
0
TABLE
2
UCS
5
7
100
AcDbSymbolTable
70
0
0
ENDTAB
0
TABLE
2
APPID
5
9
100
AcDbSymbolTable
70
2
0
APPID
5
12
100
AcDbSymbolTableRecord
100
AcDbRegAppTableRecord
2
ACAD
70
0
0
ENDTAB
0
TABLE
2
DIMSTYLE
5
A
100
AcDbSymbolTable
70
1
0
ENDTAB
0
TABLE
2
BLOCK_RECORD
5
1
100
AcDbSymbolTable
70
1
0
BLOCK_RECORD
5
1F
100
AcDbSymbolTableRecord
100
AcDbBlockTableRecord
2
*MODEL_SPACE
0
BLOCK_RECORD
5
1B
100
AcDbSymbolTableRecord
100
AcDbBlockTableRecord
2
*PAPER_SPACE
0
ENDTAB
0
ENDSEC
0
SECTION
2
BLOCKS
0
BLOCK
5
20
100
AcDbEntity
100
AcDbBlockBegin
2
*MODEL_SPACE
0
ENDBLK
5
21
100
AcDbEntity
100
AcDbBlockEnd
0
BLOCK
5
1C
100
AcDbEntity
100
AcDbBlockBegin
2
*PAPER_SPACE
0
ENDBLK
5
1D
100
AcDbEntity
100
AcDbBlockEnd
0
ENDSEC
0
SECTION
2
ENTITIES
0
CIRCLE
5
100
100
AcDbEntity
8
0
100
AcDbCircle
10
15.250000000000002
20
40
30
0
40
1.5500000000000003
0
CIRCLE
5
101
100
AcDbEntity
8
0
100
AcDbCircle
10
-15.250000000000002
20
40
30
0
40
1.5499999999999934
0
LWPOLYLINE
5
102
100
AcDbEntity
8
0
100
AcDbPolyline
90
6
70
1
43
0.0
10
4.9999999999999982
20
-11.165484479544022
10
4.9999999999999991
20
-5.6281991998091137
42
0.80188144425757524
10
4.237766807140674
20
-5.4585315423403475
10
2.1612848272400842
20
-9.8917317686870092
42
0.39945572392439771
10
2.3357293949850511
20
-10.414578463299344
10
4.4122113748856409
20
-11.518663516687591
42
0.56577277818777172
0
CIRCLE
5
103
100
AcDbEntity
8
0
100
AcDbCircle
10
10
20
46.79999999999999
30
0
40
1.6000000000000014
0
CIRCLE
5
104
100
AcDbEntity
8
0
100
AcDbCircle
10
-9.9999999999999982
20
46.79999999999999
30
0
40
1.6000000000000003
0
CIRCLE
5
105
100
AcDbEntity
8
0
100
AcDbCircle
10
30.106522346290625
20
-51.924967769597991
30
0
40
1.6000000000000014
0
CIRCLE
5
106
100
AcDbEntity
8
0
100
AcDbCircle
10
-30.106522346290646
20
51.924967769597792
30
0
40
1.6000000000000014
0
CIRCLE
5
107
100
AcDbEntity
8
0
100
AcDbCircle
10
-30.106522346290618
20
-51.924967769597991
30
0
40
1.6000000000000014
0
CIRCLE
5
108
100
AcDbEntity
8
0
100
AcDbCircle
10
-15.250000000000002
20
-40
30
0
40
1.549999999999998
0
CIRCLE
5
109
100
AcDbEntity
8
0
100
AcDbCircle
10
30.106522346290649
20
51.924967769597785
30
0
40
1.6000000000000014
0
CIRCLE
5
110
100
AcDbEntity
8
0
100
AcDbCircle
10
15.250000000000002
20
-40
30
0
40
1.5500000000000025
0
CIRCLE
5
111
100
AcDbEntity
8
0
100
AcDbCircle
10
4.3321008227120172
20
-31.23646888779561
30
0
40
1.6000000000000003
0
CIRCLE
5
112
100
AcDbEntity
8
0
100
AcDbCircle
10
-4.3321008227120199
20
-31.236468887795606
30
0
40
1.6000000000000003
0
LWPOLYLINE
5
113
100
AcDbEntity
8
0
100
AcDbPolyline
90
8
70
1
43
0.0
10
2.0000000000000013
20
17.995723729888763
10
2.0000000000000009
20
12.901779770440001
42
0.56577277818776772
10
2.5877886251143556
20
12.548600733296427
10
4.7877886251143531
20
13.718361482951682
42
0.27732454405983975
10
4.9999999999999991
20
14.071540520095255
10
4.9999999999999982
20
19.165484479544016
42
0.56577277818776928
10
4.4122113748856426
20
19.518663516687589
10
2.2122113748856447
20
18.348902767032335
42
0.27732454405983881
0
LWPOLYLINE
5
114
100
AcDbEntity
8
0
100
AcDbPolyline
90
4
70
1
43
0.0
10
18.100000000000005
20
-20
42
-0.99999999999999989
10
19.900000000000002
20
-20
10
19.900000000000002
20
-24
42
-0.99999999999999989
10
18.100000000000005
20
-24
0
LWPOLYLINE
5
115
100
AcDbEntity
8
0
100
AcDbPolyline
90
8
70
1
43
0.0
10
6.4999999999999982
20
20.388416172365424
10
6.4999999999999982
20
15.294472212916656
42
0.56577277818776928
10
7.0877886251143547
20
14.941293175773085
10
9.2877886251143558
20
16.111053925428337
42
0.27732454405983908
10
9.5
20
16.464232962571909
10
9.5
20
21.558176922020678
42
0.56577277818776928
10
8.9122113748856453
20
21.911355959164251
10
6.7122113748856425
20
20.741595209508997
42
0.27732454405983908
0
LWPOLYLINE
5
116
100
AcDbEntity
8
0
100
AcDbPolyline
90
6
70
1
43
0.0
10
4.4122113748856417
20
11.518663516687591
10
2.3357293949850511
20
10.414578463299344
42
0.3994557239243981
10
2.1612848272400855
20
9.8917317686870092
10
4.237766807140674
20
5.4585315423403475
42
0.80188144425757524
10
4.9999999999999991
20
5.6281991998091137
10
4.9999999999999991
20
11.165484479544022
42
0.56577277818777172
0
LWPOLYLINE
5
117
100
AcDbEntity
8
0
100
AcDbPolyline
90
8
70
1
43
0.0
10
-2.0000000000000013
20
-17.995723729888763
10
-2.0000000000000009
20
-12.901779770439997
42
0.56577277818776961
10
-2.5877886251143556
20
-12.548600733296428
10
-4.787788625114354
20
-13.718361482951682
42
0.27732454405983908
10
-4.9999999999999991
20
-14.071540520095255
10
-4.9999999999999982
20
-19.165484479544016
42
0.5657727781877685
10
-4.4122113748856435
20
-19.518663516687589
10
-2.2122113748856447
20
-18.348902767032335
42
0.27732454405983897
0
LWPOLYLINE
5
118
100
AcDbEntity
8
0
100
AcDbPolyline
90
6
70
1
43
0.0
10
-4.4122113748856417
20
-11.518663516687591
10
-2.3357293949850511
20
-10.414578463299344
42
0.39945572392439793
10
-2.1612848272400851
20
-9.8917317686870092
10
-4.237766807140674
20
-5.4585315423403475
42
0.80188144425757524
10
-4.9999999999999991
20
-5.6281991998091137
10
-4.9999999999999991
20
-11.165484479544022
42
0.56577277818777172
0
LWPOLYLINE
5
119
100
AcDbEntity
8
0
100
AcDbPolyline
90
8
70
1
43
0.0
10
-6.4999999999999991
20
-20.388416172365424
10
-6.4999999999999991
20
-15.294472212916656
42
0.56577277818777083
10
-7.0877886251143574
20
-14.941293175773085
10
-9.2877886251143558
20
-16.111053925428337
42
0.27732454405983847
10
-9.5
20
-16.464232962571909
10
-9.5
20
-21.558176922020678
42
0.56577277818776928
10
-8.9122113748856453
20
-21.911355959164251
10
-6.7122113748856425
20
-20.741595209508997
42
0.27732454405983847
0
LWPOLYLINE
5
120
100
AcDbEntity
8
0
100
AcDbPolyline
90
8
70
1
43
0.0
10
2.212211374885642
20
-18.348902767032335
10
4.4122113748856409
20
-19.518663516687589
42
0.56577277818777016
10
4.9999999999999973
20
-19.165484479544016
10
4.9999999999999982
20
-14.071540520095255
42
0.27732454405983814
10
4.7877886251143558
20
-13.718361482951682
10
2.5877886251143556
20
-12.548600733296428
42
0.56577277818776928
10
1.9999999999999998
20
-12.901779770440001
10
2
20
-17.995723729888763
42
0.2773245440598377
0
LWPOLYLINE
5
121
100
AcDbEntity
8
0
100
AcDbPolyline
90
8
70
1
43
0.0
10
6.7122113748856407
20
-20.741595209508993
10
8.91221137488564
20
-21.911355959164247
42
0.56577277818777083
10
9.4999999999999982
20
-21.558176922020674
10
9.4999999999999982
20
-16.464232962571913
42
0.27732454405983847
10
9.2877886251143558
20
-16.11105392542834
10
7.0877886251143547
20
-14.941293175773087
42
0.56577277818777105
10
6.4999999999999982
20
-15.294472212916656
10
6.4999999999999982
20
-20.388416172365421
42
0.27732454405983781
0
LWPOLYLINE
5
122
100
AcDbEntity
8
0
100
AcDbPolyline
90
4
70
1
43
0.0
10
-18.100000000000005
20
-24
42
-0.99999999999999989
10
-19.900000000000002
20
-24
10
-19.900000000000002
20
-20
42
-0.99999999999999989
10
-18.100000000000005
20
-20
0
LWPOLYLINE
5
123
100
AcDbEntity
8
0
100
AcDbPolyline
90
8
70
1
43
0.0
10
-4.9999999999999973
20
19.165484479544016
10
-4.9999999999999982
20
14.071540520095255
42
0.27732454405983908
10
-4.787788625114354
20
13.718361482951682
10
-2.5877886251143556
20
12.548600733296427
42
0.56577277818776928
10
-1.9999999999999998
20
12.901779770439997
10
-2.0000000000000004
20
17.995723729888763
42
0.27732454405983953
10
-2.2122113748856442
20
18.348902767032335
10
-4.4122113748856417
20
19.518663516687589
42
0.56577277818776928
0
LWPOLYLINE
5
124
100
AcDbEntity
8
0
100
AcDbPolyline
90
8
70
1
43
0.0
10
-6.7122113748856442
20
20.741595209508997
10
-8.91221137488564
20
21.911355959164247
42
0.56577277818777172
10
-9.5
20
21.558176922020674
10
-9.4999999999999982
20
16.464232962571909
42
0.27732454405983908
10
-9.287788625114354
20
16.111053925428337
10
-7.0877886251143547
20
14.941293175773085
42
0.56577277818777105
10
-6.4999999999999982
20
15.294472212916654
10
-6.4999999999999982
20
20.388416172365424
42
0.27732454405983975
0
LWPOLYLINE
5
125
100
AcDbEntity
8
0
100
AcDbPolyline
90
6
70
1
43
0.0
10
-4.9999999999999982
20
11.165484479544022
10
-4.9999999999999991
20
5.6281991998091137
42
0.80188144425757524
10
-4.237766807140674
20
5.4585315423403475
10
-2.1612848272400842
20
9.8917317686870092
42
0.39945572392439771
10
-2.3357293949850511
20
10.414578463299344
10
-4.4122113748856409
20
11.518663516687591
42
0.56577277818777172
0
LWPOLYLINE
5
126
100
AcDbEntity
8
0
100
AcDbPolyline
90
12
70
1
43
0.0
10
-34.602797872784762
20
47.840230512882798
42
-0.8541924879503664
10
-27.091199776609535
20
57.198429807701132
42
0.2657110008806724
10
27.091199776609571
20
57.198429807701068
42
-0.85419248795036462
10
34.60279787278472
20
47.840230512882862
42
0.22740935509685606
10
23.000000000000004
20
23.64870372948927
10
23.000000000000004
20
-23.648703729489263
42
0.22740935509685578
10
34.602797872784556
20
-47.840230512882997
42
-0.85419248795037639
10
27.09119977660956
20
-57.198429807701203
42
0.26571100088067234
10
-27.091199776609393
20
-57.19842980770138
42
-0.85419248795038039
10
-34.602797872784706
20
-47.840230512882854
42
0.22740935509685598
10
-23.000000000000004
20
-23.64870372948927
10
-23.000000000000007
20
23.648703729489263
42
0.227409355096856
0
LWPOLYLINE
5
127
100
AcDbEntity
8
0
100
AcDbPolyline
90
8
70
1
43
0.0
10
6.7122113748856416
20
-20.741595209508993
42
-0.27732454405983781
10
6.4999999999999982
20
-20.388416172365421
10
6.4999999999999964
20
-15.294472212916656
42
-0.5657727781877725
10
7.0877886251143565
20
-14.941293175773087
10
9.2877886251143522
20
-16.111053925428344
42
-0.27732454405983697
10
9.4999999999999982
20
-16.464232962571913
10
9.4999999999999982
20
-21.558176922020674
42
-0.56577277818777016
10
8.91221137488564
20
-21.911355959164247
0
LWPOLYLINE
5
128
100
AcDbEntity
8
0
100
AcDbPolyline
90
8
70
1
43
0.0
10
4.9999999999999973
20
-19.165484479544016
42
-0.56577277818777127
10
4.4122113748856409
20
-19.518663516687585
10
2.2122113748856425
20
-18.348902767032328
42
-0.27732454405983514
10
2
20
-17.995723729888763
10
1.9999999999999996
20
-12.901779770440001
42
-0.56577277818776617
10
2.5877886251143565
20
-12.548600733296428
10
4.787788625114354
20
-13.718361482951682
42
-0.27732454405983409
10
4.9999999999999982
20
-14.071540520095255
0
LWPOLYLINE
5
129
100
AcDbEntity
8
0
100
AcDbPolyline
90
6
70
1
43
0.0
10
2.3357293949850511
20
-10.414578463299344
42
-0.39945572392439771
10
2.1612848272400842
20
-9.8917317686870092
10
4.237766807140674
20
-5.4585315423403475
42
-0.80188144425757524
10
4.9999999999999991
20
-5.6281991998091137
10
4.9999999999999973
20
-11.165484479544022
42
-0.56577277818777438
10
4.4122113748856417
20
-11.518663516687591
0
LWPOLYLINE
5
130
100
AcDbEntity
8
0
100
AcDbPolyline
90
8
70
1
43
0.0
10
-7.0877886251143574
20
-14.941293175773085
42
-0.56577277818777016
10
-6.5
20
-15.294472212916656
10
-6.5000000000000018
20
-20.388416172365424
42
-0.2773245440598483
10
-6.7122113748856442
20
-20.741595209508997
10
-8.9122113748856435
20
-21.911355959164251
42
-0.56577277818776928
10
-9.5
20
-21.558176922020678
10
-9.5
20
-16.464232962571909
42
-0.27732454405983709
10
-9.2877886251143558
20
-16.111053925428337
0
LWPOLYLINE
5
131
100
AcDbEntity
8
0
100
AcDbPolyline
90
8
70
1
43
0.0
10
-2.0000000000000013
20
-17.995723729888763
42
-0.27732454405984064
10
-2.2122113748856451
20
-18.348902767032335
10
-4.4122113748856426
20
-19.518663516687589
42
-0.56577277818776839
10
-4.9999999999999991
20
-19.165484479544016
10
-4.9999999999999982
20
-14.071540520095255
42
-0.27732454405984092
10
-4.787788625114354
20
-13.718361482951682
10
-2.5877886251143565
20
-12.548600733296427
42
-0.56577277818776883
10
-2.0000000000000009
20
-12.901779770439997
0
LWPOLYLINE
5
132
100
AcDbEntity
8
0
100
AcDbPolyline
90
6
70
1
43
0.0
10
-2.1612848272400846
20
-9.8917317686870092
42
-0.39945572392439782
10
-2.3357293949850511
20
-10.414578463299344
10
-4.4122113748856409
20
-11.518663516687591
42
-0.56577277818777572
10
-5
20
-11.165484479544022
10
-4.9999999999999991
20
-5.6281991998091137
42
-0.8018814442575749
10
-4.2377668071406749
20
-5.4585315423403475
0
LWPOLYLINE
5
133
100
AcDbEntity
8
0
100
AcDbPolyline
90
8
70
1
43
0.0
10
-9.2877886251143558
20
6.1110539254283358
42
-0.27732454405983709
10
-9.4999999999999964
20
6.4642329625719075
10
-9.5
20
13.558176922020678
42
-0.56577277818777016
10
-8.9122113748856417
20
13.911355959164249
10
-6.7122113748856416
20
12.741595209508993
42
-0.2773245440598337
10
-6.4999999999999991
20
12.388416172365424
10
-6.4999999999999991
20
5.1280442646816038
42
-0.56577277818776961
10
-6.9408414688357665
20
4.8631599868239244
0
LWPOLYLINE
5
134
100
AcDbEntity
8
0
100
AcDbPolyline
90
6
70
1
43
0.0
10
-2.3357293949850511
20
10.414578463299344
42
-0.39945572392439771
10
-2.1612848272400842
20
9.8917317686870092
10
-4.237766807140674
20
5.4585315423403475
42
-0.80188144425757524
10
-4.9999999999999991
20
5.6281991998091137
10
-4.9999999999999973
20
11.165484479544022
42
-0.56577277818777438
10
-4.4122113748856417
20
11.518663516687591
0
LWPOLYLINE
5
135
100
AcDbEntity
8
0
100
AcDbPolyline
90
8
70
1
43
0.0
10
-9.2877886251143522
20
16.111053925428337
42
-0.27732454405984125
10
-9.4999999999999964
20
16.464232962571909
10
-9.5000000000000036
20
21.558176922020674
42
-0.56577277818776628
10
-8.91221137488564
20
21.911355959164247
10
-6.7122113748856425
20
20.741595209509001
42
-0.27732454405984353
10
-6.4999999999999982
20
20.388416172365424
10
-6.5
20
15.294472212916654
42
-0.56577277818777438
10
-7.0877886251143547
20
14.941293175773085
0
LWPOLYLINE
5
136
100
AcDbEntity
8
0
100
AcDbPolyline
90
8
70
1
43
0.0
10
-4.787788625114354
20
13.718361482951682
42
-0.27732454405983908
10
-4.9999999999999991
20
14.071540520095255
10
-4.9999999999999982
20
19.165484479544016
42
-0.56577277818777061
10
-4.41221137488564
20
19.518663516687589
10
-2.2122113748856451
20
18.348902767032335
42
-0.27732454405983203
10
-2
20
17.995723729888763
10
-2.0000000000000009
20
12.901779770439997
42
-0.56577277818776373
10
-2.5877886251143534
20
12.548600733296427
0
LWPOLYLINE
5
137
100
AcDbEntity
8
0
100
AcDbPolyline
90
8
70
1
43
0.0
10
2.0000000000000013
20
17.995723729888763
42
-0.27732454405984114
10
2.2122113748856451
20
18.348902767032335
10
4.4122113748856435
20
19.518663516687589
42
-0.56577277818776572
10
4.9999999999999982
20
19.165484479544016
10
5
20
14.071540520095255
42
-0.27732454405984136
10
4.7877886251143522
20
13.71836148295168
10
2.5877886251143551
20
12.548600733296428
42
-0.56577277818776828
10
2.0000000000000009
20
12.901779770440001
0
LWPOLYLINE
5
138
100
AcDbEntity
8
0
100
AcDbPolyline
90
6
70
1
43
0.0
10
4.4122113748856409
20
11.518663516687591
42
-0.56577277818777572
10
5
20
11.165484479544022
10
4.9999999999999991
20
5.6281991998091137
42
-0.8018814442575749
10
4.2377668071406749
20
5.4585315423403475
10
2.1612848272400846
20
9.8917317686870092
42
-0.39945572392439782
10
2.3357293949850511
20
10.414578463299344
0
LWPOLYLINE
5
139
100
AcDbEntity
8
0
100
AcDbPolyline
90
8
70
1
43
0.0
10
6.4999999999999982
20
12.388416172365419
42
-0.27732454405983781
10
6.7122113748856407
20
12.74159520950899
10
8.91221137488564
20
13.911355959164244
42
-0.56577277818777527
10
9.4999999999999982
20
13.558176922020674
10
9.5
20
6.4642329625719093
42
-0.27732454405983542
10
9.2877886251143558
20
6.1110539254283394
10
6.9408414688357656
20
4.8631599868239261
42
-0.56577277818777205
10
6.4999999999999991
20
5.128044264681602
0
LWPOLYLINE
5
140
100
AcDbEntity
8
0
100
AcDbPolyline
90
8
70
1
43
0.0
10
7.0877886251143547
20
14.941293175773085
42
-0.56577277818776572
10
6.4999999999999991
20
15.294472212916656
10
6.4999999999999982
20
20.388416172365424
42
-0.27732454405983037
10
6.7122113748856407
20
20.741595209508997
10
8.9122113748856435
20
21.911355959164251
42
-0.56577277818776928
10
9.5
20
21.558176922020678
10
9.5
20
16.464232962571909
42
-0.27732454405983709
10
9.2877886251143558
20
16.111053925428337
0
LWPOLYLINE
5
141
100
AcDbEntity
8
0
100
AcDbPolyline
90
4
70
1
43
0.0
10
-19.900000000000002
20
-24
10
-19.900000000000002
20
-20
42
-0.99999999999999989
10
-18.100000000000005
20
-20
10
-18.100000000000005
20
-24
42
-0.99999999999999989
0
LWPOLYLINE
5
142
100
AcDbEntity
8
0
100
AcDbPolyline
90
4
70
1
43
0.0
10
19.900000000000002
20
-20
10
19.900000000000002
20
-24
42
-0.99999999999999989
10
18.100000000000005
20
-24
10
18.100000000000005
20
-20
42
-0.99999999999999989
0
CIRCLE
5
143
100
AcDbEntity
8
0
100
AcDbCircle
10
-4.3321008227120199
20
-31.236468887795606
30
0
40
1.6000000000000003
0
CIRCLE
5
144
100
AcDbEntity
8
0
100
AcDbCircle
10
4.3321008227120172
20
-31.23646888779561
30
0
40
1.6000000000000003
0
CIRCLE
5
145
100
AcDbEntity
8
0
100
AcDbCircle
10
4.3321008227120217
20
31.236468887795603
30
0
40
1.6000000000000003
0
CIRCLE
5
146
100
AcDbEntity
8
0
100
AcDbCircle
10
15.250000000000002
20
-40
30
0
40
1.5500000000000025
0
CIRCLE
5
147
100
AcDbEntity
8
0
100
AcDbCircle
10
30.106522346290649
20
51.924967769597785
30
0
40
1.6000000000000014
0
CIRCLE
5
148
100
AcDbEntity
8
0
100
AcDbCircle
10
-15.250000000000002
20
-40
30
0
40
1.549999999999998
0
CIRCLE
5
149
100
AcDbEntity
8
0
100
AcDbCircle
10
-4.3321008227120217
20
31.236468887795603
30
0
40
1.6000000000000003
0
CIRCLE
5
150
100
AcDbEntity
8
0
100
AcDbCircle
10
-30.106522346290618
20
-51.924967769597991
30
0
40
1.6000000000000014
0
CIRCLE
5
151
100
AcDbEntity
8
0
100
AcDbCircle
10
-30.106522346290646
20
51.924967769597792
30
0
40
1.6000000000000014
0
CIRCLE
5
152
100
AcDbEntity
8
0
100
AcDbCircle
10
30.106522346290625
20
-51.924967769597991
30
0
40
1.6000000000000014
0
CIRCLE
5
153
100
AcDbEntity
8
0
100
AcDbCircle
10
-9.9999999999999982
20
46.79999999999999
30
0
40
1.6000000000000003
0
CIRCLE
5
154
100
AcDbEntity
8
0
100
AcDbCircle
10
10
20
46.79999999999999
30
0
40
1.6000000000000014
0
CIRCLE
5
155
100
AcDbEntity
8
0
100
AcDbCircle
10
-15.250000000000002
20
40
30
0
40
1.5499999999999936
0
CIRCLE
5
156
100
AcDbEntity
8
0
100
AcDbCircle
10
15.250000000000002
20
40
30
0
40
1.5500000000000003
0
LWPOLYLINE
5
157
100
AcDbEntity
8
0
100
AcDbPolyline
90
12
70
1
43
0.0
10
-34.602797872784713
20
47.840230512882833
42
-0.22740935509685584
10
-23.000000000000004
20
23.648703729489267
10
-22.999999999999979
20
-23.648703729489267
42
-0.22740935509685595
10
-34.602797872784706
20
-47.840230512882854
42
0.85419248795038138
10
-27.091199776609528
20
-57.198429807701118
42
-0.26571100088067223
10
27.09119977660955
20
-57.19842980770121
42
0.85419248795037683
10
34.602797872784691
20
-47.840230512882826
42
-0.22740935509685584
10
23.000000000000004
20
-23.648703729489267
10
22.999999999999993
20
23.648703729489267
42
-0.22740935509685595
10
34.602797872784713
20
47.840230512882854
42
0.85419248795036506
10
27.09119977660955
20
57.19842980770116
42
-0.26571100088067257
10
-27.091199776609514
20
57.198429807701203
42
0.85419248795036529
0
LWPOLYLINE
5
158
100
AcDbEntity
8
0
100
AcDbPolyline
90
8
70
1
43
0.0
10
8.91221137488564
20
13.911355959164247
10
6.7122113748856389
20
12.741595209508992
42
0.27732454405983714
10
6.4999999999999991
20
12.388416172365419
10
6.4999999999999982
20
5.128044264681602
42
0.56577277818777039
10
6.9408414688357656
20
4.8631599868239235
10
9.2877886251143558
20
6.1110539254283394
42
0.27732454405983809
10
9.4999999999999982
20
6.4642329625719093
10
9.4999999999999982
20
13.558176922020674
42
0.56577277818777083
0
LWPOLYLINE
5
159
100
AcDbEntity
8
0
100
AcDbPolyline
90
8
70
1
43
0.0
10
-9.4999999999999982
20
13.558176922020678
10
-9.4999999999999982
20
6.4642329625719075
42
0.27732454405983809
10
-9.2877886251143558
20
6.1110539254283367
10
-6.9408414688357665
20
4.8631599868239244
42
0.56577277818777127
10
-6.4999999999999991
20
5.1280442646816038
10
-6.4999999999999991
20
12.388416172365424
42
0.27732454405983775
10
-6.7122113748856425
20
12.741595209508993
10
-8.9122113748856417
20
13.911355959164249
42
0.56577277818777016
0
CIRCLE
5
160
100
AcDbEntity
8
0
100
AcDbCircle
10
15.250000000000002
20
-30.500000000000004
30
0
40
1.5500000000000003
0
CIRCLE
5
161
100
AcDbEntity
8
0
100
AcDbCircle
10
-10
20
-5.250000000000008
30
0
40
1.5500000000000003
0
CIRCLE
5
162
100
AcDbEntity
8
0
100
AcDbCircle
10
-15.250000000000002
20
0
30
0
40
1.5500000000000003
0
CIRCLE
5
163
100
AcDbEntity
8
0
100
AcDbCircle
10
15.250000000000002
20
1.5160791677092848e-16
30
0
40
1.5500000000000003
0
CIRCLE
5
164
100
AcDbEntity
8
0
100
AcDbCircle
10
-15.250000000000002
20
-30.500000000000004
30
0
40
1.549999999999998
0
CIRCLE
5
165
100
AcDbEntity
8
0
100
AcDbCircle
10
10
20
-5.250000000000008
30
0
40
1.5500000000000003
0
CIRCLE
5
166
100
AcDbEntity
8
0
100
AcDbCircle
10
10
20
-25.250000000000004
30
0
40
1.5500000000000003
0
CIRCLE
5
167
100
AcDbEntity
8
0
100
AcDbCircle
10
-10
20
-25.250000000000004
30
0
40
1.5500000000000003
0
CIRCLE
5
168
100
AcDbEntity
8
0
100
AcDbCircle
10
-15.250000000000002
20
9.4999999999999929
30
0
40
1.5500000000000003
0
LWPOLYLINE
5
169
100
AcDbEntity
8
0
100
AcDbPolyline
90
4
70
1
43
0.0
10
14
20
10.416515138991166
42
-3.1049237446109812
10
13.982790461275552
20
8.6074306833832068
10
13.938307148112731
20
8.583778486222986
42
-0.33245826045666349
10
14
20
10.498749217771906
0
ENDSEC
0
SECTION
2
OBJECTS
0
DICTIONARY
5
C
100
AcDbDictionary
3
ACAD_GROUP
350
D
3
ACAD_MLINESTYLE
350
17
0
DICTIONARY
5
D
100
AcDbDictionary
0
DICTIONARY
5
1A
330
C
100
AcDbDictionary
0
DICTIONARY
5
17
100
AcDbDictionary
0
ENDSEC
0
EOF
