0
SECTION
2
HEADER
9
$INSUNITS
70
4
9
$ACADVER
1
AC1014
9
$HANDSEED
5
FFFF
0
ENDSEC
0
SECTION
2
TABLES
0
TABLE
2
VPORT
5
8
100
AcDbSymbolTable
0
ENDTAB
0
TABLE
2
LTYPE
5
5
100
AcDbSymbolTable
0
LTYPE
5
14
100
AcDbSymbolTableRecord
100
AcDbLinetypeTableRecord
2
BYBLOCK
70
0
0
LTYPE
5
15
100
AcDbSymbolTableRecord
100
AcDbLinetypeTableRecord
2
BYLAYER
70
0
0
ENDTAB
0
TABLE
2
LAYER
5
2
100
AcDbSymbolTable
70
2
0
LAYER
5
50
100
AcDbSymbolTableRecord
100
AcDbLayerTableRecord
2
0
70
0
6
CONTINUOUS
0
ENDTAB
0
TABLE
2
STYLE
5
3
100
AcDbSymbolTable
70
1
0
STYLE
5
11
100
AcDbSymbolTableRecord
100
AcDbTextStyleTableRecord
2
STANDARD
70
0
0
ENDTAB
0
TABLE
2
VIEW
5
6
100
AcDbSymbolTable
70
0
0
ENDTAB
0
TABLE
2
UCS
5
7
100
AcDbSymbolTable
70
0
0
ENDTAB
0
TABLE
2
APPID
5
9
100
AcDbSymbolTable
70
2
0
APPID
5
12
100
AcDbSymbolTableRecord
100
AcDbRegAppTableRecord
2
ACAD
70
0
0
ENDTAB
0
TABLE
2
DIMSTYLE
5
A
100
AcDbSymbolTable
70
1
0
ENDTAB
0
TABLE
2
BLOCK_RECORD
5
1
100
AcDbSymbolTable
70
1
0
BLOCK_RECORD
5
1F
100
AcDbSymbolTableRecord
100
AcDbBlockTableRecord
2
*MODEL_SPACE
0
BLOCK_RECORD
5
1B
100
AcDbSymbolTableRecord
100
AcDbBlockTableRecord
2
*PAPER_SPACE
0
ENDTAB
0
ENDSEC
0
SECTION
2
BLOCKS
0
BLOCK
5
20
100
AcDbEntity
100
AcDbBlockBegin
2
*MODEL_SPACE
0
ENDBLK
5
21
100
AcDbEntity
100
AcDbBlockEnd
0
BLOCK
5
1C
100
AcDbEntity
100
AcDbBlockBegin
2
*PAPER_SPACE
0
ENDBLK
5
1D
100
AcDbEntity
100
AcDbBlockEnd
0
ENDSEC
0
SECTION
2
ENTITIES
0
CIRCLE
5
100
100
AcDbEntity
8
0
100
AcDbCircle
10
-30.10652234629061
20
-51.924967769597991
30
0
40
1.5100000000000025
0
CIRCLE
5
101
100
AcDbEntity
8
0
100
AcDbCircle
10
4.3321008227120146
20
-31.236468887795603
30
0
40
1.5500000000000014
0
CIRCLE
5
102
100
AcDbEntity
8
0
100
AcDbCircle
10
15.250000000000002
20
40
30
0
40
1.5500000000000003
0
CIRCLE
5
103
100
AcDbEntity
8
0
100
AcDbCircle
10
15.249999999999996
20
-40.000000000000007
30
0
40
1.5500000000000047
0
CIRCLE
5
104
100
AcDbEntity
8
0
100
AcDbCircle
10
-15.250000000000002
20
40
30
0
40
1.5500000000000025
0
CIRCLE
5
105
100
AcDbEntity
8
0
100
AcDbCircle
10
-15.250000000000002
20
-40
30
0
40
1.5500000000000003
0
CIRCLE
5
106
100
AcDbEntity
8
0
100
AcDbCircle
10
-4.3321008227120199
20
31.236468887795606
30
0
40
1.6000000000000003
0
CIRCLE
5
107
100
AcDbEntity
8
0
100
AcDbCircle
10
-4.3321008227120199
20
-31.236468887795606
30
0
40
1.6000000000000003
0
CIRCLE
5
108
100
AcDbEntity
8
0
100
AcDbCircle
10
30.106522346290618
20
51.924967769597991
30
0
40
1.5100000000000025
0
CIRCLE
5
109
100
AcDbEntity
8
0
100
AcDbCircle
10
30.106522346290628
20
-51.924967769597991
30
0
40
1.5100000000000025
0
CIRCLE
5
110
100
AcDbEntity
8
0
100
AcDbCircle
10
4.3321008227120217
20
31.236468887795603
30
0
40
1.6000000000000003
0
CIRCLE
5
111
100
AcDbEntity
8
0
100
AcDbCircle
10
-30.106522346290618
20
51.924967769597991
30
0
40
1.6000000000000014
0
LWPOLYLINE
5
112
100
AcDbEntity
8
0
100
AcDbPolyline
90
20
70
1
43
0.0
10
-12.289553506430588
20
-44.029361805386962
10
-26.975745516903022
20
-55.823459329749156
42
-1.0007587860906777
10
-33.231381577224873
20
-48.02173131931152
10
-32.727075582243693
20
-47.617993225628588
42
0.2277445612329915
10
-10.225386353454711
20
-0.77915582219080892
10
-10.225386353454713
20
0.7791558221908208
42
0.22774456123299144
10
-32.7270755822437
20
47.617993225628588
10
-33.231381577225221
20
48.021731319311783
42
-1.0007587860906408
10
-26.975745516902979
20
55.823459329749106
10
-12.289553506430559
20
44.029361805386998
42
0.32786885245901076
10
12.289553506430595
20
44.029361805386962
10
26.975745516902752
20
55.823459329748914
42
-1.0007587860907141
10
33.23138157722488
20
48.021731319311527
10
32.727075582243693
20
47.617993225628595
42
0.22774456123299147
10
10.225386353454711
20
0.77915582219082669
10
10.225386353454695
20
-0.77915582219079416
42
0.22774456123299147
10
32.727075582243678
20
-47.617993225628574
10
33.231381577224674
20
-48.021731319311328
42
-1.0007587860907141
10
26.975745516902975
20
-55.823459329749106
10
12.289553506430577
20
-44.029361805386991
42
0.32786885245901076
0
LWPOLYLINE
5
113
100
AcDbEntity
8
0
100
AcDbPolyline
90
20
70
1
43
0.0
10
32.727075582243671
20
-47.617993225628616
42
-0.22774456123299117
10
10.225386353454677
20
-0.77915582219080903
10
10.225386353454713
20
0.77915582219083124
42
-0.22774456123299128
10
32.727075582243685
20
47.617993225628581
10
33.23138157722488
20
48.02173131931152
42
1.0007587860905676
10
26.975745516902979
20
55.823459329749106
10
12.289553506430597
20
44.029361805386969
42
-0.32786885245901148
10
-12.289553506430595
20
44.029361805386962
10
-26.975745516902983
20
55.823459329749106
42
1.0007587860906777
10
-33.231381577224873
20
48.02173131931152
10
-32.727075582243693
20
47.617993225628609
42
-0.2277445612329915
10
-10.225386353454695
20
0.77915582219083568
10
-10.225386353454692
20
-0.77915582219079571
42
-0.22774456123299117
10
-32.727075582243693
20
-47.617993225628595
10
-33.231381577224873
20
-48.02173131931152
42
1.0007587860906408
10
-26.975745516903309
20
-55.823459329749376
10
-12.28955350643059
20
-44.029361805386969
42
-0.32786885245901148
10
12.289553506430602
20
-44.029361805386962
10
26.975745516902983
20
-55.823459329749099
42
1.0007587860906408
10
33.231381577224873
20
-48.02173131931152
0
CIRCLE
5
114
100
AcDbEntity
8
0
100
AcDbCircle
10
-30.106522346290618
20
51.924967769597991
30
0
40
1.6000000000000014
0
CIRCLE
5
115
100
AcDbEntity
8
0
100
AcDbCircle
10
4.3321008227120217
20
31.236468887795603
30
0
40
1.6000000000000003
0
CIRCLE
5
116
100
AcDbEntity
8
0
100
AcDbCircle
10
30.106522346290628
20
-51.924967769597991
30
0
40
1.5100000000000025
0
CIRCLE
5
117
100
AcDbEntity
8
0
100
AcDbCircle
10
30.106522346290618
20
51.924967769597991
30
0
40
1.5100000000000025
0
CIRCLE
5
118
100
AcDbEntity
8
0
100
AcDbCircle
10
-4.3321008227120199
20
-31.236468887795606
30
0
40
1.6000000000000003
0
CIRCLE
5
119
100
AcDbEntity
8
0
100
AcDbCircle
10
-4.3321008227120199
20
31.236468887795606
30
0
40
1.6000000000000003
0
CIRCLE
5
120
100
AcDbEntity
8
0
100
AcDbCircle
10
-15.250000000000002
20
-40
30
0
40
1.5500000000000003
0
CIRCLE
5
121
100
AcDbEntity
8
0
100
AcDbCircle
10
-15.250000000000002
20
40
30
0
40
1.5500000000000025
0
CIRCLE
5
122
100
AcDbEntity
8
0
100
AcDbCircle
10
15.249999999999996
20
-40.000000000000007
30
0
40
1.5500000000000047
0
CIRCLE
5
123
100
AcDbEntity
8
0
100
AcDbCircle
10
15.250000000000002
20
40
30
0
40
1.5500000000000003
0
CIRCLE
5
124
100
AcDbEntity
8
0
100
AcDbCircle
10
4.3321008227120146
20
-31.236468887795603
30
0
40
1.5500000000000014
0
CIRCLE
5
125
100
AcDbEntity
8
0
100
AcDbCircle
10
-30.10652234629061
20
-51.924967769597991
30
0
40
1.5100000000000025
0
ENDSEC
0
SECTION
2
OBJECTS
0
DICTIONARY
5
C
100
AcDbDictionary
3
ACAD_GROUP
350
D
3
ACAD_MLINESTYLE
350
17
0
DICTIONARY
5
D
100
AcDbDictionary
0
DICTIONARY
5
1A
330
C
100
AcDbDictionary
0
DICTIONARY
5
17
100
AcDbDictionary
0
ENDSEC
0
EOF
