0
SECTION
2
HEADER
9
$INSUNITS
70
4
9
$ACADVER
1
AC1014
9
$HANDSEED
5
FFFF
0
ENDSEC
0
SECTION
2
TABLES
0
TABLE
2
VPORT
5
8
100
AcDbSymbolTable
0
ENDTAB
0
TABLE
2
LTYPE
5
5
100
AcDbSymbolTable
0
LTYPE
5
14
100
AcDbSymbolTableRecord
100
AcDbLinetypeTableRecord
2
BYBLOCK
70
0
0
LTYPE
5
15
100
AcDbSymbolTableRecord
100
AcDbLinetypeTableRecord
2
BYLAYER
70
0
0
ENDTAB
0
TABLE
2
LAYER
5
2
100
AcDbSymbolTable
70
2
0
LAYER
5
50
100
AcDbSymbolTableRecord
100
AcDbLayerTableRecord
2
0
70
0
6
CONTINUOUS
0
ENDTAB
0
TABLE
2
STYLE
5
3
100
AcDbSymbolTable
70
1
0
STYLE
5
11
100
AcDbSymbolTableRecord
100
AcDbTextStyleTableRecord
2
STANDARD
70
0
0
ENDTAB
0
TABLE
2
VIEW
5
6
100
AcDbSymbolTable
70
0
0
ENDTAB
0
TABLE
2
UCS
5
7
100
AcDbSymbolTable
70
0
0
ENDTAB
0
TABLE
2
APPID
5
9
100
AcDbSymbolTable
70
2
0
APPID
5
12
100
AcDbSymbolTableRecord
100
AcDbRegAppTableRecord
2
ACAD
70
0
0
ENDTAB
0
TABLE
2
DIMSTYLE
5
A
100
AcDbSymbolTable
70
1
0
ENDTAB
0
TABLE
2
BLOCK_RECORD
5
1
100
AcDbSymbolTable
70
1
0
BLOCK_RECORD
5
1F
100
AcDbSymbolTableRecord
100
AcDbBlockTableRecord
2
*MODEL_SPACE
0
BLOCK_RECORD
5
1B
100
AcDbSymbolTableRecord
100
AcDbBlockTableRecord
2
*PAPER_SPACE
0
ENDTAB
0
ENDSEC
0
SECTION
2
BLOCKS
0
BLOCK
5
20
100
AcDbEntity
100
AcDbBlockBegin
2
*MODEL_SPACE
0
ENDBLK
5
21
100
AcDbEntity
100
AcDbBlockEnd
0
BLOCK
5
1C
100
AcDbEntity
100
AcDbBlockBegin
2
*PAPER_SPACE
0
ENDBLK
5
1D
100
AcDbEntity
100
AcDbBlockEnd
0
ENDSEC
0
SECTION
2
ENTITIES
0
LWPOLYLINE
5
100
100
AcDbEntity
8
0
100
AcDbPolyline
90
36
70
1
43
0.0
10
-43.091562769307323
20
-55.021221535543333
42
-0.054254632262672436
10
-29.869958442205814
20
-43.84788063693054
10
-21.138850332568182
20
-37.960997138765755
42
0.020788301774938574
10
-15.784830153924023
20
-34.01780523470962
10
-10.225386353454713
20
-29.555375428312868
42
-0.010891251021389917
10
-10.156274450846501
20
-29.502334099786363
10
-7.507527471194356
20
-27.559682774030684
42
0.043660942908511476
10
-7.2454476093539801
20
-27.329786880374314
10
-3.4449009752613664
20
-23.358689412516934
42
-0.67614238721398034
10
-7.9336084474051878e-16
20
-24.741534729856784
10
-7.2164496600635175e-15
20
-34.4034373959053
42
-0.30699604981598078
10
-1.2593752840991583
20
-36.261251980355745
10
-3.6537878477078523
20
-37.215793482782729
42
0.074393036129485127
10
-4.1650961478362083
20
-37.513908184763466
10
-9.5251650737778348
20
-41.816304647057727
42
0.02078830177493924
10
-14.533226908535591
20
-46.190502987872684
10
-16.595242936365967
20
-48.148432782518064
42
-0.045651845859957171
10
-28.03759238517328
20
-57.181527387046202
42
0.024839970348347336
10
-34.471879999222864
20
-61.840423650759426
10
-73.731103170817207
20
-93.352843587825092
42
0.42549116557748135
10
-74.377653491460791
20
-100.52912434230163
42
-0.55042153676144556
10
-75.154933436364445
20
-103.11858537476243
10
-81.931463897102333
20
-105.01485046200143
42
0.29515380845545142
10
-86.596751489010984
20
-108.86949263331624
10
-90.269298626339847
20
-120.48421714971909
42
-0.81548863111226577
10
-94.166469860121367
20
-120.07869720461584
10
-95.559491250414112
20
-106.03753347323061
42
0.29704329069997537
10
-97.097259102539937
20
-104.12173102412382
10
-110.50457160718751
20
-99.724145444728961
42
-0.81548863111228076
10
-110.05740648664919
20
-95.831532773750325
10
-97.923230976902147
20
-94.758586937985172
42
0.29515380845530997
10
-93.150616810075135
20
-91.037655791257137
10
-89.833276040722069
20
-84.83181688109859
42
-0.55042153687124928
10
-87.13698331482361
20
-84.633125937002831
42
0.42549116557741268
10
-79.990768250963043
20
-85.554344175476743
10
-50.95914691776472
20
-62.251370530100026
42
0.033428627620023556
0
LWPOLYLINE
5
101
100
AcDbEntity
8
0
100
AcDbPolyline
90
4
70
1
43
0.0
10
-92.460995904127131
20
-107.77839952431535
10
-92.624213932840632
20
-109.2694930408672
42
0.99999999999999989
10
-89.443214430863392
20
-109.61769150212263
10
-89.279996402149919
20
-108.12659798557075
42
0.99999999999999989
0
LWPOLYLINE
5
102
100
AcDbEntity
8
0
100
AcDbPolyline
90
4
70
1
43
0.0
10
-99.617691502122639
20
-100.55678556913669
42
-0.99999999999999989
10
-99.269493040867246
20
-97.375786067159453
10
-97.778399524315489
20
-97.539004095872883
42
-0.99999999999999989
10
-98.126597985570754
20
-100.72000359785015
0
CIRCLE
5
103
100
AcDbEntity
8
0
100
AcDbCircle
10
-15.250000000000002
20
-40
30
0
40
1.549999999999998
0
CIRCLE
5
104
100
AcDbEntity
8
0
100
AcDbCircle
10
-90.000000000000028
20
-100
30
0
40
3.5000000000000142
0
CIRCLE
5
105
100
AcDbEntity
8
0
100
AcDbCircle
10
-30.106522346290618
20
-51.924967769597991
30
0
40
1.6000000000000014
0
LWPOLYLINE
5
106
100
AcDbEntity
8
0
100
AcDbPolyline
90
4
70
1
43
0.0
10
-87.539004095872954
20
-92.221600475684582
42
-0.99999999999999989
10
-90.720003597850194
20
-91.873402014429246
10
-90.556785569136736
20
-90.382308497877361
42
-0.99999999999999989
10
-87.375786067159495
20
-90.730506959132754
0
CIRCLE
5
107
100
AcDbEntity
8
0
100
AcDbCircle
10
-4.3321008227120199
20
-31.236468887795606
30
0
40
1.6000000000000003
0
LWPOLYLINE
5
108
100
AcDbEntity
8
0
100
AcDbPolyline
90
4
70
1
43
0.0
10
-82.221600475684625
20
-102.4609959041271
10
-80.730506959132754
20
-102.62421393284058
42
0.99999999999999989
10
-80.382308497877375
20
-99.443214430863378
10
-81.873402014429217
20
-99.279996402149905
42
0.99999999999999989
0
LWPOLYLINE
5
109
100
AcDbEntity
8
0
100
AcDbPolyline
90
36
70
1
43
0.0
10
-15.784830153924133
20
-34.017805234709705
42
-0.020788301774937949
10
-21.138850332568175
20
-37.960997138765748
10
-29.869958442205764
20
-43.847880636930512
42
0.054254632262673047
10
-43.091562769307288
20
-55.021221535543305
42
-0.033428627620021842
10
-50.959146917764727
20
-62.251370530100019
10
-79.990768250963043
20
-85.554344175476743
42
-0.42549116557741279
10
-87.13698331482361
20
-84.633125937002831
42
0.55042153687124773
10
-89.833276040722083
20
-84.831816881098575
10
-93.150616810074709
20
-91.037655791257293
42
-0.29515380845530903
10
-97.923230976902133
20
-94.758586937985172
10
-110.05740648664919
20
-95.831532773750325
42
0.81548863111228076
10
-110.50457160718756
20
-99.724145444729032
10
-97.097259102539923
20
-104.1217310241238
42
-0.29704329069997537
10
-95.559491250414112
20
-106.03753347323061
10
-94.166469860121367
20
-120.07869720461584
42
0.81548863111225744
10
-90.269298626339889
20
-120.48421714971909
10
-86.596751489007204
20
-108.86949263331744
42
-0.29515380845545142
10
-81.931463897102333
20
-105.01485046200143
10
-75.154933436364445
20
-103.11858537476243
42
0.55042153676143979
10
-74.377653491290815
20
-100.52912434215413
42
-0.42549116557748246
10
-73.731103170817192
20
-93.352843587825092
10
-34.471879999222878
20
-61.840423650759362
42
-0.024839970348348207
10
-28.037592385173316
20
-57.181527387046188
42
0.045651845859958726
10
-16.595242936365945
20
-48.148432782518078
10
-14.533226908535557
20
-46.190502987872676
42
-0.020788301774937616
10
-9.5251650737778437
20
-41.816304647057748
10
-4.1650961478362101
20
-37.513908184763473
42
-0.074393036129476758
10
-3.6537878477078536
20
-37.215793482782729
10
-1.2593752840991577
20
-36.261251980355745
42
0.30699604981598155
10
-1.1102230246251565e-15
20
-34.4034373959053
10
-5.5511151231257827e-16
20
-24.741534729856784
42
0.67614238721398034
10
-3.4449009752613686
20
-23.358689412516934
10
-7.2454476093539775
20
-27.329786880374321
42
-0.043660942908497327
10
-7.5075274711943578
20
-27.559682774030684
10
-10.156274450846501
20
-29.502334099786363
42
0.010891251021437693
10
-10.225386353454713
20
-29.555375428312864
0
LWPOLYLINE
5
110
100
AcDbEntity
8
0
100
AcDbPolyline
90
4
70
1
43
0.0
10
-92.460995904127145
20
-107.77839952431536
42
-0.99999999999999989
10
-89.279996402149919
20
-108.12659798557077
10
-89.443214430863392
20
-109.61769150212261
42
-0.99999999999999989
10
-92.624213932840632
20
-109.2694930408672
0
LINE
5
111
100
AcDbEntity
8
0
100
AcDbLine
10
-97.778399524315361
20
-97.539004095872968
30
0
11
-99.269493040867246
21
-97.375786067159495
31
0
0
ARC
5
112
100
AcDbEntity
8
0
100
AcDbCircle
10
-97.952498754943122
20
-99.129503846861525
30
0
40
1.5999999999999948
100
AcDbArc
50
-96.246838216275165
51
83.753161783720088
0
LINE
5
113
100
AcDbEntity
8
0
100
AcDbLine
10
-99.617691502122611
20
-100.55678556913674
30
0
11
-98.126597985570754
21
-100.72000359785014
31
0
0
ARC
5
114
100
AcDbEntity
8
0
100
AcDbCircle
10
-99.443592271494936
20
-98.96628581814808
30
0
40
1.5999999999999672
100
AcDbArc
50
83.753161783722717
51
263.7531617837235
0
CIRCLE
5
115
100
AcDbEntity
8
0
100
AcDbCircle
10
-15.250000000000002
20
-40
30
0
40
1.549999999999998
0
CIRCLE
5
116
100
AcDbEntity
8
0
100
AcDbCircle
10
-90.000000000000028
20
-100
30
0
40
3.5000000000000142
0
CIRCLE
5
117
100
AcDbEntity
8
0
100
AcDbCircle
10
-30.106522346290618
20
-51.924967769597991
30
0
40
1.6000000000000014
0
LINE
5
118
100
AcDbEntity
8
0
100
AcDbLine
10
-90.55678556913665
20
-90.382308497877361
30
0
11
-90.720003597850138
21
-91.873402014429232
31
0
0
ARC
5
119
100
AcDbEntity
8
0
100
AcDbCircle
10
-88.966285818148108
20
-90.556407728505064
30
0
40
1.6000000000000045
100
AcDbArc
50
-6.2468382162781602
51
173.75316178372208
0
LINE
5
120
100
AcDbEntity
8
0
100
AcDbLine
10
-87.539004095872869
20
-92.221600475684639
30
0
11
-87.375786067159495
21
-90.730506959132782
31
0
0
ARC
5
121
100
AcDbEntity
8
0
100
AcDbCircle
10
-89.129503846861567
20
-92.047501245056907
30
0
40
1.5999999999999457
100
AcDbArc
50
173.75316178372321
51
353.75316178372174
0
CIRCLE
5
122
100
AcDbEntity
8
0
100
AcDbCircle
10
-4.3321008227120199
20
-31.236468887795606
30
0
40
1.6000000000000003
0
LWPOLYLINE
5
123
100
AcDbEntity
8
0
100
AcDbPolyline
90
4
70
1
43
0.0
10
-82.221600475684667
20
-102.46099590412713
42
-0.99999999999999989
10
-81.873402014429203
20
-99.279996402149905
10
-80.382308497877432
20
-99.443214430863364
42
-0.99999999999999989
10
-80.730506959132754
20
-102.62421393284059
0
ENDSEC
0
SECTION
2
OBJECTS
0
DICTIONARY
5
C
100
AcDbDictionary
3
ACAD_GROUP
350
D
3
ACAD_MLINESTYLE
350
17
0
DICTIONARY
5
D
100
AcDbDictionary
0
DICTIONARY
5
1A
330
C
100
AcDbDictionary
0
DICTIONARY
5
17
100
AcDbDictionary
0
ENDSEC
0
EOF
