  0
SECTION
  2
HEADER
  9
$ACADVER
  1
AC1009
  9
$INSBASE
 10
0.0
 20
0.0
 30
0.0
  9
$EXTMIN
 10
-840.998779
 20
0.0
 30
0.0
  9
$EXTMAX
 10
0.0
 20
593.998535
 30
0.0
  9
$LIMMIN
 10
0.0
 20
0.0
  9
$LIMMAX
 10
12.0
 20
9.0
  9
$ORTHOMODE
 70
     0
  9
$REGENMODE
 70
     1
  9
$FILLMODE
 70
     1
  9
$QTEXTMODE
 70
     0
  9
$MIRRTEXT
 70
     1
  9
$DRAGMODE
 70
     2
  9
$LTSCALE
 40
15.0
  9
$OSMODE
 70
     0
  9
$ATTMODE
 70
     1
  9
$TEXTSIZE
 40
0.2
  9
$TRACEWID
 40
0.05
  9
$TEXTSTYLE
  7
STANDARD
  9
$CLAYER
  8
0
  9
$CELTYPE
  6
BYLAYER
  9
$CECOLOR
 62
   256
  9
$DIMSCALE
 40
1.0
  9
$DIMASZ
 40
0.18
  9
$DIMEXO
 40
0.0625
  9
$DIMDLI
 40
0.38
  9
$DIMRND
 40
0.0
  9
$DIMDLE
 40
0.0
  9
$DIMEXE
 40
0.18
  9
$DIMTP
 40
0.0
  9
$DIMTM
 40
0.0
  9
$DIMTXT
 40
0.18
  9
$DIMCEN
 40
0.09
  9
$DIMTSZ
 40
0.0
  9
$DIMTOL
 70
     0
  9
$DIMLIM
 70
     0
  9
$DIMTIH
 70
     1
  9
$DIMTOH
 70
     1
  9
$DIMSE1
 70
     0
  9
$DIMSE2
 70
     0
  9
$DIMTAD
 70
     0
  9
$DIMZIN
 70
     0
  9
$DIMBLK
  1

  9
$DIMASO
 70
     1
  9
$DIMSHO
 70
     1
  9
$DIMPOST
  1

  9
$DIMAPOST
  1

  9
$DIMALT
 70
     0
  9
$DIMALTD
 70
     2
  9
$DIMALTF
 40
25.4
  9
$DIMLFAC
 40
1.0
  9
$DIMTOFL
 70
     0
  9
$DIMTVP
 40
0.0
  9
$DIMTIX
 70
     0
  9
$DIMSOXD
 70
     0
  9
$DIMSAH
 70
     0
  9
$DIMBLK1
  1

  9
$DIMBLK2
  1

  9
$DIMSTYLE
  2
STANDARD
  9
$DIMCLRD
 70
     0
  9
$DIMCLRE
 70
     0
  9
$DIMCLRT
 70
     0
  9
$DIMTFAC
 40
1.0
  9
$DIMGAP
 40
0.09
  9
$LUNITS
 70
     2
  9
$LUPREC
 70
     4
  9
$AXISMODE
 70
     0
  9
$AXISUNIT
 10
0.0
 20
0.0
  9
$SKETCHINC
 40
0.1
  9
$FILLETRAD
 40
0.0
  9
$AUNITS
 70
     0
  9
$AUPREC
 70
     0
  9
$MENU
  1
acad
  9
$ELEVATION
 40
0.0
  9
$PELEVATION
 40
0.0
  9
$THICKNESS
 40
0.0
  9
$LIMCHECK
 70
     0
  9
$BLIPMODE
 70
     1
  9
$CHAMFERA
 40
0.0
  9
$CHAMFERB
 40
0.0
  9
$SKPOLY
 70
     0
  9
$TDCREATE
 40
2450267.486451944
  9
$TDUPDATE
 40
0.000000000
  9
$TDINDWG
 40
0.0000000000
  9
$TDUSRTIMER
 40
0.0000000000
  9
$USRTIMER
 70
     1
  9
$ANGBASE
 50
0.0
  9
$ANGDIR
 70
     0
  9
$PDMODE
 70
     0
  9
$PDSIZE
 40
0.0
  9
$PLINEWID
 40
0.0
  9
$COORDS
 70
     1
  9
$SPLFRAME
 70
     0
  9
$SPLINETYPE
 70
     6
  9
$SPLINESEGS
 70
     8
  9
$ATTDIA
 70
     0
  9
$ATTREQ
 70
     1
  9
$HANDLING
 70
     0
  9
$HANDSEED
  5
27
  9
$SURFTAB1
 70
     6
  9
$SURFTAB2
 70
     6
  9
$SURFTYPE
 70
     6
  9
$SURFU
 70
     6
  9
$SURFV
 70
     6
  9
$UCSNAME
  2

  9
$UCSORG
 10
0.0
 20
0.0
 30
0.0
  9
$UCSXDIR
 10
1.0
 20
0.0
 30
0.0
  9
$UCSYDIR
 10
0.0
 20
1.0
 30
0.0
  9
$PUCSNAME
  2

  9
$PUCSORG
 10
0.0
 20
0.0
 30
0.0
  9
$PUCSXDIR
 10
1.0
 20
0.0
 30
0.0
  9
$PUCSYDIR
 10
0.0
 20
1.0
 30
0.0
  9
$USERI1
 70
     0
  9
$USERI2
 70
     0
  9
$USERI3
 70
     0
  9
$USERI4
 70
     0
  9
$USERI5
 70
     0
  9
$USERR1
 40
0.0
  9
$USERR2
 40
0.0
  9
$USERR3
 40
0.0
  9
$USERR4
 40
0.0
  9
$USERR5
 40
0.0
  9
$WORLDVIEW
 70
     1
  9
$SHADEDGE
 70
     3
  9
$SHADEDIF
 70
    70
  9
$TILEMODE
 70
     1
  9
$MAXACTVP
 70
    16
  9
$PINSBASE
 10
0.0
 20
0.0
 30
0.0
  9
$PLIMCHECK
 70
     0
  9
$PEXTMIN
 10
1.000000E+20
 20
1.000000E+20
 30
1.000000E+20
  9
$PEXTMAX
 10
-1.000000E+20
 20
-1.000000E+20
 30
-1.000000E+20
  9
$PLIMMIN
 10
0.0
 20
0.0
  9
$PLIMMAX
 10
12.0
 20
9.0
  9
$UNITMODE
 70
     0
  9
$VISRETAIN
 70
     0
  9
$PLINEGEN
 70
     0
  9
$PSLTSCALE
 70
     1
  9
$TREEDEPTH
 70
  3020
  9
$DWGCODEPAGE
  3
iso8859-1
  0
ENDSEC
  0
SECTION
  2
TABLES
  0
TABLE
  2
VPORT
 70
     1
  0
VPORT
  2
*ACTIVE
 70
     0
 10
0.0
 20
0.0
 11
1.0
 21
1.0
 12
6.801242
 22
4.5
 13
0.0
 23
0.0
 14
1.0
 24
1.0
 15
0.0
 25
0.0
 16
0.0
 26
0.0
 36
1.0
 17
0.0
 27
0.0
 37
0.0
 40
9.0
 41
1.511387
 42
50.0
 43
0.0
 44
0.0
 50
0.0
 51
0.0
 71
     0
 72
   100
 73
     1
 74
     1
 75
     0
 76
     0
 77
     0
 78
     0
  0
ENDTAB
  0
TABLE
  2
LTYPE
 70
    39
  0
LTYPE
  2
CONTINUOUS
 70
     0
  3
Solid line
 72
    65
 73
     0
 40
0.0
  0
LTYPE
  2
BORDER
 70
    64
  3
__ __ . __ __ . __ __ . __ __ . __ __ . __ __ .
 72
    65
 73
     6
 40
1.75
 49
0.5
 49
-0.25
 49
0.5
 49
-0.25
 49
0.0
 49
-0.25
  0
LTYPE
  2
BORDER2
 70
    64
  3
__.__.__.__.__.__.__.__.__.__.__.__.__.__.__.__
 72
    65
 73
     6
 40
0.875
 49
0.25
 49
-0.125
 49
0.25
 49
-0.125
 49
0.0
 49
-0.125
  0
LTYPE
  2
BORDERX2
 70
    64
  3
____  ____  .  ____  ____  .  ____  ____  .  __
 72
    65
 73
     6
 40
3.5
 49
1.0
 49
-0.5
 49
1.0
 49
-0.5
 49
0.0
 49
-0.5
  0
LTYPE
  2
CENTER
 70
    64
  3
____ _ ____ _ ____ _ ____ _ ____ _ ____ _ ____
 72
    65
 73
     4
 40
2.0
 49
1.25
 49
-0.25
 49
0.25
 49
-0.25
  0
LTYPE
  2
CENTER2
 70
    64
  3
___ _ ___ _ ___ _ ___ _ ___ _ ___ _ ___ _ ___ _
 72
    65
 73
     4
 40
1.125
 49
0.75
 49
-0.125
 49
0.125
 49
-0.125
  0
LTYPE
  2
CENTERX2
 70
    64
  3
________  __  ________  __  ________  __  _____
 72
    65
 73
     4
 40
4.0
 49
2.5
 49
-0.5
 49
0.5
 49
-0.5
  0
LTYPE
  2
DASHDOT
 70
    64
  3
__ . __ . __ . __ . __ . __ . __ . __ . __ . __
 72
    65
 73
     4
 40
1.0
 49
0.5
 49
-0.25
 49
0.0
 49
-0.25
  0
LTYPE
  2
DASHDOT2
 70
    64
  3
_._._._._._._._._._._._._._._._._._._._._._._._
 72
    65
 73
     4
 40
0.5
 49
0.25
 49
-0.125
 49
0.0
 49
-0.125
  0
LTYPE
  2
DASHDOTX2
 70
    64
  3
____  .  ____  .  ____  .  ____  .  ____  .  __
 72
    65
 73
     4
 40
2.0
 49
1.0
 49
-0.5
 49
0.0
 49
-0.5
  0
LTYPE
  2
DASHED
 70
    64
  3
__ __ __ __ __ __ __ __ __ __ __ __ __ __ __ __
 72
    65
 73
     2
 40
0.75
 49
0.5
 49
-0.25
  0
LTYPE
  2
DASHED2
 70
    64
  3
_ _ _ _ _ _ _ _ _ _ _ _ _ _ _ _ _ _ _ _ _ _ _ _
 72
    65
 73
     2
 40
0.375
 49
0.25
 49
-0.125
  0
LTYPE
  2
DASHEDX2
 70
    64
  3
____  ____  ____  ____  ____  ____  ____  ____
 72
    65
 73
     2
 40
1.5
 49
1.0
 49
-0.5
  0
LTYPE
  2
DIVIDE
 70
    64
  3
____ . . ____ . . ____ . . ____ . . ____ . . __
 72
    65
 73
     6
 40
1.25
 49
0.5
 49
-0.25
 49
0.0
 49
-0.25
 49
0.0
 49
-0.25
  0
LTYPE
  2
DIVIDE2
 70
    64
  3
__..__..__..__..__..__..__..__..__..__..__..__.
 72
    65
 73
     6
 40
0.625
 49
0.25
 49
-0.125
 49
0.0
 49
-0.125
 49
0.0
 49
-0.125
  0
LTYPE
  2
DIVIDEX2
 70
    64
  3
________  .  .  ________  .  .  ________  .  .
 72
    65
 73
     6
 40
2.5
 49
1.0
 49
-0.5
 49
0.0
 49
-0.5
 49
0.0
 49
-0.5
  0
LTYPE
  2
DOT
 70
    64
  3
. . . . . . . . . . . . . . . . . . . . . . . .
 72
    65
 73
     2
 40
0.25
 49
0.0
 49
-0.25
  0
LTYPE
  2
DOT2
 70
    64
  3
...............................................
 72
    65
 73
     2
 40
0.125
 49
0.0
 49
-0.125
  0
LTYPE
  2
DOTX2
 70
    64
  3
.  .  .  .  .  .  .  .  .  .  .  .  .  .  .  .
 72
    65
 73
     2
 40
0.5
 49
0.0
 49
-0.5
  0
LTYPE
  2
HIDDEN
 70
    64
  3
__ __ __ __ __ __ __ __ __ __ __ __ __ __ __ __
 72
    65
 73
     2
 40
0.375
 49
0.25
 49
-0.125
  0
LTYPE
  2
HIDDEN2
 70
    64
  3
_ _ _ _ _ _ _ _ _ _ _ _ _ _ _ _ _ _ _ _ _ _ _ _
 72
    65
 73
     2
 40
0.1875
 49
0.125
 49
-0.0625
  0
LTYPE
  2
HIDDENX2
 70
    64
  3
____ ____ ____ ____ ____ ____ ____ ____ ____ __
 72
    65
 73
     2
 40
0.75
 49
0.5
 49
-0.25
  0
LTYPE
  2
PHANTOM
 70
    64
  3
______  __  __  ______  __  __  ______  __  __
 72
    65
 73
     6
 40
2.5
 49
1.25
 49
-0.25
 49
0.25
 49
-0.25
 49
0.25
 49
-0.25
  0
LTYPE
  2
PHANTOM2
 70
    64
  3
___ _ _ ___ _ _ ___ _ _ ___ _ _ ___ _ _ ___ _ _
 72
    65
 73
     6
 40
1.25
 49
0.625
 49
-0.125
 49
0.125
 49
-0.125
 49
0.125
 49
-0.125
  0
LTYPE
  2
PHANTOMX2
 70
    64
  3
____________    ____    ____    ____________
 72
    65
 73
     6
 40
5.0
 49
2.5
 49
-0.5
 49
0.5
 49
-0.5
 49
0.5
 49
-0.5
  0
LTYPE
  2
ACAD_ISO02W100
 70
    64
  3
__ __ __ __ __ __ __ __ __ __ __ __ __ __ __ __
 72
    65
 73
     2
 40
15.0
 49
12.0
 49
-3.0
  0
LTYPE
  2
ACAD_ISO03W100
 70
    64
  3
__    __    __    __    __    __    __    __
 72
    65
 73
     2
 40
30.0
 49
12.0
 49
-18.0
  0
LTYPE
  2
ACAD_ISO04W100
 70
    64
  3
____ . ____ . ____ . ____ . ____ . ____ . ____
 72
    65
 73
     4
 40
30.5
 49
24.0
 49
-3.0
 49
0.5
 49
-3.0
  0
LTYPE
  2
ACAD_ISO05W100
 70
    64
  3
____ .. ____ .. ____ .. ____ .. ____ .. ____ ..
 72
    65
 73
     6
 40
34.0
 49
24.0
 49
-3.0
 49
0.5
 49
-3.0
 49
0.5
 49
-3.0
  0
LTYPE
  2
ACAD_ISO06W100
 70
    64
  3
____ ... ____ ... ____ ... ____ ... ____ ... __
 72
    65
 73
     8
 40
37.5
 49
24.0
 49
-3.0
 49
0.5
 49
-3.0
 49
0.5
 49
-3.0
 49
0.5
 49
-3.0
  0
LTYPE
  2
ACAD_ISO07W100
 70
    64
  3
. . . . . . . . . . . . . . . . . . . . . . . .
 72
    65
 73
     2
 40
3.5
 49
0.5
 49
-3.0
  0
LTYPE
  2
ACAD_ISO08W100
 70
    64
  3
____ __ ____ __ ____ __ ____ ____ __ __ ____ __
 72
    65
 73
     4
 40
36.0
 49
24.0
 49
-3.0
 49
6.0
 49
-3.0
  0
LTYPE
  2
ACAD_ISO09W100
 70
    64
  3
____ __ __ ____ __ __ ____ __ __ ____ __ __ ___
 72
    65
 73
     6
 40
45.0
 49
24.0
 49
-3.0
 49
6.0
 49
-3.0
 49
6.0
 49
-3.0
  0
LTYPE
  2
ACAD_ISO10W100
 70
    64
  3
__ . __ . __ . __ . __ . __ . __ . __ . __ . __
 72
    65
 73
     4
 40
18.5
 49
12.0
 49
-3.0
 49
0.5
 49
-3.0
  0
LTYPE
  2
ACAD_ISO11W100
 70
    64
  3
__ __ . __ __ . __ __ . __ __ . __ __ . __ __ .
 72
    65
 73
     6
 40
33.5
 49
12.0
 49
-3.0
 49
12.0
 49
-3.0
 49
0.5
 49
-3.0
  0
LTYPE
  2
ACAD_ISO12W100
 70
    64
  3
__ . . __ . . __ . . __ . . __ . . __ . . __ .
 72
    65
 73
     6
 40
22.0
 49
12.0
 49
-3.0
 49
0.5
 49
-3.0
 49
0.5
 49
-3.0
  0
LTYPE
  2
ACAD_ISO13W100
 70
    64
  3
__ __ . . __ __ . . __ __ . . __ __ . . __ __ .
 72
    65
 73
     8
 40
37.0
 49
12.0
 49
-3.0
 49
12.0
 49
-3.0
 49
0.5
 49
-3.0
 49
0.5
 49
-3.0
  0
LTYPE
  2
ACAD_ISO14W100
 70
    64
  3
__ . . . __ . . . __ . . . __ . . . __ . . . __
 72
    65
 73
     8
 40
25.5
 49
12.0
 49
-3.0
 49
0.5
 49
-3.0
 49
0.5
 49
-3.0
 49
0.5
 49
-3.0
  0
LTYPE
  2
ACAD_ISO15W100
 70
    64
  3
__ __ . . . __ __ . . . __ __ . . . __ __ . . .
 72
    65
 73
    10
 40
40.5
 49
12.0
 49
-3.0
 49
12.0
 49
-3.0
 49
0.5
 49
-3.0
 49
0.5
 49
-3.0
 49
0.5
 49
-3.0
  0
ENDTAB
  0
TABLE
  2
LAYER
 70
     1
  0
LAYER
  2
0
 70
     0
 62
     7
  6
CONTINUOUS
  0
ENDTAB
  0
TABLE
  2
STYLE
 70
     4
  0
STYLE
  2
STANDARD
 70
    64
 40
0.0
 41
1.0
 50
0.0
 71
     0
 42
0.2
  3
txt
  4

  0
STYLE
  2
TOLERANCE
 70
    64
 40
0.0
 41
1.0
 50
0.0
 71
     0
 42
0.2
  3
iges1003.shx
  4

  0
STYLE
  2
ROMANS
 70
    64
 40
0.0
 41
1.0
 50
0.0
 71
     0
 42
0.2
  3
romans.shx
  4

  0
STYLE
  2
ROMANC
 70
    64
 40
0.0
 41
1.0
 50
0.0
 71
     0
 42
0.2
  3
romanc.shx
  4

  0
ENDTAB
  0
TABLE
  2
VIEW
 70
     0
  0
ENDTAB
  0
TABLE
  2
UCS
 70
     0
  0
ENDTAB
  0
TABLE
  2
APPID
 70
     1
  0
APPID
  2
ACAD
 70
     0
  0
ENDTAB
  0
TABLE
  2
DIMSTYLE
 70
     2
  0
DIMSTYLE
  2
STANDARD
 70
     0
  3

  4

  5

  6

  7

 40
1.0
 41
0.18
 42
0.0625
 43
0.38
 44
0.18
 45
0.0
 46
0.0
 47
0.0
 48
0.0
 71
     0
 72
     0
 73
     1
 74
     1
 75
     0
 76
     0
 77
     0
 78
     0
140
0.18
141
0.09
142
0.0
143
25.4
144
1.0
145
0.0
146
1.0
147
0.09
170
     0
171
     2
172
     0
173
     0
174
     0
175
     0
176
     0
177
     0
178
     0
  0
DIMSTYLE
  2
UNNAMED
 70
     0
  3

  4

  5

  6

  7

 40
1.0
 41
0.18
 42
0.0625
 43
0.38
 44
0.18
 45
0.0
 46
0.0
 47
0.0
 48
0.0
 71
     0
 72
     0
 73
     1
 74
     1
 75
     0
 76
     0
 77
     0
 78
     0
140
0.18
141
0.09
142
0.0
143
25.4
144
1.0
145
0.0
146
1.0
147
0.09
170
     0
171
     2
172
     0
173
     0
174
     0
175
     0
176
     0
177
     0
178
     0
  0
ENDTAB
  0
ENDSEC
  0
SECTION
  2
BLOCKS
  0
BLOCK
  8
0
  6
CONTINUOUS
 62
     7
  2
*H0
 70
    65
 10
0.0
 20
0.0
 30
0.0
  3
*H0
  0
LINE
  8
0
  6
CONTINUOUS
 62
     7
 10
-146.0
 20
123.0
 30
0.0
 11
-296.0
 21
123.0
 31
0.0
  0
LINE
  8
0
  6
CONTINUOUS
 62
     7
 10
-146.0
 20
121.0
 30
0.0
 11
-296.0
 21
121.0
 31
0.0
  0
LINE
  8
0
  6
CONTINUOUS
 62
     7
 10
-146.0
 20
119.0
 30
0.0
 11
-296.0
 21
119.0
 31
0.0
  0
LINE
  8
0
  6
CONTINUOUS
 62
     7
 10
-146.0
 20
117.0
 30
0.0
 11
-296.0
 21
117.0
 31
0.0
  0
LINE
  8
0
  6
CONTINUOUS
 62
     7
 10
-146.0
 20
115.0
 30
0.0
 11
-296.0
 21
115.0
 31
0.0
  0
LINE
  8
0
  6
CONTINUOUS
 62
     7
 10
-146.0
 20
113.0
 30
0.0
 11
-296.0
 21
113.0
 31
0.0
  0
LINE
  8
0
  6
CONTINUOUS
 62
     7
 10
-146.0
 20
111.0
 30
0.0
 11
-296.0
 21
111.0
 31
0.0
  0
LINE
  8
0
  6
CONTINUOUS
 62
     7
 10
-146.0
 20
109.0
 30
0.0
 11
-296.0
 21
109.0
 31
0.0
  0
LINE
  8
0
  6
CONTINUOUS
 62
     7
 10
-146.0
 20
107.0
 30
0.0
 11
-296.0
 21
107.0
 31
0.0
  0
LINE
  8
0
  6
CONTINUOUS
 62
     7
 10
-146.0
 20
105.0
 30
0.0
 11
-296.0
 21
105.0
 31
0.0
  0
LINE
  8
0
  6
CONTINUOUS
 62
     7
 10
-146.0
 20
103.0
 30
0.0
 11
-296.0
 21
103.0
 31
0.0
  0
LINE
  8
0
  6
CONTINUOUS
 62
     7
 10
-146.0
 20
101.0
 30
0.0
 11
-296.0
 21
101.0
 31
0.0
  0
LINE
  8
0
  6
CONTINUOUS
 62
     7
 10
-146.0
 20
99.0
 30
0.0
 11
-296.0
 21
99.0
 31
0.0
  0
LINE
  8
0
  6
CONTINUOUS
 62
     7
 10
-146.0
 20
97.0
 30
0.0
 11
-296.0
 21
97.0
 31
0.0
  0
LINE
  8
0
  6
CONTINUOUS
 62
     7
 10
-146.0
 20
95.0
 30
0.0
 11
-296.0
 21
95.0
 31
0.0
  0
LINE
  8
0
  6
CONTINUOUS
 62
     7
 10
-146.0
 20
93.0
 30
0.0
 11
-296.0
 21
93.0
 31
0.0
  0
LINE
  8
0
  6
CONTINUOUS
 62
     7
 10
-146.0
 20
91.0
 30
0.0
 11
-206.0
 21
91.0
 31
0.0
  0
LINE
  8
0
  6
CONTINUOUS
 62
     7
 10
-146.0
 20
89.0
 30
0.0
 11
-206.0
 21
89.0
 31
0.0
  0
LINE
  8
0
  6
CONTINUOUS
 62
     7
 10
-146.0
 20
87.0
 30
0.0
 11
-206.0
 21
87.0
 31
0.0
  0
LINE
  8
0
  6
CONTINUOUS
 62
     7
 10
-146.0
 20
85.0
 30
0.0
 11
-206.0
 21
85.0
 31
0.0
  0
LINE
  8
0
  6
CONTINUOUS
 62
     7
 10
-146.0
 20
83.0
 30
0.0
 11
-206.0
 21
83.0
 31
0.0
  0
LINE
  8
0
  6
CONTINUOUS
 62
     7
 10
-146.0
 20
81.0
 30
0.0
 11
-206.0
 21
81.0
 31
0.0
  0
LINE
  8
0
  6
CONTINUOUS
 62
     7
 10
-146.0
 20
79.0
 30
0.0
 11
-206.0
 21
79.0
 31
0.0
  0
LINE
  8
0
  6
CONTINUOUS
 62
     7
 10
-146.0
 20
77.0
 30
0.0
 11
-206.0
 21
77.0
 31
0.0
  0
LINE
  8
0
  6
CONTINUOUS
 62
     7
 10
-146.0
 20
75.0
 30
0.0
 11
-206.0
 21
75.0
 31
0.0
  0
LINE
  8
0
  6
CONTINUOUS
 62
     7
 10
-146.0
 20
73.0
 30
0.0
 11
-206.0
 21
73.0
 31
0.0
  0
LINE
  8
0
  6
CONTINUOUS
 62
     7
 10
-146.0
 20
71.0
 30
0.0
 11
-206.0
 21
71.0
 31
0.0
  0
LINE
  8
0
  6
CONTINUOUS
 62
     7
 10
-146.0
 20
69.0
 30
0.0
 11
-206.0
 21
69.0
 31
0.0
  0
LINE
  8
0
  6
CONTINUOUS
 62
     7
 10
-146.0
 20
67.0
 30
0.0
 11
-206.0
 21
67.0
 31
0.0
  0
LINE
  8
0
  6
CONTINUOUS
 62
     7
 10
-146.0
 20
65.0
 30
0.0
 11
-296.0
 21
65.0
 31
0.0
  0
LINE
  8
0
  6
CONTINUOUS
 62
     7
 10
-146.0
 20
63.0
 30
0.0
 11
-296.0
 21
63.0
 31
0.0
  0
LINE
  8
0
  6
CONTINUOUS
 62
     7
 10
-146.0
 20
61.0
 30
0.0
 11
-296.0
 21
61.0
 31
0.0
  0
LINE
  8
0
  6
CONTINUOUS
 62
     7
 10
-146.0
 20
59.0
 30
0.0
 11
-296.0
 21
59.0
 31
0.0
  0
LINE
  8
0
  6
CONTINUOUS
 62
     7
 10
-146.0
 20
57.0
 30
0.0
 11
-296.0
 21
57.0
 31
0.0
  0
LINE
  8
0
  6
CONTINUOUS
 62
     7
 10
-146.0
 20
55.0
 30
0.0
 11
-296.0
 21
55.0
 31
0.0
  0
LINE
  8
0
  6
CONTINUOUS
 62
     7
 10
-146.0
 20
53.0
 30
0.0
 11
-296.0
 21
53.0
 31
0.0
  0
LINE
  8
0
  6
CONTINUOUS
 62
     7
 10
-146.0
 20
51.0
 30
0.0
 11
-296.0
 21
51.0
 31
0.0
  0
LINE
  8
0
  6
CONTINUOUS
 62
     7
 10
-146.0
 20
49.0
 30
0.0
 11
-296.0
 21
49.0
 31
0.0
  0
LINE
  8
0
  6
CONTINUOUS
 62
     7
 10
-146.0
 20
47.0
 30
0.0
 11
-296.0
 21
47.0
 31
0.0
  0
LINE
  8
0
  6
CONTINUOUS
 62
     7
 10
-146.0
 20
45.0
 30
0.0
 11
-296.0
 21
45.0
 31
0.0
  0
LINE
  8
0
  6
CONTINUOUS
 62
     7
 10
-146.0
 20
43.0
 30
0.0
 11
-296.0
 21
43.0
 31
0.0
  0
LINE
  8
0
  6
CONTINUOUS
 62
     7
 10
-146.0
 20
41.0
 30
0.0
 11
-296.0
 21
41.0
 31
0.0
  0
LINE
  8
0
  6
CONTINUOUS
 62
     7
 10
-146.0
 20
39.0
 30
0.0
 11
-296.0
 21
39.0
 31
0.0
  0
LINE
  8
0
  6
CONTINUOUS
 62
     7
 10
-146.0
 20
37.0
 30
0.0
 11
-296.0
 21
37.0
 31
0.0
  0
LINE
  8
0
  6
CONTINUOUS
 62
     7
 10
-146.0
 20
35.0
 30
0.0
 11
-296.0
 21
35.0
 31
0.0
  0
LINE
  8
0
  6
CONTINUOUS
 62
     7
 10
-146.0
 20
33.0
 30
0.0
 11
-296.0
 21
33.0
 31
0.0
  0
LINE
  8
0
  6
CONTINUOUS
 62
     7
 10
-146.0
 20
31.0
 30
0.0
 11
-296.0
 21
31.0
 31
0.0
  0
LINE
  8
0
  6
CONTINUOUS
 62
     7
 10
-146.0
 20
29.0
 30
0.0
 11
-296.0
 21
29.0
 31
0.0
  0
LINE
  8
0
  6
CONTINUOUS
 62
     7
 10
-146.0
 20
27.0
 30
0.0
 11
-296.0
 21
27.0
 31
0.0
  0
LINE
  8
0
  6
CONTINUOUS
 62
     7
 10
-146.0
 20
25.0
 30
0.0
 11
-296.0
 21
25.0
 31
0.0
  0
LINE
  8
0
  6
CONTINUOUS
 62
     7
 10
-146.0
 20
23.0
 30
0.0
 11
-296.0
 21
23.0
 31
0.0
  0
LINE
  8
0
  6
CONTINUOUS
 62
     7
 10
-146.0
 20
21.0
 30
0.0
 11
-296.0
 21
21.0
 31
0.0
  0
ENDBLK
  8
0
  0
BLOCK
  8
0
  6
CONTINUOUS
 62
     7
  2
*H1
 70
    65
 10
0.0
 20
0.0
 30
0.0
  3
*H1
  0
LINE
  8
0
  6
CONTINUOUS
 62
     7
 10
-295.021423
 20
125.0
 30
0.0
 11
-296.0
 21
124.021431
 31
0.0
  0
LINE
  8
0
  6
CONTINUOUS
 62
     7
 10
-292.192993
 20
125.0
 30
0.0
 11
-296.0
 21
121.193001
 31
0.0
  0
LINE
  8
0
  6
CONTINUOUS
 62
     7
 10
-289.364563
 20
125.0
 30
0.0
 11
-296.0
 21
118.364571
 31
0.0
  0
LINE
  8
0
  6
CONTINUOUS
 62
     7
 10
-286.536133
 20
125.0
 30
0.0
 11
-296.0
 21
115.53614
 31
0.0
  0
LINE
  8
0
  6
CONTINUOUS
 62
     7
 10
-283.707703
 20
125.0
 30
0.0
 11
-296.0
 21
112.70771
 31
0.0
  0
LINE
  8
0
  6
CONTINUOUS
 62
     7
 10
-280.879272
 20
125.0
 30
0.0
 11
-296.0
 21
109.87928
 31
0.0
  0
LINE
  8
0
  6
CONTINUOUS
 62
     7
 10
-278.050842
 20
125.0
 30
0.0
 11
-296.0
 21
107.05085
 31
0.0
  0
LINE
  8
0
  6
CONTINUOUS
 62
     7
 10
-275.222412
 20
125.0
 30
0.0
 11
-296.0
 21
104.22242
 31
0.0
  0
LINE
  8
0
  6
CONTINUOUS
 62
     7
 10
-272.393982
 20
125.0
 30
0.0
 11
-296.0
 21
101.39399
 31
0.0
  0
LINE
  8
0
  6
CONTINUOUS
 62
     7
 10
-269.565552
 20
125.0
 30
0.0
 11
-296.0
 21
98.565559
 31
0.0
  0
LINE
  8
0
  6
CONTINUOUS
 62
     7
 10
-266.737122
 20
125.0
 30
0.0
 11
-296.0
 21
95.737129
 31
0.0
  0
LINE
  8
0
  6
CONTINUOUS
 62
     7
 10
-263.908691
 20
125.0
 30
0.0
 11
-296.0
 21
92.908699
 31
0.0
  0
LINE
  8
0
  6
CONTINUOUS
 62
     7
 10
-261.080322
 20
125.0
 30
0.0
 11
-294.080322
 21
92.0
 31
0.0
  0
LINE
  8
0
  6
CONTINUOUS
 62
     7
 10
-258.251892
 20
125.0
 30
0.0
 11
-291.251892
 21
92.0
 31
0.0
  0
LINE
  8
0
  6
CONTINUOUS
 62
     7
 10
-255.423462
 20
125.0
 30
0.0
 11
-288.423462
 21
92.0
 31
0.0
  0
LINE
  8
0
  6
CONTINUOUS
 62
     7
 10
-252.595032
 20
125.0
 30
0.0
 11
-285.595032
 21
92.0
 31
0.0
  0
LINE
  8
0
  6
CONTINUOUS
 62
     7
 10
-249.766602
 20
125.0
 30
0.0
 11
-282.766602
 21
92.0
 31
0.0
  0
LINE
  8
0
  6
CONTINUOUS
 62
     7
 10
-246.938171
 20
125.0
 30
0.0
 11
-279.938171
 21
92.0
 31
0.0
  0
LINE
  8
0
  6
CONTINUOUS
 62
     7
 10
-244.109741
 20
125.0
 30
0.0
 11
-277.109741
 21
92.0
 31
0.0
  0
LINE
  8
0
  6
CONTINUOUS
 62
     7
 10
-241.281311
 20
125.0
 30
0.0
 11
-274.281311
 21
92.0
 31
0.0
  0
LINE
  8
0
  6
CONTINUOUS
 62
     7
 10
-238.452881
 20
125.0
 30
0.0
 11
-271.452881
 21
92.0
 31
0.0
  0
LINE
  8
0
  6
CONTINUOUS
 62
     7
 10
-235.624466
 20
125.0
 30
0.0
 11
-268.624451
 21
92.0
 31
0.0
  0
LINE
  8
0
  6
CONTINUOUS
 62
     7
 10
-294.624481
 20
66.0
 30
0.0
 11
-296.0
 21
64.624466
 31
0.0
  0
LINE
  8
0
  6
CONTINUOUS
 62
     7
 10
-232.796036
 20
125.0
 30
0.0
 11
-265.796021
 21
92.0
 31
0.0
  0
LINE
  8
0
  6
CONTINUOUS
 62
     7
 10
-291.796051
 20
66.0
 30
0.0
 11
-296.0
 21
61.79604
 31
0.0
  0
LINE
  8
0
  6
CONTINUOUS
 62
     7
 10
-229.967606
 20
125.0
 30
0.0
 11
-262.96759
 21
92.0
 31
0.0
  0
LINE
  8
0
  6
CONTINUOUS
 62
     7
 10
-288.967621
 20
66.0
 30
0.0
 11
-296.0
 21
58.967613
 31
0.0
  0
LINE
  8
0
  6
CONTINUOUS
 62
     7
 10
-227.139175
 20
125.0
 30
0.0
 11
-260.13916
 21
92.0
 31
0.0
  0
LINE
  8
0
  6
CONTINUOUS
 62
     7
 10
-286.139191
 20
66.0
 30
0.0
 11
-296.0
 21
56.139187
 31
0.0
  0
LINE
  8
0
  6
CONTINUOUS
 62
     7
 10
-224.310745
 20
125.0
 30
0.0
 11
-257.31073
 21
92.0
 31
0.0
  0
LINE
  8
0
  6
CONTINUOUS
 62
     7
 10
-283.31076
 20
66.0
 30
0.0
 11
-296.0
 21
53.31076
 31
0.0
  0
LINE
  8
0
  6
CONTINUOUS
 62
     7
 10
-221.482315
 20
125.0
 30
0.0
 11
-254.4823
 21
92.0
 31
0.0
  0
LINE
  8
0
  6
CONTINUOUS
 62
     7
 10
-280.48233
 20
66.0
 30
0.0
 11
-296.0
 21
50.482334
 31
0.0
  0
LINE
  8
0
  6
CONTINUOUS
 62
     7
 10
-218.653885
 20
125.0
 30
0.0
 11
-251.65387
 21
92.0
 31
0.0
  0
LINE
  8
0
  6
CONTINUOUS
 62
     7
 10
-277.6539
 20
66.0
 30
0.0
 11
-296.0
 21
47.653908
 31
0.0
  0
LINE
  8
0
  6
CONTINUOUS
 62
     7
 10
-215.825455
 20
125.0
 30
0.0
 11
-248.825439
 21
92.0
 31
0.0
  0
LINE
  8
0
  6
CONTINUOUS
 62
     7
 10
-274.82547
 20
66.0
 30
0.0
 11
-296.0
 21
44.825481
 31
0.0
  0
LINE
  8
0
  6
CONTINUOUS
 62
     7
 10
-212.997025
 20
125.0
 30
0.0
 11
-245.997009
 21
92.0
 31
0.0
  0
LINE
  8
0
  6
CONTINUOUS
 62
     7
 10
-271.99704
 20
66.0
 30
0.0
 11
-296.0
 21
41.997055
 31
0.0
  0
LINE
  8
0
  6
CONTINUOUS
 62
     7
 10
-210.168594
 20
125.0
 30
0.0
 11
-243.168579
 21
92.0
 31
0.0
  0
LINE
  8
0
  6
CONTINUOUS
 62
     7
 10
-269.16861
 20
66.0
 30
0.0
 11
-296.0
 21
39.168629
 31
0.0
  0
LINE
  8
0
  6
CONTINUOUS
 62
     7
 10
-207.340164
 20
125.0
 30
0.0
 11
-240.340149
 21
92.0
 31
0.0
  0
LINE
  8
0
  6
CONTINUOUS
 62
     7
 10
-266.340179
 20
66.0
 30
0.0
 11
-296.0
 21
36.340202
 31
0.0
  0
LINE
  8
0
  6
CONTINUOUS
 62
     7
 10
-204.511734
 20
125.0
 30
0.0
 11
-237.511719
 21
92.0
 31
0.0
  0
LINE
  8
0
  6
CONTINUOUS
 62
     7
 10
-263.511749
 20
66.0
 30
0.0
 11
-296.0
 21
33.511776
 31
0.0
  0
LINE
  8
0
  6
CONTINUOUS
 62
     7
 10
-201.683304
 20
125.0
 30
0.0
 11
-234.683289
 21
92.0
 31
0.0
  0
LINE
  8
0
  6
CONTINUOUS
 62
     7
 10
-260.683319
 20
66.0
 30
0.0
 11
-296.0
 21
30.68335
 31
0.0
  0
LINE
  8
0
  6
CONTINUOUS
 62
     7
 10
-198.854874
 20
125.0
 30
0.0
 11
-231.854858
 21
92.0
 31
0.0
  0
LINE
  8
0
  6
CONTINUOUS
 62
     7
 10
-257.854889
 20
66.0
 30
0.0
 11
-296.0
 21
27.854923
 31
0.0
  0
LINE
  8
0
  6
CONTINUOUS
 62
     7
 10
-196.026443
 20
125.0
 30
0.0
 11
-229.026428
 21
92.0
 31
0.0
  0
LINE
  8
0
  6
CONTINUOUS
 62
     7
 10
-255.026459
 20
66.0
 30
0.0
 11
-296.0
 21
25.026497
 31
0.0
  0
LINE
  8
0
  6
CONTINUOUS
 62
     7
 10
-193.198013
 20
125.0
 30
0.0
 11
-226.197998
 21
92.0
 31
0.0
  0
LINE
  8
0
  6
CONTINUOUS
 62
     7
 10
-252.198029
 20
66.0
 30
0.0
 11
-296.0
 21
22.198071
 31
0.0
  0
LINE
  8
0
  6
CONTINUOUS
 62
     7
 10
-190.369629
 20
125.0
 30
0.0
 11
-223.369629
 21
92.0
 31
0.0
  0
LINE
  8
0
  6
CONTINUOUS
 62
     7
 10
-249.369629
 20
66.0
 30
0.0
 11
-295.369904
 21
19.999741
 31
0.0
  0
LINE
  8
0
  6
CONTINUOUS
 62
     7
 10
-187.541199
 20
125.0
 30
0.0
 11
-220.541199
 21
92.0
 31
0.0
  0
LINE
  8
0
  6
CONTINUOUS
 62
     7
 10
-246.541199
 20
66.0
 30
0.0
 11
-292.541473
 21
19.999741
 31
0.0
  0
LINE
  8
0
  6
CONTINUOUS
 62
     7
 10
-184.712769
 20
125.0
 30
0.0
 11
-217.712769
 21
92.0
 31
0.0
  0
LINE
  8
0
  6
CONTINUOUS
 62
     7
 10
-243.712769
 20
66.0
 30
0.0
 11
-289.713043
 21
19.999741
 31
0.0
  0
LINE
  8
0
  6
CONTINUOUS
 62
     7
 10
-181.884338
 20
125.0
 30
0.0
 11
-214.884338
 21
92.0
 31
0.0
  0
LINE
  8
0
  6
CONTINUOUS
 62
     7
 10
-240.884338
 20
66.0
 30
0.0
 11
-286.884613
 21
19.999741
 31
0.0
  0
LINE
  8
0
  6
CONTINUOUS
 62
     7
 10
-179.055908
 20
125.0
 30
0.0
 11
-212.055908
 21
92.0
 31
0.0
  0
LINE
  8
0
  6
CONTINUOUS
 62
     7
 10
-238.055908
 20
66.0
 30
0.0
 11
-284.056183
 21
19.999741
 31
0.0
  0
LINE
  8
0
  6
CONTINUOUS
 62
     7
 10
-176.227478
 20
125.0
 30
0.0
 11
-209.227478
 21
92.0
 31
0.0
  0
LINE
  8
0
  6
CONTINUOUS
 62
     7
 10
-235.227478
 20
66.0
 30
0.0
 11
-281.227753
 21
19.999741
 31
0.0
  0
LINE
  8
0
  6
CONTINUOUS
 62
     7
 10
-173.399048
 20
125.0
 30
0.0
 11
-206.399048
 21
92.0
 31
0.0
  0
LINE
  8
0
  6
CONTINUOUS
 62
     7
 10
-232.399048
 20
66.0
 30
0.0
 11
-278.399323
 21
19.999741
 31
0.0
  0
LINE
  8
0
  6
CONTINUOUS
 62
     7
 10
-170.570633
 20
125.0
 30
0.0
 11
-206.0
 21
89.570641
 31
0.0
  0
LINE
  8
0
  6
CONTINUOUS
 62
     7
 10
-229.570648
 20
66.0
 30
0.0
 11
-275.570892
 21
19.999741
 31
0.0
  0
LINE
  8
0
  6
CONTINUOUS
 62
     7
 10
-167.742203
 20
125.0
 30
0.0
 11
-206.0
 21
86.74221
 31
0.0
  0
LINE
  8
0
  6
CONTINUOUS
 62
     7
 10
-226.742218
 20
66.0
 30
0.0
 11
-272.742462
 21
19.999741
 31
0.0
  0
LINE
  8
0
  6
CONTINUOUS
 62
     7
 10
-164.913773
 20
125.0
 30
0.0
 11
-206.0
 21
83.91378
 31
0.0
  0
LINE
  8
0
  6
CONTINUOUS
 62
     7
 10
-223.913788
 20
66.0
 30
0.0
 11
-269.914032
 21
19.999741
 31
0.0
  0
LINE
  8
0
  6
CONTINUOUS
 62
     7
 10
-162.085342
 20
125.0
 30
0.0
 11
-206.0
 21
81.08535
 31
0.0
  0
LINE
  8
0
  6
CONTINUOUS
 62
     7
 10
-221.085358
 20
66.0
 30
0.0
 11
-267.085602
 21
19.999741
 31
0.0
  0
LINE
  8
0
  6
CONTINUOUS
 62
     7
 10
-159.256912
 20
125.0
 30
0.0
 11
-206.0
 21
78.25692
 31
0.0
  0
LINE
  8
0
  6
CONTINUOUS
 62
     7
 10
-218.256927
 20
66.0
 30
0.0
 11
-264.257172
 21
19.999741
 31
0.0
  0
LINE
  8
0
  6
CONTINUOUS
 62
     7
 10
-156.428482
 20
125.0
 30
0.0
 11
-206.0
 21
75.42849
 31
0.0
  0
LINE
  8
0
  6
CONTINUOUS
 62
     7
 10
-215.428497
 20
66.0
 30
0.0
 11
-261.428741
 21
19.999741
 31
0.0
  0
LINE
  8
0
  6
CONTINUOUS
 62
     7
 10
-153.600052
 20
125.0
 30
0.0
 11
-206.0
 21
72.60006
 31
0.0
  0
LINE
  8
0
  6
CONTINUOUS
 62
     7
 10
-212.600067
 20
66.0
 30
0.0
 11
-258.600311
 21
19.999741
 31
0.0
  0
LINE
  8
0
  6
CONTINUOUS
 62
     7
 10
-150.771622
 20
125.0
 30
0.0
 11
-206.0
 21
69.771629
 31
0.0
  0
LINE
  8
0
  6
CONTINUOUS
 62
     7
 10
-209.771637
 20
66.0
 30
0.0
 11
-255.771881
 21
19.999741
 31
0.0
  0
LINE
  8
0
  6
CONTINUOUS
 62
     7
 10
-147.943192
 20
125.0
 30
0.0
 11
-206.0
 21
66.943199
 31
0.0
  0
LINE
  8
0
  6
CONTINUOUS
 62
     7
 10
-206.943207
 20
66.0
 30
0.0
 11
-252.943451
 21
19.999741
 31
0.0
  0
LINE
  8
0
  6
CONTINUOUS
 62
     7
 10
-146.0
 20
124.114792
 30
0.0
 11
-250.115051
 21
19.999741
 31
0.0
  0
LINE
  8
0
  6
CONTINUOUS
 62
     7
 10
-146.0
 20
121.286362
 30
0.0
 11
-247.286621
 21
19.999741
 31
0.0
  0
LINE
  8
0
  6
CONTINUOUS
 62
     7
 10
-146.0
 20
118.457932
 30
0.0
 11
-244.458191
 21
19.999741
 31
0.0
  0
LINE
  8
0
  6
CONTINUOUS
 62
     7
 10
-146.0
 20
115.629501
 30
0.0
 11
-241.629761
 21
19.999741
 31
0.0
  0
LINE
  8
0
  6
CONTINUOUS
 62
     7
 10
-146.0
 20
112.801071
 30
0.0
 11
-238.801331
 21
19.999741
 31
0.0
  0
LINE
  8
0
  6
CONTINUOUS
 62
     7
 10
-146.0
 20
109.972641
 30
0.0
 11
-235.9729
 21
19.999741
 31
0.0
  0
LINE
  8
0
  6
CONTINUOUS
 62
     7
 10
-146.0
 20
107.144211
 30
0.0
 11
-233.14447
 21
19.999741
 31
0.0
  0
LINE
  8
0
  6
CONTINUOUS
 62
     7
 10
-146.0
 20
104.315781
 30
0.0
 11
-230.31604
 21
19.999741
 31
0.0
  0
LINE
  8
0
  6
CONTINUOUS
 62
     7
 10
-146.0
 20
101.48735
 30
0.0
 11
-227.48761
 21
19.999741
 31
0.0
  0
LINE
  8
0
  6
CONTINUOUS
 62
     7
 10
-146.0
 20
98.65892
 30
0.0
 11
-224.65918
 21
19.999741
 31
0.0
  0
LINE
  8
0
  6
CONTINUOUS
 62
     7
 10
-146.0
 20
95.83049
 30
0.0
 11
-221.83075
 21
19.999741
 31
0.0
  0
LINE
  8
0
  6
CONTINUOUS
 62
     7
 10
-146.0
 20
93.00206
 30
0.0
 11
-219.002319
 21
19.999741
 31
0.0
  0
LINE
  8
0
  6
CONTINUOUS
 62
     7
 10
-146.0
 20
90.17363
 30
0.0
 11
-216.173889
 21
19.999741
 31
0.0
  0
LINE
  8
0
  6
CONTINUOUS
 62
     7
 10
-146.0
 20
87.3452
 30
0.0
 11
-213.345459
 21
19.999741
 31
0.0
  0
LINE
  8
0
  6
CONTINUOUS
 62
     7
 10
-146.0
 20
84.516769
 30
0.0
 11
-210.517029
 21
19.999741
 31
0.0
  0
LINE
  8
0
  6
CONTINUOUS
 62
     7
 10
-146.0
 20
81.688339
 30
0.0
 11
-207.688599
 21
19.999741
 31
0.0
  0
LINE
  8
0
  6
CONTINUOUS
 62
     7
 10
-146.0
 20
78.859909
 30
0.0
 11
-204.860168
 21
19.999741
 31
0.0
  0
LINE
  8
0
  6
CONTINUOUS
 62
     7
 10
-146.0
 20
76.031479
 30
0.0
 11
-202.031738
 21
19.999741
 31
0.0
  0
LINE
  8
0
  6
CONTINUOUS
 62
     7
 10
-146.0
 20
73.203049
 30
0.0
 11
-199.203308
 21
19.999741
 31
0.0
  0
LINE
  8
0
  6
CONTINUOUS
 62
     7
 10
-146.0
 20
70.374619
 30
0.0
 11
-196.374878
 21
19.999741
 31
0.0
  0
LINE
  8
0
  6
CONTINUOUS
 62
     7
 10
-146.0
 20
67.546188
 30
0.0
 11
-193.546448
 21
19.999741
 31
0.0
  0
LINE
  8
0
  6
CONTINUOUS
 62
     7
 10
-146.0
 20
64.717758
 30
0.0
 11
-190.718018
 21
19.999741
 31
0.0
  0
LINE
  8
0
  6
CONTINUOUS
 62
     7
 10
-146.0
 20
61.889332
 30
0.0
 11
-187.889587
 21
19.999741
 31
0.0
  0
LINE
  8
0
  6
CONTINUOUS
 62
     7
 10
-146.0
 20
59.060905
 30
0.0
 11
-185.061157
 21
19.999741
 31
0.0
  0
LINE
  8
0
  6
CONTINUOUS
 62
     7
 10
-146.0
 20
56.232479
 30
0.0
 11
-182.232727
 21
19.999741
 31
0.0
  0
LINE
  8
0
  6
CONTINUOUS
 62
     7
 10
-146.0
 20
53.404053
 30
0.0
 11
-179.404297
 21
19.999741
 31
0.0
  0
LINE
  8
0
  6
CONTINUOUS
 62
     7
 10
-146.0
 20
50.575626
 30
0.0
 11
-176.575867
 21
19.999741
 31
0.0
  0
LINE
  8
0
  6
CONTINUOUS
 62
     7
 10
-146.0
 20
47.7472
 30
0.0
 11
-173.747437
 21
19.999741
 31
0.0
  0
LINE
  8
0
  6
CONTINUOUS
 62
     7
 10
-146.0
 20
44.918774
 30
0.0
 11
-170.919006
 21
19.999741
 31
0.0
  0
LINE
  8
0
  6
CONTINUOUS
 62
     7
 10
-146.0
 20
42.090347
 30
0.0
 11
-168.090576
 21
19.999741
 31
0.0
  0
LINE
  8
0
  6
CONTINUOUS
 62
     7
 10
-146.0
 20
39.261921
 30
0.0
 11
-165.262146
 21
19.999741
 31
0.0
  0
LINE
  8
0
  6
CONTINUOUS
 62
     7
 10
-146.0
 20
36.433495
 30
0.0
 11
-162.433716
 21
19.999741
 31
0.0
  0
LINE
  8
0
  6
CONTINUOUS
 62
     7
 10
-146.0
 20
33.605068
 30
0.0
 11
-159.605286
 21
19.999741
 31
0.0
  0
LINE
  8
0
  6
CONTINUOUS
 62
     7
 10
-146.0
 20
30.776642
 30
0.0
 11
-156.776855
 21
19.999741
 31
0.0
  0
LINE
  8
0
  6
CONTINUOUS
 62
     7
 10
-146.0
 20
27.948215
 30
0.0
 11
-153.948425
 21
19.999741
 31
0.0
  0
LINE
  8
0
  6
CONTINUOUS
 62
     7
 10
-146.0
 20
25.119789
 30
0.0
 11
-151.119995
 21
19.999741
 31
0.0
  0
LINE
  8
0
  6
CONTINUOUS
 62
     7
 10
-146.0
 20
22.291363
 30
0.0
 11
-148.291565
 21
19.999741
 31
0.0
  0
ENDBLK
  8
0
  0
BLOCK
  8
0
  6
CONTINUOUS
 62
     7
  2
*H2
 70
    65
 10
0.0
 20
0.0
 30
0.0
  3
*H2
  0
LINE
  8
0
  6
CONTINUOUS
 62
    18
 10
-234.685644
 20
104.575963
 30
0.0
 11
-233.644713
 21
104.575963
 31
0.0
  0
LINE
  8
0
  6
CONTINUOUS
 62
    18
 10
-233.160413
 20
104.575963
 30
0.0
 11
-232.323086
 21
104.575963
 31
0.0
  0
LINE
  8
0
  6
CONTINUOUS
 62
    18
 10
-234.880039
 20
104.875963
 30
0.0
 11
-234.00555
 21
104.875963
 31
0.0
  0
LINE
  8
0
  6
CONTINUOUS
 62
    18
 10
-232.819354
 20
104.875963
 30
0.0
 11
-232.104427
 21
104.875963
 31
0.0
  0
LINE
  8
0
  6
CONTINUOUS
 62
    18
 10
-234.938701
 20
105.175963
 30
0.0
 11
-234.08757
 21
105.175963
 31
0.0
  0
LINE
  8
0
  6
CONTINUOUS
 62
    18
 10
-232.732937
 20
105.175963
 30
0.0
 11
-232.022467
 21
105.175963
 31
0.0
  0
LINE
  8
0
  6
CONTINUOUS
 62
    18
 10
-232.728027
 20
105.475963
 30
0.0
 11
-232.008481
 21
105.475963
 31
0.0
  0
LINE
  8
0
  6
CONTINUOUS
 62
    18
 10
-233.947025
 20
105.775963
 30
0.0
 11
-233.431619
 21
105.775963
 31
0.0
  0
LINE
  8
0
  6
CONTINUOUS
 62
    18
 10
-232.728027
 20
105.775963
 30
0.0
 11
-232.008481
 21
105.775963
 31
0.0
  0
LINE
  8
0
  6
CONTINUOUS
 62
    18
 10
-234.516172
 20
106.075963
 30
0.0
 11
-232.865763
 21
106.075963
 31
0.0
  0
LINE
  8
0
  6
CONTINUOUS
 62
    18
 10
-232.728027
 20
106.075963
 30
0.0
 11
-232.008481
 21
106.075963
 31
0.0
  0
LINE
  8
0
  6
CONTINUOUS
 62
    18
 10
-234.740784
 20
106.375963
 30
0.0
 11
-233.926011
 21
106.375963
 31
0.0
  0
LINE
  8
0
  6
CONTINUOUS
 62
    18
 10
-232.94901
 20
106.375963
 30
0.0
 11
-232.008481
 21
106.375963
 31
0.0
  0
LINE
  8
0
  6
CONTINUOUS
 62
    18
 10
-234.856726
 20
106.675963
 30
0.0
 11
-234.076483
 21
106.675963
 31
0.0
  0
LINE
  8
0
  6
CONTINUOUS
 62
    18
 10
-232.78697
 20
106.675963
 30
0.0
 11
-232.008481
 21
106.675963
 31
0.0
  0
LINE
  8
0
  6
CONTINUOUS
 62
    18
 10
-234.936245
 20
106.975963
 30
0.0
 11
-234.116806
 21
106.975963
 31
0.0
  0
LINE
  8
0
  6
CONTINUOUS
 62
    18
 10
-232.733317
 20
106.975963
 30
0.0
 11
-232.008481
 21
106.975963
 31
0.0
  0
LINE
  8
0
  6
CONTINUOUS
 62
    18
 10
-234.971615
 20
107.275963
 30
0.0
 11
-234.142236
 21
107.275963
 31
0.0
  0
LINE
  8
0
  6
CONTINUOUS
 62
    18
 10
-232.703918
 20
107.275963
 30
0.0
 11
-232.008481
 21
107.275963
 31
0.0
  0
LINE
  8
0
  6
CONTINUOUS
 62
    18
 10
-234.972327
 20
107.575963
 30
0.0
 11
-234.140407
 21
107.575963
 31
0.0
  0
LINE
  8
0
  6
CONTINUOUS
 62
    18
 10
-232.696942
 20
107.575963
 30
0.0
 11
-232.008481
 21
107.575963
 31
0.0
  0
LINE
  8
0
  6
CONTINUOUS
 62
    18
 10
-234.944729
 20
107.875963
 30
0.0
 11
-234.124184
 21
107.875963
 31
0.0
  0
LINE
  8
0
  6
CONTINUOUS
 62
    18
 10
-232.712376
 20
107.875963
 30
0.0
 11
-232.008481
 21
107.875963
 31
0.0
  0
LINE
  8
0
  6
CONTINUOUS
 62
    18
 10
-234.887609
 20
108.175963
 30
0.0
 11
-234.09056
 21
108.175963
 31
0.0
  0
LINE
  8
0
  6
CONTINUOUS
 62
    18
 10
-232.762395
 20
108.175963
 30
0.0
 11
-232.008481
 21
108.175963
 31
0.0
  0
LINE
  8
0
  6
CONTINUOUS
 62
    18
 10
-234.777953
 20
108.475963
 30
0.0
 11
-233.997614
 21
108.475963
 31
0.0
  0
LINE
  8
0
  6
CONTINUOUS
 62
    18
 10
-232.852515
 20
108.475963
 30
0.0
 11
-232.008481
 21
108.475963
 31
0.0
  0
LINE
  8
0
  6
CONTINUOUS
 62
    18
 10
-234.626801
 20
108.775963
 30
0.0
 11
-233.605799
 21
108.775963
 31
0.0
  0
LINE
  8
0
  6
CONTINUOUS
 62
    18
 10
-233.255588
 20
108.775963
 30
0.0
 11
-232.791972
 21
108.775963
 31
0.0
  0
LINE
  8
0
  6
CONTINUOUS
 62
    18
 10
-232.728027
 20
108.775963
 30
0.0
 11
-231.90713
 21
108.775963
 31
0.0
  0
LINE
  8
0
  6
CONTINUOUS
 62
    18
 10
-234.295852
 20
109.075963
 30
0.0
 11
-233.113387
 21
109.075963
 31
0.0
  0
LINE
  8
0
  6
CONTINUOUS
 62
    18
 10
-232.728027
 20
109.075963
 30
0.0
 11
-231.436896
 21
109.075963
 31
0.0
  0
ENDBLK
  8
0
  0
BLOCK
  8
0
  6
CONTINUOUS
 62
     7
  2
*H3
 70
    65
 10
0.0
 20
0.0
 30
0.0
  3
*H3
  0
LINE
  8
0
  6
CONTINUOUS
 62
    18
 10
-241.479863
 20
116.953602
 30
0.0
 11
-241.391576
 21
116.953602
 31
0.0
  0
LINE
  8
0
  6
CONTINUOUS
 62
    18
 10
-241.551937
 20
117.253602
 30
0.0
 11
-241.375365
 21
117.253602
 31
0.0
  0
LINE
  8
0
  6
CONTINUOUS
 62
    18
 10
-241.624011
 20
117.553602
 30
0.0
 11
-241.359153
 21
117.553602
 31
0.0
  0
LINE
  8
0
  6
CONTINUOUS
 62
    18
 10
-241.696086
 20
117.853602
 30
0.0
 11
-241.342941
 21
117.853602
 31
0.0
  0
LINE
  8
0
  6
CONTINUOUS
 62
    18
 10
-241.76816
 20
118.153602
 30
0.0
 11
-241.326729
 21
118.153602
 31
0.0
  0
LINE
  8
0
  6
CONTINUOUS
 62
    18
 10
-241.860986
 20
118.453602
 30
0.0
 11
-241.361925
 21
118.453602
 31
0.0
  0
LINE
  8
0
  6
CONTINUOUS
 62
    18
 10
-241.982563
 20
118.753602
 30
0.0
 11
-241.40088
 21
118.753602
 31
0.0
  0
LINE
  8
0
  6
CONTINUOUS
 62
    18
 10
-242.10414
 20
119.053602
 30
0.0
 11
-241.439836
 21
119.053602
 31
0.0
  0
LINE
  8
0
  6
CONTINUOUS
 62
    18
 10
-242.225718
 20
119.353602
 30
0.0
 11
-241.478792
 21
119.353602
 31
0.0
  0
LINE
  8
0
  6
CONTINUOUS
 62
    18
 10
-242.347295
 20
119.653602
 30
0.0
 11
-241.517747
 21
119.653602
 31
0.0
  0
LINE
  8
0
  6
CONTINUOUS
 62
    18
 10
-242.473946
 20
119.953602
 30
0.0
 11
-241.60532
 21
119.953602
 31
0.0
  0
LINE
  8
0
  6
CONTINUOUS
 62
    18
 10
-242.648041
 20
120.253602
 30
0.0
 11
-241.698661
 21
120.253602
 31
0.0
  0
LINE
  8
0
  6
CONTINUOUS
 62
    18
 10
-242.822135
 20
120.553602
 30
0.0
 11
-241.792002
 21
120.553602
 31
0.0
  0
LINE
  8
0
  6
CONTINUOUS
 62
    18
 10
-242.99623
 20
120.853602
 30
0.0
 11
-241.885343
 21
120.853602
 31
0.0
  0
LINE
  8
0
  6
CONTINUOUS
 62
    18
 10
-243.170324
 20
121.153602
 30
0.0
 11
-241.981462
 21
121.153602
 31
0.0
  0
LINE
  8
0
  6
CONTINUOUS
 62
    18
 10
-243.35298
 20
121.453602
 30
0.0
 11
-242.139472
 21
121.453602
 31
0.0
  0
LINE
  8
0
  6
CONTINUOUS
 62
    18
 10
-243.59319
 20
121.753602
 30
0.0
 11
-242.297483
 21
121.753602
 31
0.0
  0
LINE
  8
0
  6
CONTINUOUS
 62
    18
 10
-243.833399
 20
122.053602
 30
0.0
 11
-242.455493
 21
122.053602
 31
0.0
  0
LINE
  8
0
  6
CONTINUOUS
 62
    18
 10
-244.073609
 20
122.353602
 30
0.0
 11
-242.613504
 21
122.353602
 31
0.0
  0
LINE
  8
0
  6
CONTINUOUS
 62
    18
 10
-244.313819
 20
122.653602
 30
0.0
 11
-243.73185
 21
122.653602
 31
0.0
  0
ENDBLK
  8
0
  0
BLOCK
  8
0
  6
CONTINUOUS
 62
     7
  2
*H4
 70
    65
 10
0.0
 20
0.0
 30
0.0
  3
*H4
  0
LINE
  8
0
  6
CONTINUOUS
 62
    18
 10
-242.871806
 20
116.485577
 30
0.0
 11
-242.750484
 21
116.485577
 31
0.0
  0
LINE
  8
0
  6
CONTINUOUS
 62
    18
 10
-243.217936
 20
116.785577
 30
0.0
 11
-242.975291
 21
116.785577
 31
0.0
  0
LINE
  8
0
  6
CONTINUOUS
 62
    18
 10
-243.564065
 20
117.085577
 30
0.0
 11
-243.200098
 21
117.085577
 31
0.0
  0
LINE
  8
0
  6
CONTINUOUS
 62
    18
 10
-243.910194
 20
117.385577
 30
0.0
 11
-243.424905
 21
117.385577
 31
0.0
  0
LINE
  8
0
  6
CONTINUOUS
 62
    18
 10
-244.323741
 20
117.685577
 30
0.0
 11
-243.649712
 21
117.685577
 31
0.0
  0
LINE
  8
0
  6
CONTINUOUS
 62
    18
 10
-244.781314
 20
117.985577
 30
0.0
 11
-243.925376
 21
117.985577
 31
0.0
  0
LINE
  8
0
  6
CONTINUOUS
 62
    18
 10
-245.238887
 20
118.285577
 30
0.0
 11
-244.216296
 21
118.285577
 31
0.0
  0
LINE
  8
0
  6
CONTINUOUS
 62
    18
 10
-245.696459
 20
118.585577
 30
0.0
 11
-244.507215
 21
118.585577
 31
0.0
  0
LINE
  8
0
  6
CONTINUOUS
 62
    18
 10
-246.298907
 20
118.885577
 30
0.0
 11
-244.798135
 21
118.885577
 31
0.0
  0
LINE
  8
0
  6
CONTINUOUS
 62
    18
 10
-246.913267
 20
119.185577
 30
0.0
 11
-245.09502
 21
119.185577
 31
0.0
  0
LINE
  8
0
  6
CONTINUOUS
 62
    18
 10
-247.527626
 20
119.485577
 30
0.0
 11
-245.464983
 21
119.485577
 31
0.0
  0
LINE
  8
0
  6
CONTINUOUS
 62
    18
 10
-248.425712
 20
119.785577
 30
0.0
 11
-245.834947
 21
119.785577
 31
0.0
  0
LINE
  8
0
  6
CONTINUOUS
 62
    18
 10
-249.330084
 20
120.085577
 30
0.0
 11
-246.20491
 21
120.085577
 31
0.0
  0
LINE
  8
0
  6
CONTINUOUS
 62
    18
 10
-249.21404
 20
120.385577
 30
0.0
 11
-246.574873
 21
120.385577
 31
0.0
  0
LINE
  8
0
  6
CONTINUOUS
 62
    18
 10
-248.939565
 20
120.685577
 30
0.0
 11
-247.054495
 21
120.685577
 31
0.0
  0
LINE
  8
0
  6
CONTINUOUS
 62
    18
 10
-248.66509
 20
120.985577
 30
0.0
 11
-247.539045
 21
120.985577
 31
0.0
  0
LINE
  8
0
  6
CONTINUOUS
 62
    18
 10
-248.390615
 20
121.285577
 30
0.0
 11
-248.023595
 21
121.285577
 31
0.0
  0
ENDBLK
  8
0
  0
BLOCK
  8
0
  6
CONTINUOUS
 62
     7
  2
*H5
 70
    65
 10
0.0
 20
0.0
 30
0.0
  3
*H5
  0
LINE
  8
0
  6
CONTINUOUS
 62
    18
 10
-250.829297
 20
115.154418
 30
0.0
 11
-243.249362
 21
115.154418
 31
0.0
  0
LINE
  8
0
  6
CONTINUOUS
 62
    18
 10
-250.829297
 20
115.454418
 30
0.0
 11
-244.32006
 21
115.454418
 31
0.0
  0
LINE
  8
0
  6
CONTINUOUS
 62
    18
 10
-250.829297
 20
115.754418
 30
0.0
 11
-245.390758
 21
115.754418
 31
0.0
  0
LINE
  8
0
  6
CONTINUOUS
 62
    18
 10
-250.829297
 20
116.054418
 30
0.0
 11
-246.854318
 21
116.054418
 31
0.0
  0
LINE
  8
0
  6
CONTINUOUS
 62
    18
 10
-250.829297
 20
116.354418
 30
0.0
 11
-248.533863
 21
116.354418
 31
0.0
  0
ENDBLK
  8
0
  0
BLOCK
  8
0
  6
CONTINUOUS
 62
     7
  2
*H6
 70
    65
 10
0.0
 20
0.0
 30
0.0
  3
*H6
  0
LINE
  8
0
  6
CONTINUOUS
 62
    18
 10
-249.422006
 20
110.865181
 30
0.0
 11
-247.998186
 21
110.865181
 31
0.0
  0
LINE
  8
0
  6
CONTINUOUS
 62
    18
 10
-249.583615
 20
111.165181
 30
0.0
 11
-247.04193
 21
111.165181
 31
0.0
  0
LINE
  8
0
  6
CONTINUOUS
 62
    18
 10
-249.745224
 20
111.465181
 30
0.0
 11
-246.309369
 21
111.465181
 31
0.0
  0
LINE
  8
0
  6
CONTINUOUS
 62
    18
 10
-249.906833
 20
111.765181
 30
0.0
 11
-245.632245
 21
111.765181
 31
0.0
  0
LINE
  8
0
  6
CONTINUOUS
 62
    18
 10
-250.068443
 20
112.065181
 30
0.0
 11
-245.125892
 21
112.065181
 31
0.0
  0
LINE
  8
0
  6
CONTINUOUS
 62
    18
 10
-247.408686
 20
112.365181
 30
0.0
 11
-244.619539
 21
112.365181
 31
0.0
  0
LINE
  8
0
  6
CONTINUOUS
 62
    18
 10
-245.856861
 20
112.665181
 30
0.0
 11
-244.128581
 21
112.665181
 31
0.0
  0
LINE
  8
0
  6
CONTINUOUS
 62
    18
 10
-244.796873
 20
112.965181
 30
0.0
 11
-243.765312
 21
112.965181
 31
0.0
  0
LINE
  8
0
  6
CONTINUOUS
 62
    18
 10
-244.000319
 20
113.265181
 30
0.0
 11
-243.402043
 21
113.265181
 31
0.0
  0
LINE
  8
0
  6
CONTINUOUS
 62
    18
 10
-243.3063
 20
113.565181
 30
0.0
 11
-243.038774
 21
113.565181
 31
0.0
  0
ENDBLK
  8
0
  0
BLOCK
  8
0
  6
CONTINUOUS
 62
     7
  2
*H7
 70
    65
 10
0.0
 20
0.0
 30
0.0
  3
*H7
  0
LINE
  8
0
  6
CONTINUOUS
 62
   250
 10
-240.170696
 20
116.356902
 30
0.0
 11
-239.883007
 21
116.356902
 31
0.0
  0
LINE
  8
0
  6
CONTINUOUS
 62
   250
 10
-240.054248
 20
116.656902
 30
0.0
 11
-239.478869
 21
116.656902
 31
0.0
  0
LINE
  8
0
  6
CONTINUOUS
 62
   250
 10
-239.937799
 20
116.956902
 30
0.0
 11
-239.207193
 21
116.956902
 31
0.0
  0
LINE
  8
0
  6
CONTINUOUS
 62
   250
 10
-239.821351
 20
117.256902
 30
0.0
 11
-238.948621
 21
117.256902
 31
0.0
  0
LINE
  8
0
  6
CONTINUOUS
 62
   250
 10
-239.70776
 20
117.556902
 30
0.0
 11
-238.776071
 21
117.556902
 31
0.0
  0
LINE
  8
0
  6
CONTINUOUS
 62
   250
 10
-239.644288
 20
117.856902
 30
0.0
 11
-238.85641
 21
117.856902
 31
0.0
  0
LINE
  8
0
  6
CONTINUOUS
 62
   250
 10
-239.580816
 20
118.156902
 30
0.0
 11
-238.936748
 21
118.156902
 31
0.0
  0
LINE
  8
0
  6
CONTINUOUS
 62
   250
 10
-239.517345
 20
118.456902
 30
0.0
 11
-239.050398
 21
118.456902
 31
0.0
  0
LINE
  8
0
  6
CONTINUOUS
 62
   250
 10
-239.453873
 20
118.756902
 30
0.0
 11
-239.20545
 21
118.756902
 31
0.0
  0
LINE
  8
0
  6
CONTINUOUS
 62
   250
 10
-239.390401
 20
119.056902
 30
0.0
 11
-239.360501
 21
119.056902
 31
0.0
  0
ENDBLK
  8
0
  0
BLOCK
  8
0
  6
CONTINUOUS
 62
     7
  2
*H8
 70
    65
 10
0.0
 20
0.0
 30
0.0
  3
*H8
  0
LINE
  8
0
  6
CONTINUOUS
 62
   250
 10
-239.272582
 20
114.014975
 30
0.0
 11
-238.714267
 21
114.014975
 31
0.0
  0
LINE
  8
0
  6
CONTINUOUS
 62
   250
 10
-239.802287
 20
114.314975
 30
0.0
 11
-238.685658
 21
114.314975
 31
0.0
  0
LINE
  8
0
  6
CONTINUOUS
 62
   250
 10
-240.331992
 20
114.614975
 30
0.0
 11
-238.657049
 21
114.614975
 31
0.0
  0
LINE
  8
0
  6
CONTINUOUS
 62
   250
 10
-239.05515
 20
114.914975
 30
0.0
 11
-238.62844
 21
114.914975
 31
0.0
  0
ENDBLK
  8
0
  0
BLOCK
  8
0
  6
CONTINUOUS
 62
     7
  2
*H9
 70
    65
 10
0.0
 20
0.0
 30
0.0
  3
*H9
  0
LINE
  8
0
  6
CONTINUOUS
 62
   250
 10
-245.080998
 20
107.894138
 30
0.0
 11
-243.925986
 21
107.894138
 31
0.0
  0
LINE
  8
0
  6
CONTINUOUS
 62
   250
 10
-245.978772
 20
108.194138
 30
0.0
 11
-243.668747
 21
108.194138
 31
0.0
  0
LINE
  8
0
  6
CONTINUOUS
 62
   250
 10
-245.634243
 20
108.494138
 30
0.0
 11
-243.411507
 21
108.494138
 31
0.0
  0
LINE
  8
0
  6
CONTINUOUS
 62
   250
 10
-245.240411
 20
108.794138
 30
0.0
 11
-243.154268
 21
108.794138
 31
0.0
  0
LINE
  8
0
  6
CONTINUOUS
 62
   250
 10
-244.846578
 20
109.094138
 30
0.0
 11
-242.951019
 21
109.094138
 31
0.0
  0
LINE
  8
0
  6
CONTINUOUS
 62
   250
 10
-244.47895
 20
109.394138
 30
0.0
 11
-242.774132
 21
109.394138
 31
0.0
  0
LINE
  8
0
  6
CONTINUOUS
 62
   250
 10
-244.180601
 20
109.694138
 30
0.0
 11
-242.597244
 21
109.694138
 31
0.0
  0
LINE
  8
0
  6
CONTINUOUS
 62
   250
 10
-243.882253
 20
109.994138
 30
0.0
 11
-242.420356
 21
109.994138
 31
0.0
  0
LINE
  8
0
  6
CONTINUOUS
 62
   250
 10
-243.583905
 20
110.294138
 30
0.0
 11
-242.243469
 21
110.294138
 31
0.0
  0
LINE
  8
0
  6
CONTINUOUS
 62
   250
 10
-243.285557
 20
110.594138
 30
0.0
 11
-242.113116
 21
110.594138
 31
0.0
  0
LINE
  8
0
  6
CONTINUOUS
 62
   250
 10
-243.052845
 20
110.894138
 30
0.0
 11
-241.997729
 21
110.894138
 31
0.0
  0
LINE
  8
0
  6
CONTINUOUS
 62
   250
 10
-242.823033
 20
111.194138
 30
0.0
 11
-241.882342
 21
111.194138
 31
0.0
  0
LINE
  8
0
  6
CONTINUOUS
 62
   250
 10
-242.593221
 20
111.494138
 30
0.0
 11
-241.766955
 21
111.494138
 31
0.0
  0
LINE
  8
0
  6
CONTINUOUS
 62
   250
 10
-242.363409
 20
111.794138
 30
0.0
 11
-241.651568
 21
111.794138
 31
0.0
  0
LINE
  8
0
  6
CONTINUOUS
 62
   250
 10
-242.141031
 20
112.094138
 30
0.0
 11
-241.560871
 21
112.094138
 31
0.0
  0
LINE
  8
0
  6
CONTINUOUS
 62
   250
 10
-241.970666
 20
112.394138
 30
0.0
 11
-241.502793
 21
112.394138
 31
0.0
  0
LINE
  8
0
  6
CONTINUOUS
 62
   250
 10
-241.8003
 20
112.694138
 30
0.0
 11
-241.444716
 21
112.694138
 31
0.0
  0
LINE
  8
0
  6
CONTINUOUS
 62
   250
 10
-241.629935
 20
112.994138
 30
0.0
 11
-241.386638
 21
112.994138
 31
0.0
  0
LINE
  8
0
  6
CONTINUOUS
 62
   250
 10
-241.45957
 20
113.294138
 30
0.0
 11
-241.328561
 21
113.294138
 31
0.0
  0
LINE
  8
0
  6
CONTINUOUS
 62
   250
 10
-241.289204
 20
113.594138
 30
0.0
 11
-241.270483
 21
113.594138
 31
0.0
  0
ENDBLK
  8
0
  0
BLOCK
  8
0
  6
CONTINUOUS
 62
     7
  2
*H10
 70
    65
 10
0.0
 20
0.0
 30
0.0
  3
*H10
  0
LINE
  8
0
  6
CONTINUOUS
 62
   250
 10
-217.490204
 20
106.067724
 30
0.0
 11
-216.666864
 21
106.067724
 31
0.0
  0
LINE
  8
0
  6
CONTINUOUS
 62
   250
 10
-214.457078
 20
106.067724
 30
0.0
 11
-213.589276
 21
106.067724
 31
0.0
  0
LINE
  8
0
  6
CONTINUOUS
 62
   250
 10
-217.556338
 20
106.367724
 30
0.0
 11
-216.577345
 21
106.367724
 31
0.0
  0
LINE
  8
0
  6
CONTINUOUS
 62
   250
 10
-214.555448
 20
106.367724
 30
0.0
 11
-213.528856
 21
106.367724
 31
0.0
  0
LINE
  8
0
  6
CONTINUOUS
 62
   250
 10
-217.622472
 20
106.667724
 30
0.0
 11
-216.487827
 21
106.667724
 31
0.0
  0
LINE
  8
0
  6
CONTINUOUS
 62
   250
 10
-214.653818
 20
106.667724
 30
0.0
 11
-213.944829
 21
106.667724
 31
0.0
  0
LINE
  8
0
  6
CONTINUOUS
 62
   250
 10
-213.912615
 20
106.667724
 30
0.0
 11
-213.468436
 21
106.667724
 31
0.0
  0
LINE
  8
0
  6
CONTINUOUS
 62
   250
 10
-217.688607
 20
106.967724
 30
0.0
 11
-216.927952
 21
106.967724
 31
0.0
  0
LINE
  8
0
  6
CONTINUOUS
 62
   250
 10
-216.78956
 20
106.967724
 30
0.0
 11
-216.398308
 21
106.967724
 31
0.0
  0
LINE
  8
0
  6
CONTINUOUS
 62
   250
 10
-214.752189
 20
106.967724
 30
0.0
 11
-214.043207
 21
106.967724
 31
0.0
  0
LINE
  8
0
  6
CONTINUOUS
 62
   250
 10
-213.852185
 20
106.967724
 30
0.0
 11
-213.408016
 21
106.967724
 31
0.0
  0
LINE
  8
0
  6
CONTINUOUS
 62
   250
 10
-217.754741
 20
107.267724
 30
0.0
 11
-216.999281
 21
107.267724
 31
0.0
  0
LINE
  8
0
  6
CONTINUOUS
 62
   250
 10
-216.700036
 20
107.267724
 30
0.0
 11
-216.308789
 21
107.267724
 31
0.0
  0
LINE
  8
0
  6
CONTINUOUS
 62
   250
 10
-214.850559
 20
107.267724
 30
0.0
 11
-214.141585
 21
107.267724
 31
0.0
  0
LINE
  8
0
  6
CONTINUOUS
 62
   250
 10
-213.791755
 20
107.267724
 30
0.0
 11
-213.347596
 21
107.267724
 31
0.0
  0
LINE
  8
0
  6
CONTINUOUS
 62
   250
 10
-217.820876
 20
107.567724
 30
0.0
 11
-217.070609
 21
107.567724
 31
0.0
  0
LINE
  8
0
  6
CONTINUOUS
 62
   250
 10
-216.610512
 20
107.567724
 30
0.0
 11
-216.21927
 21
107.567724
 31
0.0
  0
LINE
  8
0
  6
CONTINUOUS
 62
   250
 10
-214.948929
 20
107.567724
 30
0.0
 11
-214.239963
 21
107.567724
 31
0.0
  0
LINE
  8
0
  6
CONTINUOUS
 62
   250
 10
-213.731325
 20
107.567724
 30
0.0
 11
-213.287176
 21
107.567724
 31
0.0
  0
LINE
  8
0
  6
CONTINUOUS
 62
   250
 10
-217.88701
 20
107.867724
 30
0.0
 11
-217.141938
 21
107.867724
 31
0.0
  0
LINE
  8
0
  6
CONTINUOUS
 62
   250
 10
-216.520988
 20
107.867724
 30
0.0
 11
-216.129752
 21
107.867724
 31
0.0
  0
LINE
  8
0
  6
CONTINUOUS
 62
   250
 10
-215.047299
 20
107.867724
 30
0.0
 11
-214.33834
 21
107.867724
 31
0.0
  0
LINE
  8
0
  6
CONTINUOUS
 62
   250
 10
-213.670895
 20
107.867724
 30
0.0
 11
-213.226756
 21
107.867724
 31
0.0
  0
LINE
  8
0
  6
CONTINUOUS
 62
   250
 10
-217.953145
 20
108.167724
 30
0.0
 11
-217.213267
 21
108.167724
 31
0.0
  0
LINE
  8
0
  6
CONTINUOUS
 62
   250
 10
-216.431464
 20
108.167724
 30
0.0
 11
-216.040233
 21
108.167724
 31
0.0
  0
LINE
  8
0
  6
CONTINUOUS
 62
   250
 10
-215.14567
 20
108.167724
 30
0.0
 11
-214.436718
 21
108.167724
 31
0.0
  0
LINE
  8
0
  6
CONTINUOUS
 62
   250
 10
-213.610464
 20
108.167724
 30
0.0
 11
-213.166336
 21
108.167724
 31
0.0
  0
LINE
  8
0
  6
CONTINUOUS
 62
   250
 10
-218.019279
 20
108.467724
 30
0.0
 11
-217.284596
 21
108.467724
 31
0.0
  0
LINE
  8
0
  6
CONTINUOUS
 62
   250
 10
-216.34194
 20
108.467724
 30
0.0
 11
-215.950714
 21
108.467724
 31
0.0
  0
LINE
  8
0
  6
CONTINUOUS
 62
   250
 10
-215.24404
 20
108.467724
 30
0.0
 11
-214.535096
 21
108.467724
 31
0.0
  0
LINE
  8
0
  6
CONTINUOUS
 62
   250
 10
-213.550034
 20
108.467724
 30
0.0
 11
-213.105916
 21
108.467724
 31
0.0
  0
LINE
  8
0
  6
CONTINUOUS
 62
   250
 10
-218.085414
 20
108.767724
 30
0.0
 11
-217.355924
 21
108.767724
 31
0.0
  0
LINE
  8
0
  6
CONTINUOUS
 62
   250
 10
-216.252416
 20
108.767724
 30
0.0
 11
-215.861196
 21
108.767724
 31
0.0
  0
LINE
  8
0
  6
CONTINUOUS
 62
   250
 10
-215.34241
 20
108.767724
 30
0.0
 11
-214.633474
 21
108.767724
 31
0.0
  0
LINE
  8
0
  6
CONTINUOUS
 62
   250
 10
-213.489604
 20
108.767724
 30
0.0
 11
-213.045496
 21
108.767724
 31
0.0
  0
LINE
  8
0
  6
CONTINUOUS
 62
   250
 10
-218.151548
 20
109.067724
 30
0.0
 11
-217.427253
 21
109.067724
 31
0.0
  0
LINE
  8
0
  6
CONTINUOUS
 62
   250
 10
-216.162892
 20
109.067724
 30
0.0
 11
-215.771677
 21
109.067724
 31
0.0
  0
LINE
  8
0
  6
CONTINUOUS
 62
   250
 10
-215.44078
 20
109.067724
 30
0.0
 11
-214.731852
 21
109.067724
 31
0.0
  0
LINE
  8
0
  6
CONTINUOUS
 62
   250
 10
-213.429174
 20
109.067724
 30
0.0
 11
-212.985076
 21
109.067724
 31
0.0
  0
LINE
  8
0
  6
CONTINUOUS
 62
   250
 10
-218.217682
 20
109.367724
 30
0.0
 11
-217.498582
 21
109.367724
 31
0.0
  0
LINE
  8
0
  6
CONTINUOUS
 62
   250
 10
-216.073368
 20
109.367724
 30
0.0
 11
-215.682158
 21
109.367724
 31
0.0
  0
LINE
  8
0
  6
CONTINUOUS
 62
   250
 10
-215.53915
 20
109.367724
 30
0.0
 11
-214.830229
 21
109.367724
 31
0.0
  0
LINE
  8
0
  6
CONTINUOUS
 62
   250
 10
-213.368744
 20
109.367724
 30
0.0
 11
-212.924656
 21
109.367724
 31
0.0
  0
LINE
  8
0
  6
CONTINUOUS
 62
   250
 10
-218.283817
 20
109.667724
 30
0.0
 11
-217.569911
 21
109.667724
 31
0.0
  0
LINE
  8
0
  6
CONTINUOUS
 62
   250
 10
-215.983843
 20
109.667724
 30
0.0
 11
-214.928607
 21
109.667724
 31
0.0
  0
LINE
  8
0
  6
CONTINUOUS
 62
   250
 10
-213.308314
 20
109.667724
 30
0.0
 11
-212.864236
 21
109.667724
 31
0.0
  0
LINE
  8
0
  6
CONTINUOUS
 62
   250
 10
-218.349951
 20
109.967724
 30
0.0
 11
-217.641239
 21
109.967724
 31
0.0
  0
LINE
  8
0
  6
CONTINUOUS
 62
   250
 10
-215.894319
 20
109.967724
 30
0.0
 11
-215.026985
 21
109.967724
 31
0.0
  0
LINE
  8
0
  6
CONTINUOUS
 62
   250
 10
-213.247883
 20
109.967724
 30
0.0
 11
-212.803816
 21
109.967724
 31
0.0
  0
LINE
  8
0
  6
CONTINUOUS
 62
   250
 10
-218.536442
 20
110.267724
 30
0.0
 11
-217.712568
 21
110.267724
 31
0.0
  0
LINE
  8
0
  6
CONTINUOUS
 62
   250
 10
-215.804795
 20
110.267724
 30
0.0
 11
-215.125363
 21
110.267724
 31
0.0
  0
LINE
  8
0
  6
CONTINUOUS
 62
   250
 10
-213.187453
 20
110.267724
 30
0.0
 11
-212.743396
 21
110.267724
 31
0.0
  0
LINE
  8
0
  6
CONTINUOUS
 62
   250
 10
-219.144496
 20
110.567724
 30
0.0
 11
-217.783897
 21
110.567724
 31
0.0
  0
LINE
  8
0
  6
CONTINUOUS
 62
   250
 10
-215.715271
 20
110.567724
 30
0.0
 11
-215.223741
 21
110.567724
 31
0.0
  0
LINE
  8
0
  6
CONTINUOUS
 62
   250
 10
-213.127023
 20
110.567724
 30
0.0
 11
-212.682976
 21
110.567724
 31
0.0
  0
ENDBLK
  8
0
  0
BLOCK
  8
0
  6
CONTINUOUS
 62
     7
  2
*H11
 70
    65
 10
0.0
 20
0.0
 30
0.0
  3
*H11
  0
LINE
  8
0
  6
CONTINUOUS
 62
   250
 10
-239.353555
 20
106.05638
 30
0.0
 11
-238.861253
 21
106.05638
 31
0.0
  0
LINE
  8
0
  6
CONTINUOUS
 62
   250
 10
-236.193269
 20
106.05638
 30
0.0
 11
-235.415221
 21
106.05638
 31
0.0
  0
LINE
  8
0
  6
CONTINUOUS
 62
   250
 10
-239.243553
 20
106.35638
 30
0.0
 11
-238.751287
 21
106.35638
 31
0.0
  0
LINE
  8
0
  6
CONTINUOUS
 62
   250
 10
-236.306953
 20
106.35638
 30
0.0
 11
-235.525988
 21
106.35638
 31
0.0
  0
LINE
  8
0
  6
CONTINUOUS
 62
   250
 10
-239.133551
 20
106.65638
 30
0.0
 11
-238.641321
 21
106.65638
 31
0.0
  0
LINE
  8
0
  6
CONTINUOUS
 62
   250
 10
-236.420636
 20
106.65638
 30
0.0
 11
-235.636756
 21
106.65638
 31
0.0
  0
LINE
  8
0
  6
CONTINUOUS
 62
   250
 10
-239.023549
 20
106.95638
 30
0.0
 11
-238.531355
 21
106.95638
 31
0.0
  0
LINE
  8
0
  6
CONTINUOUS
 62
   250
 10
-236.53432
 20
106.95638
 30
0.0
 11
-235.747523
 21
106.95638
 31
0.0
  0
LINE
  8
0
  6
CONTINUOUS
 62
   250
 10
-238.913547
 20
107.25638
 30
0.0
 11
-238.421388
 21
107.25638
 31
0.0
  0
LINE
  8
0
  6
CONTINUOUS
 62
   250
 10
-236.648003
 20
107.25638
 30
0.0
 11
-235.858291
 21
107.25638
 31
0.0
  0
LINE
  8
0
  6
CONTINUOUS
 62
   250
 10
-238.803545
 20
107.55638
 30
0.0
 11
-235.969058
 21
107.55638
 31
0.0
  0
LINE
  8
0
  6
CONTINUOUS
 62
   250
 10
-238.693544
 20
107.85638
 30
0.0
 11
-238.201254
 21
107.85638
 31
0.0
  0
LINE
  8
0
  6
CONTINUOUS
 62
   250
 10
-236.875343
 20
107.85638
 30
0.0
 11
-236.079825
 21
107.85638
 31
0.0
  0
LINE
  8
0
  6
CONTINUOUS
 62
   250
 10
-238.583542
 20
108.15638
 30
0.0
 11
-238.091267
 21
108.15638
 31
0.0
  0
LINE
  8
0
  6
CONTINUOUS
 62
   250
 10
-236.989044
 20
108.15638
 30
0.0
 11
-236.190593
 21
108.15638
 31
0.0
  0
LINE
  8
0
  6
CONTINUOUS
 62
   250
 10
-238.47354
 20
108.45638
 30
0.0
 11
-237.981281
 21
108.45638
 31
0.0
  0
LINE
  8
0
  6
CONTINUOUS
 62
   250
 10
-237.102745
 20
108.45638
 30
0.0
 11
-236.30136
 21
108.45638
 31
0.0
  0
LINE
  8
0
  6
CONTINUOUS
 62
   250
 10
-238.363538
 20
108.75638
 30
0.0
 11
-237.871294
 21
108.75638
 31
0.0
  0
LINE
  8
0
  6
CONTINUOUS
 62
   250
 10
-237.216446
 20
108.75638
 30
0.0
 11
-236.412128
 21
108.75638
 31
0.0
  0
LINE
  8
0
  6
CONTINUOUS
 62
   250
 10
-238.253536
 20
109.05638
 30
0.0
 11
-237.761307
 21
109.05638
 31
0.0
  0
LINE
  8
0
  6
CONTINUOUS
 62
   250
 10
-237.330146
 20
109.05638
 30
0.0
 11
-236.522895
 21
109.05638
 31
0.0
  0
LINE
  8
0
  6
CONTINUOUS
 62
   250
 10
-238.143534
 20
109.35638
 30
0.0
 11
-237.65132
 21
109.35638
 31
0.0
  0
LINE
  8
0
  6
CONTINUOUS
 62
   250
 10
-237.443847
 20
109.35638
 30
0.0
 11
-236.633662
 21
109.35638
 31
0.0
  0
LINE
  8
0
  6
CONTINUOUS
 62
   250
 10
-238.033532
 20
109.65638
 30
0.0
 11
-236.74443
 21
109.65638
 31
0.0
  0
LINE
  8
0
  6
CONTINUOUS
 62
   250
 10
-237.923531
 20
109.95638
 30
0.0
 11
-236.855197
 21
109.95638
 31
0.0
  0
LINE
  8
0
  6
CONTINUOUS
 62
   250
 10
-237.885561
 20
110.25638
 30
0.0
 11
-236.965964
 21
110.25638
 31
0.0
  0
LINE
  8
0
  6
CONTINUOUS
 62
   250
 10
-238.460569
 20
110.55638
 30
0.0
 11
-237.076732
 21
110.55638
 31
0.0
  0
ENDBLK
  8
0
  0
BLOCK
  8
0
  6
CONTINUOUS
 62
     7
  2
*H12
 70
    65
 10
0.0
 20
0.0
 30
0.0
  3
*H12
  0
LINE
  8
0
  6
CONTINUOUS
 62
    18
 10
-221.62855
 20
105.992528
 30
0.0
 11
-220.075971
 21
105.992528
 31
0.0
  0
LINE
  8
0
  6
CONTINUOUS
 62
    18
 10
-219.901153
 20
105.992528
 30
0.0
 11
-219.213858
 21
105.992528
 31
0.0
  0
LINE
  8
0
  6
CONTINUOUS
 62
    18
 10
-221.79785
 20
106.292528
 30
0.0
 11
-220.975129
 21
106.292528
 31
0.0
  0
LINE
  8
0
  6
CONTINUOUS
 62
    18
 10
-220.133006
 20
106.292528
 30
0.0
 11
-219.213858
 21
106.292528
 31
0.0
  0
LINE
  8
0
  6
CONTINUOUS
 62
    18
 10
-221.851811
 20
106.592528
 30
0.0
 11
-221.036156
 21
106.592528
 31
0.0
  0
LINE
  8
0
  6
CONTINUOUS
 62
    18
 10
-219.946942
 20
106.592528
 30
0.0
 11
-219.213858
 21
106.592528
 31
0.0
  0
LINE
  8
0
  6
CONTINUOUS
 62
    18
 10
-221.794105
 20
106.892528
 30
0.0
 11
-220.985967
 21
106.892528
 31
0.0
  0
LINE
  8
0
  6
CONTINUOUS
 62
    18
 10
-219.901153
 20
106.892528
 30
0.0
 11
-219.213858
 21
106.892528
 31
0.0
  0
LINE
  8
0
  6
CONTINUOUS
 62
    18
 10
-221.562761
 20
107.192528
 30
0.0
 11
-220.792184
 21
107.192528
 31
0.0
  0
LINE
  8
0
  6
CONTINUOUS
 62
    18
 10
-219.901153
 20
107.192528
 30
0.0
 11
-219.213858
 21
107.192528
 31
0.0
  0
LINE
  8
0
  6
CONTINUOUS
 62
    18
 10
-221.074851
 20
107.492528
 30
0.0
 11
-219.213858
 21
107.492528
 31
0.0
  0
LINE
  8
0
  6
CONTINUOUS
 62
    18
 10
-219.920979
 20
107.792528
 30
0.0
 11
-219.213858
 21
107.792528
 31
0.0
  0
LINE
  8
0
  6
CONTINUOUS
 62
    18
 10
-219.926994
 20
108.092528
 30
0.0
 11
-219.213858
 21
108.092528
 31
0.0
  0
LINE
  8
0
  6
CONTINUOUS
 62
    18
 10
-221.738114
 20
108.392528
 30
0.0
 11
-220.891663
 21
108.392528
 31
0.0
  0
LINE
  8
0
  6
CONTINUOUS
 62
    18
 10
-219.93301
 20
108.392528
 30
0.0
 11
-219.24339
 21
108.392528
 31
0.0
  0
LINE
  8
0
  6
CONTINUOUS
 62
    18
 10
-221.643089
 20
108.692528
 30
0.0
 11
-220.855771
 21
108.692528
 31
0.0
  0
LINE
  8
0
  6
CONTINUOUS
 62
    18
 10
-219.979755
 20
108.692528
 30
0.0
 11
-219.341988
 21
108.692528
 31
0.0
  0
LINE
  8
0
  6
CONTINUOUS
 62
    18
 10
-221.383312
 20
108.992528
 30
0.0
 11
-219.604696
 21
108.992528
 31
0.0
  0
ENDBLK
  8
0
  0
BLOCK
  8
0
  6
CONTINUOUS
 62
     7
  2
*H13
 70
    65
 10
0.0
 20
0.0
 30
0.0
  3
*H13
  0
LINE
  8
0
  6
CONTINUOUS
 62
    18
 10
-223.707148
 20
105.983615
 30
0.0
 11
-222.234329
 21
105.983615
 31
0.0
  0
LINE
  8
0
  6
CONTINUOUS
 62
    18
 10
-223.798103
 20
106.283615
 30
0.0
 11
-223.06933
 21
106.283615
 31
0.0
  0
LINE
  8
0
  6
CONTINUOUS
 62
    18
 10
-223.815222
 20
106.583615
 30
0.0
 11
-223.116258
 21
106.583615
 31
0.0
  0
LINE
  8
0
  6
CONTINUOUS
 62
    18
 10
-223.815222
 20
106.883615
 30
0.0
 11
-223.116258
 21
106.883615
 31
0.0
  0
LINE
  8
0
  6
CONTINUOUS
 62
    18
 10
-223.815222
 20
107.183615
 30
0.0
 11
-223.116258
 21
107.183615
 31
0.0
  0
LINE
  8
0
  6
CONTINUOUS
 62
    18
 10
-223.815222
 20
107.483615
 30
0.0
 11
-223.116258
 21
107.483615
 31
0.0
  0
LINE
  8
0
  6
CONTINUOUS
 62
    18
 10
-223.815222
 20
107.783615
 30
0.0
 11
-223.116258
 21
107.783615
 31
0.0
  0
LINE
  8
0
  6
CONTINUOUS
 62
    18
 10
-223.815222
 20
108.083615
 30
0.0
 11
-223.116258
 21
108.083615
 31
0.0
  0
LINE
  8
0
  6
CONTINUOUS
 62
    18
 10
-223.815222
 20
108.383615
 30
0.0
 11
-223.116258
 21
108.383615
 31
0.0
  0
LINE
  8
0
  6
CONTINUOUS
 62
    18
 10
-223.815222
 20
108.683615
 30
0.0
 11
-223.116258
 21
108.683615
 31
0.0
  0
LINE
  8
0
  6
CONTINUOUS
 62
    18
 10
-224.420516
 20
108.983615
 30
0.0
 11
-222.172098
 21
108.983615
 31
0.0
  0
LINE
  8
0
  6
CONTINUOUS
 62
    18
 10
-223.815222
 20
109.283615
 30
0.0
 11
-223.116258
 21
109.283615
 31
0.0
  0
LINE
  8
0
  6
CONTINUOUS
 62
    18
 10
-223.815222
 20
109.583615
 30
0.0
 11
-223.116258
 21
109.583615
 31
0.0
  0
LINE
  8
0
  6
CONTINUOUS
 62
    18
 10
-223.650121
 20
109.883615
 30
0.0
 11
-223.116258
 21
109.883615
 31
0.0
  0
LINE
  8
0
  6
CONTINUOUS
 62
    18
 10
-223.309531
 20
110.183615
 30
0.0
 11
-223.116258
 21
110.183615
 31
0.0
  0
ENDBLK
  8
0
  0
BLOCK
  8
0
  6
CONTINUOUS
 62
     7
  2
*H14
 70
    65
 10
0.0
 20
0.0
 30
0.0
  3
*H14
  0
LINE
  8
0
  6
CONTINUOUS
 62
    18
 10
-227.147711
 20
105.984263
 30
0.0
 11
-225.166026
 21
105.984263
 31
0.0
  0
LINE
  8
0
  6
CONTINUOUS
 62
    18
 10
-227.14779
 20
106.284263
 30
0.0
 11
-226.917113
 21
106.284263
 31
0.0
  0
LINE
  8
0
  6
CONTINUOUS
 62
    18
 10
-225.635514
 20
106.284263
 30
0.0
 11
-224.971655
 21
106.284263
 31
0.0
  0
LINE
  8
0
  6
CONTINUOUS
 62
    18
 10
-225.564913
 20
106.584263
 30
0.0
 11
-224.893224
 21
106.584263
 31
0.0
  0
LINE
  8
0
  6
CONTINUOUS
 62
    18
 10
-225.723528
 20
106.884263
 30
0.0
 11
-224.891962
 21
106.884263
 31
0.0
  0
LINE
  8
0
  6
CONTINUOUS
 62
    18
 10
-226.191262
 20
107.184263
 30
0.0
 11
-225.017764
 21
107.184263
 31
0.0
  0
LINE
  8
0
  6
CONTINUOUS
 62
    18
 10
-226.702182
 20
107.484263
 30
0.0
 11
-225.307063
 21
107.484263
 31
0.0
  0
LINE
  8
0
  6
CONTINUOUS
 62
    18
 10
-226.992322
 20
107.784263
 30
0.0
 11
-225.795652
 21
107.784263
 31
0.0
  0
LINE
  8
0
  6
CONTINUOUS
 62
    18
 10
-227.104468
 20
108.084263
 30
0.0
 11
-226.308475
 21
108.084263
 31
0.0
  0
LINE
  8
0
  6
CONTINUOUS
 62
    18
 10
-227.11445
 20
108.384263
 30
0.0
 11
-226.492817
 21
108.384263
 31
0.0
  0
LINE
  8
0
  6
CONTINUOUS
 62
    18
 10
-227.037445
 20
108.684263
 30
0.0
 11
-226.415274
 21
108.684263
 31
0.0
  0
LINE
  8
0
  6
CONTINUOUS
 62
    18
 10
-225.346943
 20
108.684263
 30
0.0
 11
-225.123531
 21
108.684263
 31
0.0
  0
LINE
  8
0
  6
CONTINUOUS
 62
    18
 10
-226.792736
 20
108.984263
 30
0.0
 11
-225.123531
 21
108.984263
 31
0.0
  0
ENDBLK
  8
0
  0
BLOCK
  8
0
  6
CONTINUOUS
 62
     7
  2
*H15
 70
    65
 10
0.0
 20
0.0
 30
0.0
  3
*H15
  0
LINE
  8
0
  6
CONTINUOUS
 62
    18
 10
-230.510938
 20
105.983777
 30
0.0
 11
-228.968725
 21
105.983777
 31
0.0
  0
LINE
  8
0
  6
CONTINUOUS
 62
    18
 10
-228.658542
 20
105.983777
 30
0.0
 11
-227.894268
 21
105.983777
 31
0.0
  0
LINE
  8
0
  6
CONTINUOUS
 62
    18
 10
-230.703431
 20
106.283777
 30
0.0
 11
-229.764611
 21
106.283777
 31
0.0
  0
LINE
  8
0
  6
CONTINUOUS
 62
    18
 10
-229.243337
 20
106.283777
 30
0.0
 11
-228.775108
 21
106.283777
 31
0.0
  0
LINE
  8
0
  6
CONTINUOUS
 62
    18
 10
-228.658542
 20
106.283777
 30
0.0
 11
-227.894268
 21
106.283777
 31
0.0
  0
LINE
  8
0
  6
CONTINUOUS
 62
    18
 10
-230.755634
 20
106.583777
 30
0.0
 11
-229.964064
 21
106.583777
 31
0.0
  0
LINE
  8
0
  6
CONTINUOUS
 62
    18
 10
-228.84048
 20
106.583777
 30
0.0
 11
-227.894268
 21
106.583777
 31
0.0
  0
LINE
  8
0
  6
CONTINUOUS
 62
    18
 10
-230.764672
 20
106.883777
 30
0.0
 11
-229.989851
 21
106.883777
 31
0.0
  0
LINE
  8
0
  6
CONTINUOUS
 62
    18
 10
-228.707559
 20
106.883777
 30
0.0
 11
-227.894268
 21
106.883777
 31
0.0
  0
LINE
  8
0
  6
CONTINUOUS
 62
    18
 10
-230.764672
 20
107.183777
 30
0.0
 11
-229.989832
 21
107.183777
 31
0.0
  0
LINE
  8
0
  6
CONTINUOUS
 62
    18
 10
-228.658542
 20
107.183777
 30
0.0
 11
-227.894268
 21
107.183777
 31
0.0
  0
LINE
  8
0
  6
CONTINUOUS
 62
    18
 10
-230.764672
 20
107.483777
 30
0.0
 11
-229.989813
 21
107.483777
 31
0.0
  0
LINE
  8
0
  6
CONTINUOUS
 62
    18
 10
-228.658542
 20
107.483777
 30
0.0
 11
-227.894268
 21
107.483777
 31
0.0
  0
LINE
  8
0
  6
CONTINUOUS
 62
    18
 10
-230.764672
 20
107.783777
 30
0.0
 11
-229.989794
 21
107.783777
 31
0.0
  0
LINE
  8
0
  6
CONTINUOUS
 62
    18
 10
-228.658542
 20
107.783777
 30
0.0
 11
-227.894268
 21
107.783777
 31
0.0
  0
LINE
  8
0
  6
CONTINUOUS
 62
    18
 10
-230.764672
 20
108.083777
 30
0.0
 11
-229.989775
 21
108.083777
 31
0.0
  0
LINE
  8
0
  6
CONTINUOUS
 62
    18
 10
-228.658542
 20
108.083777
 30
0.0
 11
-227.894268
 21
108.083777
 31
0.0
  0
LINE
  8
0
  6
CONTINUOUS
 62
    18
 10
-230.764672
 20
108.383777
 30
0.0
 11
-229.989757
 21
108.383777
 31
0.0
  0
LINE
  8
0
  6
CONTINUOUS
 62
    18
 10
-228.658542
 20
108.383777
 30
0.0
 11
-227.894268
 21
108.383777
 31
0.0
  0
LINE
  8
0
  6
CONTINUOUS
 62
    18
 10
-230.844723
 20
108.683777
 30
0.0
 11
-229.989738
 21
108.683777
 31
0.0
  0
LINE
  8
0
  6
CONTINUOUS
 62
    18
 10
-228.73206
 20
108.683777
 30
0.0
 11
-227.894268
 21
108.683777
 31
0.0
  0
LINE
  8
0
  6
CONTINUOUS
 62
    18
 10
-231.296552
 20
108.983777
 30
0.0
 11
-229.989719
 21
108.983777
 31
0.0
  0
LINE
  8
0
  6
CONTINUOUS
 62
    18
 10
-229.215056
 20
108.983777
 30
0.0
 11
-227.894268
 21
108.983777
 31
0.0
  0
ENDBLK
  8
0
  0
BLOCK
  8
0
  6
CONTINUOUS
 62
     7
  2
*H16
 70
    65
 10
0.0
 20
0.0
 30
0.0
  3
*H16
  0
LINE
  8
0
  6
CONTINUOUS
 62
    18
 10
-211.48646
 20
106.002252
 30
0.0
 11
-209.394167
 21
106.002252
 31
0.0
  0
LINE
  8
0
  6
CONTINUOUS
 62
    18
 10
-211.803579
 20
106.302252
 30
0.0
 11
-210.778786
 21
106.302252
 31
0.0
  0
LINE
  8
0
  6
CONTINUOUS
 62
    18
 10
-211.996334
 20
106.602252
 30
0.0
 11
-211.118241
 21
106.602252
 31
0.0
  0
LINE
  8
0
  6
CONTINUOUS
 62
    18
 10
-212.114805
 20
106.902252
 30
0.0
 11
-211.28005
 21
106.902252
 31
0.0
  0
LINE
  8
0
  6
CONTINUOUS
 62
    18
 10
-212.149272
 20
107.202252
 30
0.0
 11
-211.346819
 21
107.202252
 31
0.0
  0
LINE
  8
0
  6
CONTINUOUS
 62
    18
 10
-212.160204
 20
107.502252
 30
0.0
 11
-211.368331
 21
107.502252
 31
0.0
  0
LINE
  8
0
  6
CONTINUOUS
 62
    18
 10
-212.160204
 20
107.802252
 30
0.0
 11
-211.36823
 21
107.802252
 31
0.0
  0
LINE
  8
0
  6
CONTINUOUS
 62
    18
 10
-212.133393
 20
108.102252
 30
0.0
 11
-209.341029
 21
108.102252
 31
0.0
  0
LINE
  8
0
  6
CONTINUOUS
 62
    18
 10
-212.057267
 20
108.402252
 30
0.0
 11
-211.366115
 21
108.402252
 31
0.0
  0
LINE
  8
0
  6
CONTINUOUS
 62
    18
 10
-210.021424
 20
108.402252
 30
0.0
 11
-209.382704
 21
108.402252
 31
0.0
  0
LINE
  8
0
  6
CONTINUOUS
 62
    18
 10
-211.888805
 20
108.702252
 30
0.0
 11
-211.266797
 21
108.702252
 31
0.0
  0
LINE
  8
0
  6
CONTINUOUS
 62
    18
 10
-210.131342
 20
108.702252
 30
0.0
 11
-209.530461
 21
108.702252
 31
0.0
  0
LINE
  8
0
  6
CONTINUOUS
 62
    18
 10
-211.545441
 20
109.002252
 30
0.0
 11
-209.830595
 21
109.002252
 31
0.0
  0
ENDBLK
  8
0
  0
BLOCK
  8
0
  6
CONTINUOUS
 62
     7
  2
*H17
 70
    65
 10
0.0
 20
0.0
 30
0.0
  3
*H17
  0
LINE
  8
0
  6
CONTINUOUS
 62
    18
 10
-208.756838
 20
105.984263
 30
0.0
 11
-206.780219
 21
105.984263
 31
0.0
  0
LINE
  8
0
  6
CONTINUOUS
 62
    18
 10
-208.756917
 20
106.284263
 30
0.0
 11
-208.526068
 21
106.284263
 31
0.0
  0
LINE
  8
0
  6
CONTINUOUS
 62
    18
 10
-207.221678
 20
106.284263
 30
0.0
 11
-206.576989
 21
106.284263
 31
0.0
  0
LINE
  8
0
  6
CONTINUOUS
 62
    18
 10
-207.162562
 20
106.584263
 30
0.0
 11
-206.498652
 21
106.584263
 31
0.0
  0
LINE
  8
0
  6
CONTINUOUS
 62
    18
 10
-207.324038
 20
106.884263
 30
0.0
 11
-206.5144
 21
106.884263
 31
0.0
  0
LINE
  8
0
  6
CONTINUOUS
 62
    18
 10
-207.800478
 20
107.184263
 30
0.0
 11
-206.630296
 21
107.184263
 31
0.0
  0
LINE
  8
0
  6
CONTINUOUS
 62
    18
 10
-208.31131
 20
107.484263
 30
0.0
 11
-206.90846
 21
107.484263
 31
0.0
  0
LINE
  8
0
  6
CONTINUOUS
 62
    18
 10
-208.60145
 20
107.784263
 30
0.0
 11
-207.404853
 21
107.784263
 31
0.0
  0
LINE
  8
0
  6
CONTINUOUS
 62
    18
 10
-208.713595
 20
108.084263
 30
0.0
 11
-207.919799
 21
108.084263
 31
0.0
  0
LINE
  8
0
  6
CONTINUOUS
 62
    18
 10
-208.72713
 20
108.384263
 30
0.0
 11
-208.10988
 21
108.384263
 31
0.0
  0
LINE
  8
0
  6
CONTINUOUS
 62
    18
 10
-208.641506
 20
108.684263
 30
0.0
 11
-208.036735
 21
108.684263
 31
0.0
  0
LINE
  8
0
  6
CONTINUOUS
 62
    18
 10
-206.955968
 20
108.684263
 30
0.0
 11
-206.732659
 21
108.684263
 31
0.0
  0
LINE
  8
0
  6
CONTINUOUS
 62
    18
 10
-208.408057
 20
108.984263
 30
0.0
 11
-206.732659
 21
108.984263
 31
0.0
  0
ENDBLK
  8
0
  0
BLOCK
  8
0
  6
CONTINUOUS
 62
     7
  2
*H18
 70
    65
 10
0.0
 20
0.0
 30
0.0
  3
*H18
  0
LINE
  8
0
  6
CONTINUOUS
 62
    18
 10
-205.332799
 20
105.983615
 30
0.0
 11
-203.872303
 21
105.983615
 31
0.0
  0
LINE
  8
0
  6
CONTINUOUS
 62
    18
 10
-205.440477
 20
106.283615
 30
0.0
 11
-204.723945
 21
106.283615
 31
0.0
  0
LINE
  8
0
  6
CONTINUOUS
 62
    18
 10
-205.453197
 20
106.583615
 30
0.0
 11
-204.754221
 21
106.583615
 31
0.0
  0
LINE
  8
0
  6
CONTINUOUS
 62
    18
 10
-205.453197
 20
106.883615
 30
0.0
 11
-204.754201
 21
106.883615
 31
0.0
  0
LINE
  8
0
  6
CONTINUOUS
 62
    18
 10
-205.453197
 20
107.183615
 30
0.0
 11
-204.75418
 21
107.183615
 31
0.0
  0
LINE
  8
0
  6
CONTINUOUS
 62
    18
 10
-205.453197
 20
107.483615
 30
0.0
 11
-204.75416
 21
107.483615
 31
0.0
  0
LINE
  8
0
  6
CONTINUOUS
 62
    18
 10
-205.453197
 20
107.783615
 30
0.0
 11
-204.75414
 21
107.783615
 31
0.0
  0
LINE
  8
0
  6
CONTINUOUS
 62
    18
 10
-205.453197
 20
108.083615
 30
0.0
 11
-204.75412
 21
108.083615
 31
0.0
  0
LINE
  8
0
  6
CONTINUOUS
 62
    18
 10
-205.453197
 20
108.383615
 30
0.0
 11
-204.7541
 21
108.383615
 31
0.0
  0
LINE
  8
0
  6
CONTINUOUS
 62
    18
 10
-205.453197
 20
108.683615
 30
0.0
 11
-204.75408
 21
108.683615
 31
0.0
  0
LINE
  8
0
  6
CONTINUOUS
 62
    18
 10
-206.058328
 20
108.983615
 30
0.0
 11
-203.80991
 21
108.983615
 31
0.0
  0
LINE
  8
0
  6
CONTINUOUS
 62
    18
 10
-205.453197
 20
109.283615
 30
0.0
 11
-204.75407
 21
109.283615
 31
0.0
  0
LINE
  8
0
  6
CONTINUOUS
 62
    18
 10
-205.453197
 20
109.583615
 30
0.0
 11
-204.75407
 21
109.583615
 31
0.0
  0
LINE
  8
0
  6
CONTINUOUS
 62
    18
 10
-205.288057
 20
109.883615
 30
0.0
 11
-204.75407
 21
109.883615
 31
0.0
  0
LINE
  8
0
  6
CONTINUOUS
 62
    18
 10
-204.947388
 20
110.183615
 30
0.0
 11
-204.75407
 21
110.183615
 31
0.0
  0
ENDBLK
  8
0
  0
BLOCK
  8
0
  6
CONTINUOUS
 62
     7
  2
*H19
 70
    65
 10
0.0
 20
0.0
 30
0.0
  3
*H19
  0
LINE
  8
0
  6
CONTINUOUS
 62
    18
 10
-203.123436
 20
106.036933
 30
0.0
 11
-202.405662
 21
106.036933
 31
0.0
  0
LINE
  8
0
  6
CONTINUOUS
 62
    18
 10
-203.123447
 20
106.336933
 30
0.0
 11
-202.405662
 21
106.336933
 31
0.0
  0
LINE
  8
0
  6
CONTINUOUS
 62
    18
 10
-203.123458
 20
106.636933
 30
0.0
 11
-202.405662
 21
106.636933
 31
0.0
  0
LINE
  8
0
  6
CONTINUOUS
 62
    18
 10
-203.123469
 20
106.936933
 30
0.0
 11
-202.405662
 21
106.936933
 31
0.0
  0
LINE
  8
0
  6
CONTINUOUS
 62
    18
 10
-203.12348
 20
107.236933
 30
0.0
 11
-202.405662
 21
107.236933
 31
0.0
  0
LINE
  8
0
  6
CONTINUOUS
 62
    18
 10
-203.123491
 20
107.536933
 30
0.0
 11
-202.405662
 21
107.536933
 31
0.0
  0
LINE
  8
0
  6
CONTINUOUS
 62
    18
 10
-203.123502
 20
107.836933
 30
0.0
 11
-202.405662
 21
107.836933
 31
0.0
  0
LINE
  8
0
  6
CONTINUOUS
 62
    18
 10
-203.123513
 20
108.136933
 30
0.0
 11
-202.405662
 21
108.136933
 31
0.0
  0
LINE
  8
0
  6
CONTINUOUS
 62
    18
 10
-203.123524
 20
108.436933
 30
0.0
 11
-202.405662
 21
108.436933
 31
0.0
  0
LINE
  8
0
  6
CONTINUOUS
 62
    18
 10
-203.123535
 20
108.736933
 30
0.0
 11
-202.405662
 21
108.736933
 31
0.0
  0
LINE
  8
0
  6
CONTINUOUS
 62
    18
 10
-203.123546
 20
109.036933
 30
0.0
 11
-202.405662
 21
109.036933
 31
0.0
  0
LINE
  8
0
  6
CONTINUOUS
 62
    18
 10
-203.123557
 20
109.336933
 30
0.0
 11
-202.405662
 21
109.336933
 31
0.0
  0
LINE
  8
0
  6
CONTINUOUS
 62
    18
 10
-203.123568
 20
109.636933
 30
0.0
 11
-202.405662
 21
109.636933
 31
0.0
  0
LINE
  8
0
  6
CONTINUOUS
 62
    18
 10
-203.123579
 20
109.936933
 30
0.0
 11
-202.405662
 21
109.936933
 31
0.0
  0
LINE
  8
0
  6
CONTINUOUS
 62
    18
 10
-203.14357
 20
110.236933
 30
0.0
 11
-202.405662
 21
110.236933
 31
0.0
  0
LINE
  8
0
  6
CONTINUOUS
 62
    18
 10
-203.697603
 20
110.536933
 30
0.0
 11
-202.405662
 21
110.536933
 31
0.0
  0
ENDBLK
  8
0
  0
BLOCK
  8
0
  6
CONTINUOUS
 62
     7
  2
*H20
 70
    65
 10
0.0
 20
0.0
 30
0.0
  3
*H20
  0
LINE
  8
0
  6
CONTINUOUS
 62
    18
 10
-201.363628
 20
105.992528
 30
0.0
 11
-199.837787
 21
105.992528
 31
0.0
  0
LINE
  8
0
  6
CONTINUOUS
 62
    18
 10
-199.664509
 20
105.992528
 30
0.0
 11
-198.94293
 21
105.992528
 31
0.0
  0
LINE
  8
0
  6
CONTINUOUS
 62
    18
 10
-201.534273
 20
106.292528
 30
0.0
 11
-200.725849
 21
106.292528
 31
0.0
  0
LINE
  8
0
  6
CONTINUOUS
 62
    18
 10
-199.876279
 20
106.292528
 30
0.0
 11
-198.94293
 21
106.292528
 31
0.0
  0
LINE
  8
0
  6
CONTINUOUS
 62
    18
 10
-201.577382
 20
106.592528
 30
0.0
 11
-200.765228
 21
106.592528
 31
0.0
  0
LINE
  8
0
  6
CONTINUOUS
 62
    18
 10
-199.698426
 20
106.592528
 30
0.0
 11
-198.94293
 21
106.592528
 31
0.0
  0
LINE
  8
0
  6
CONTINUOUS
 62
    18
 10
-201.512585
 20
106.892528
 30
0.0
 11
-200.728019
 21
106.892528
 31
0.0
  0
LINE
  8
0
  6
CONTINUOUS
 62
    18
 10
-199.66442
 20
106.892528
 30
0.0
 11
-198.94293
 21
106.892528
 31
0.0
  0
LINE
  8
0
  6
CONTINUOUS
 62
    18
 10
-201.300931
 20
107.192528
 30
0.0
 11
-200.538769
 21
107.192528
 31
0.0
  0
LINE
  8
0
  6
CONTINUOUS
 62
    18
 10
-199.66442
 20
107.192528
 30
0.0
 11
-198.94293
 21
107.192528
 31
0.0
  0
LINE
  8
0
  6
CONTINUOUS
 62
    18
 10
-200.815286
 20
107.492528
 30
0.0
 11
-198.94293
 21
107.492528
 31
0.0
  0
LINE
  8
0
  6
CONTINUOUS
 62
    18
 10
-199.66442
 20
107.792528
 30
0.0
 11
-198.94293
 21
107.792528
 31
0.0
  0
LINE
  8
0
  6
CONTINUOUS
 62
    18
 10
-199.66442
 20
108.092528
 30
0.0
 11
-198.94293
 21
108.092528
 31
0.0
  0
LINE
  8
0
  6
CONTINUOUS
 62
    18
 10
-201.472765
 20
108.392528
 30
0.0
 11
-200.620735
 21
108.392528
 31
0.0
  0
LINE
  8
0
  6
CONTINUOUS
 62
    18
 10
-199.66442
 20
108.392528
 30
0.0
 11
-198.966421
 21
108.392528
 31
0.0
  0
LINE
  8
0
  6
CONTINUOUS
 62
    18
 10
-201.372127
 20
108.692528
 30
0.0
 11
-200.584843
 21
108.692528
 31
0.0
  0
LINE
  8
0
  6
CONTINUOUS
 62
    18
 10
-199.70756
 20
108.692528
 30
0.0
 11
-199.070058
 21
108.692528
 31
0.0
  0
LINE
  8
0
  6
CONTINUOUS
 62
    18
 10
-201.126385
 20
108.992528
 30
0.0
 11
-199.318236
 21
108.992528
 31
0.0
  0
ENDBLK
  8
0
  0
BLOCK
  8
0
  6
CONTINUOUS
 62
     7
  2
*H21
 70
    65
 10
0.0
 20
0.0
 30
0.0
  3
*H21
  0
LINE
  8
0
  6
CONTINUOUS
 62
    18
 10
-197.84564
 20
106.06821
 30
0.0
 11
-197.107116
 21
106.06821
 31
0.0
  0
LINE
  8
0
  6
CONTINUOUS
 62
    18
 10
-195.755861
 20
106.06821
 30
0.0
 11
-195.030806
 21
106.06821
 31
0.0
  0
LINE
  8
0
  6
CONTINUOUS
 62
    18
 10
-197.845658
 20
106.36821
 30
0.0
 11
-197.107116
 21
106.36821
 31
0.0
  0
LINE
  8
0
  6
CONTINUOUS
 62
    18
 10
-195.755861
 20
106.36821
 30
0.0
 11
-195.030806
 21
106.36821
 31
0.0
  0
LINE
  8
0
  6
CONTINUOUS
 62
    18
 10
-197.845675
 20
106.66821
 30
0.0
 11
-197.107116
 21
106.66821
 31
0.0
  0
LINE
  8
0
  6
CONTINUOUS
 62
    18
 10
-195.755861
 20
106.66821
 30
0.0
 11
-195.030806
 21
106.66821
 31
0.0
  0
LINE
  8
0
  6
CONTINUOUS
 62
    18
 10
-197.845693
 20
106.96821
 30
0.0
 11
-197.107116
 21
106.96821
 31
0.0
  0
LINE
  8
0
  6
CONTINUOUS
 62
    18
 10
-195.755861
 20
106.96821
 30
0.0
 11
-195.030806
 21
106.96821
 31
0.0
  0
LINE
  8
0
  6
CONTINUOUS
 62
    18
 10
-197.84571
 20
107.26821
 30
0.0
 11
-197.107116
 21
107.26821
 31
0.0
  0
LINE
  8
0
  6
CONTINUOUS
 62
    18
 10
-195.755861
 20
107.26821
 30
0.0
 11
-195.030806
 21
107.26821
 31
0.0
  0
LINE
  8
0
  6
CONTINUOUS
 62
    18
 10
-197.845728
 20
107.56821
 30
0.0
 11
-197.107116
 21
107.56821
 31
0.0
  0
LINE
  8
0
  6
CONTINUOUS
 62
    18
 10
-195.755861
 20
107.56821
 30
0.0
 11
-195.030806
 21
107.56821
 31
0.0
  0
LINE
  8
0
  6
CONTINUOUS
 62
    18
 10
-197.845745
 20
107.86821
 30
0.0
 11
-197.08265
 21
107.86821
 31
0.0
  0
LINE
  8
0
  6
CONTINUOUS
 62
    18
 10
-195.755861
 20
107.86821
 30
0.0
 11
-195.030806
 21
107.86821
 31
0.0
  0
LINE
  8
0
  6
CONTINUOUS
 62
    18
 10
-197.845763
 20
108.16821
 30
0.0
 11
-196.907235
 21
108.16821
 31
0.0
  0
LINE
  8
0
  6
CONTINUOUS
 62
    18
 10
-195.755861
 20
108.16821
 30
0.0
 11
-195.030806
 21
108.16821
 31
0.0
  0
LINE
  8
0
  6
CONTINUOUS
 62
    18
 10
-197.84578
 20
108.46821
 30
0.0
 11
-197.107247
 21
108.46821
 31
0.0
  0
LINE
  8
0
  6
CONTINUOUS
 62
    18
 10
-196.987326
 20
108.46821
 30
0.0
 11
-196.695676
 21
108.46821
 31
0.0
  0
LINE
  8
0
  6
CONTINUOUS
 62
    18
 10
-195.809055
 20
108.46821
 30
0.0
 11
-195.043351
 21
108.46821
 31
0.0
  0
LINE
  8
0
  6
CONTINUOUS
 62
    18
 10
-197.969709
 20
108.76821
 30
0.0
 11
-197.107192
 21
108.76821
 31
0.0
  0
LINE
  8
0
  6
CONTINUOUS
 62
    18
 10
-196.77555
 20
108.76821
 30
0.0
 11
-195.125308
 21
108.76821
 31
0.0
  0
LINE
  8
0
  6
CONTINUOUS
 62
    18
 10
-197.956519
 20
109.06821
 30
0.0
 11
-197.107137
 21
109.06821
 31
0.0
  0
LINE
  8
0
  6
CONTINUOUS
 62
    18
 10
-196.450496
 20
109.06821
 30
0.0
 11
-195.404815
 21
109.06821
 31
0.0
  0
ENDBLK
  8
0
  0
BLOCK
  8
0
  6
CONTINUOUS
 62
     7
  2
*H22
 70
    65
 10
0.0
 20
0.0
 30
0.0
  3
*H22
  0
LINE
  8
0
  6
CONTINUOUS
 62
    18
 10
-193.6287
 20
106.015541
 30
0.0
 11
-192.07679
 21
106.015541
 31
0.0
  0
LINE
  8
0
  6
CONTINUOUS
 62
    18
 10
-191.89034
 20
106.015541
 30
0.0
 11
-191.170703
 21
106.015541
 31
0.0
  0
LINE
  8
0
  6
CONTINUOUS
 62
    18
 10
-193.875418
 20
106.315541
 30
0.0
 11
-193.04201
 21
106.315541
 31
0.0
  0
LINE
  8
0
  6
CONTINUOUS
 62
    18
 10
-192.155089
 20
106.315541
 30
0.0
 11
-191.170703
 21
106.315541
 31
0.0
  0
LINE
  8
0
  6
CONTINUOUS
 62
    18
 10
-194.006354
 20
106.615541
 30
0.0
 11
-193.224052
 21
106.615541
 31
0.0
  0
LINE
  8
0
  6
CONTINUOUS
 62
    18
 10
-191.965198
 20
106.615541
 30
0.0
 11
-191.170703
 21
106.615541
 31
0.0
  0
LINE
  8
0
  6
CONTINUOUS
 62
    18
 10
-194.087161
 20
106.915541
 30
0.0
 11
-193.270981
 21
106.915541
 31
0.0
  0
LINE
  8
0
  6
CONTINUOUS
 62
    18
 10
-191.906352
 20
106.915541
 30
0.0
 11
-191.170703
 21
106.915541
 31
0.0
  0
LINE
  8
0
  6
CONTINUOUS
 62
    18
 10
-194.126268
 20
107.215541
 30
0.0
 11
-193.294167
 21
107.215541
 31
0.0
  0
LINE
  8
0
  6
CONTINUOUS
 62
    18
 10
-191.862619
 20
107.215541
 30
0.0
 11
-191.170703
 21
107.215541
 31
0.0
  0
LINE
  8
0
  6
CONTINUOUS
 62
    18
 10
-194.14441
 20
107.515541
 30
0.0
 11
-193.308919
 21
107.515541
 31
0.0
  0
LINE
  8
0
  6
CONTINUOUS
 62
    18
 10
-191.861715
 20
107.515541
 30
0.0
 11
-191.170703
 21
107.515541
 31
0.0
  0
LINE
  8
0
  6
CONTINUOUS
 62
    18
 10
-194.108856
 20
107.815541
 30
0.0
 11
-193.281904
 21
107.815541
 31
0.0
  0
LINE
  8
0
  6
CONTINUOUS
 62
    18
 10
-191.874598
 20
107.815541
 30
0.0
 11
-191.170703
 21
107.815541
 31
0.0
  0
LINE
  8
0
  6
CONTINUOUS
 62
    18
 10
-194.055797
 20
108.115541
 30
0.0
 11
-193.254889
 21
108.115541
 31
0.0
  0
LINE
  8
0
  6
CONTINUOUS
 62
    18
 10
-191.92059
 20
108.115541
 30
0.0
 11
-191.170703
 21
108.115541
 31
0.0
  0
LINE
  8
0
  6
CONTINUOUS
 62
    18
 10
-193.951776
 20
108.415541
 30
0.0
 11
-193.178612
 21
108.415541
 31
0.0
  0
LINE
  8
0
  6
CONTINUOUS
 62
    18
 10
-192.006771
 20
108.415541
 30
0.0
 11
-191.170703
 21
108.415541
 31
0.0
  0
LINE
  8
0
  6
CONTINUOUS
 62
    18
 10
-193.801004
 20
108.715541
 30
0.0
 11
-192.860207
 21
108.715541
 31
0.0
  0
LINE
  8
0
  6
CONTINUOUS
 62
    18
 10
-192.317337
 20
108.715541
 30
0.0
 11
-191.929464
 21
108.715541
 31
0.0
  0
LINE
  8
0
  6
CONTINUOUS
 62
    18
 10
-191.890253
 20
108.715541
 30
0.0
 11
-191.170703
 21
108.715541
 31
0.0
  0
LINE
  8
0
  6
CONTINUOUS
 62
    18
 10
-193.512581
 20
109.015541
 30
0.0
 11
-192.226304
 21
109.015541
 31
0.0
  0
LINE
  8
0
  6
CONTINUOUS
 62
    18
 10
-191.890285
 20
109.015541
 30
0.0
 11
-191.170703
 21
109.015541
 31
0.0
  0
LINE
  8
0
  6
CONTINUOUS
 62
    18
 10
-191.890317
 20
109.315541
 30
0.0
 11
-191.170703
 21
109.315541
 31
0.0
  0
LINE
  8
0
  6
CONTINUOUS
 62
    18
 10
-191.890349
 20
109.615541
 30
0.0
 11
-191.170703
 21
109.615541
 31
0.0
  0
LINE
  8
0
  6
CONTINUOUS
 62
    18
 10
-191.89038
 20
109.915541
 30
0.0
 11
-191.170703
 21
109.915541
 31
0.0
  0
LINE
  8
0
  6
CONTINUOUS
 62
    18
 10
-191.894303
 20
110.215541
 30
0.0
 11
-191.170703
 21
110.215541
 31
0.0
  0
LINE
  8
0
  6
CONTINUOUS
 62
    18
 10
-192.46415
 20
110.515541
 30
0.0
 11
-191.170703
 21
110.515541
 31
0.0
  0
ENDBLK
  8
0
  0
BLOCK
  8
0
  6
CONTINUOUS
 62
     7
  2
*H23
 70
    65
 10
0.0
 20
0.0
 30
0.0
  3
*H23
  0
LINE
  8
0
  6
CONTINUOUS
 62
    58
 10
-420.875985
 20
582.298524
 30
0.0
 11
-420.125985
 21
582.298524
 31
0.0
  0
LINE
  8
0
  6
CONTINUOUS
 62
    58
 10
-421.250985
 20
582.598524
 30
0.0
 11
-419.750985
 21
582.598524
 31
0.0
  0
LINE
  8
0
  6
CONTINUOUS
 62
    58
 10
-421.625985
 20
582.898524
 30
0.0
 11
-419.375985
 21
582.898524
 31
0.0
  0
LINE
  8
0
  6
CONTINUOUS
 62
    58
 10
-422.000985
 20
583.198524
 30
0.0
 11
-419.000984
 21
583.198524
 31
0.0
  0
LINE
  8
0
  6
CONTINUOUS
 62
    58
 10
-422.375984
 20
583.498524
 30
0.0
 11
-418.625984
 21
583.498524
 31
0.0
  0
LINE
  8
0
  6
CONTINUOUS
 62
    58
 10
-422.750984
 20
583.798524
 30
0.0
 11
-418.250984
 21
583.798524
 31
0.0
  0
LINE
  8
0
  6
CONTINUOUS
 62
    58
 10
-423.125984
 20
584.098524
 30
0.0
 11
-417.875984
 21
584.098524
 31
0.0
  0
LINE
  8
0
  6
CONTINUOUS
 62
    58
 10
-423.500984
 20
584.398524
 30
0.0
 11
-417.500983
 21
584.398524
 31
0.0
  0
LINE
  8
0
  6
CONTINUOUS
 62
    58
 10
-423.875983
 20
584.698524
 30
0.0
 11
-417.125983
 21
584.698524
 31
0.0
  0
LINE
  8
0
  6
CONTINUOUS
 62
    58
 10
-424.250983
 20
584.998524
 30
0.0
 11
-416.750983
 21
584.998524
 31
0.0
  0
LINE
  8
0
  6
CONTINUOUS
 62
    58
 10
-424.625983
 20
585.298524
 30
0.0
 11
-416.375983
 21
585.298524
 31
0.0
  0
LINE
  8
0
  6
CONTINUOUS
 62
    58
 10
-425.000983
 20
585.598524
 30
0.0
 11
-416.000982
 21
585.598524
 31
0.0
  0
LINE
  8
0
  6
CONTINUOUS
 62
    58
 10
-425.375982
 20
585.898524
 30
0.0
 11
-415.625982
 21
585.898524
 31
0.0
  0
LINE
  8
0
  6
CONTINUOUS
 62
    58
 10
-425.750982
 20
586.198524
 30
0.0
 11
-415.250982
 21
586.198524
 31
0.0
  0
LINE
  8
0
  6
CONTINUOUS
 62
    58
 10
-426.125982
 20
586.498524
 30
0.0
 11
-414.875982
 21
586.498524
 31
0.0
  0
LINE
  8
0
  6
CONTINUOUS
 62
    58
 10
-426.500982
 20
586.798524
 30
0.0
 11
-414.500981
 21
586.798524
 31
0.0
  0
LINE
  8
0
  6
CONTINUOUS
 62
    58
 10
-426.875981
 20
587.098524
 30
0.0
 11
-414.125981
 21
587.098524
 31
0.0
  0
LINE
  8
0
  6
CONTINUOUS
 62
    58
 10
-427.250981
 20
587.398524
 30
0.0
 11
-413.750981
 21
587.398524
 31
0.0
  0
LINE
  8
0
  6
CONTINUOUS
 62
    58
 10
-427.625981
 20
587.698524
 30
0.0
 11
-413.375981
 21
587.698524
 31
0.0
  0
LINE
  8
0
  6
CONTINUOUS
 62
    58
 10
-428.000981
 20
587.998524
 30
0.0
 11
-413.00098
 21
587.998524
 31
0.0
  0
LINE
  8
0
  6
CONTINUOUS
 62
    58
 10
-426.000977
 20
588.298524
 30
0.0
 11
-415.000977
 21
588.298524
 31
0.0
  0
LINE
  8
0
  6
CONTINUOUS
 62
    58
 10
-426.000977
 20
588.598524
 30
0.0
 11
-415.000977
 21
588.598524
 31
0.0
  0
LINE
  8
0
  6
CONTINUOUS
 62
    58
 10
-426.000977
 20
588.898524
 30
0.0
 11
-415.000977
 21
588.898524
 31
0.0
  0
LINE
  8
0
  6
CONTINUOUS
 62
    58
 10
-426.000977
 20
589.198524
 30
0.0
 11
-415.000977
 21
589.198524
 31
0.0
  0
LINE
  8
0
  6
CONTINUOUS
 62
    58
 10
-426.000977
 20
589.498524
 30
0.0
 11
-415.000977
 21
589.498524
 31
0.0
  0
LINE
  8
0
  6
CONTINUOUS
 62
    58
 10
-426.000977
 20
589.798524
 30
0.0
 11
-415.000977
 21
589.798524
 31
0.0
  0
LINE
  8
0
  6
CONTINUOUS
 62
    58
 10
-426.000977
 20
590.098524
 30
0.0
 11
-415.000977
 21
590.098524
 31
0.0
  0
LINE
  8
0
  6
CONTINUOUS
 62
    58
 10
-426.000977
 20
590.398524
 30
0.0
 11
-415.000977
 21
590.398524
 31
0.0
  0
LINE
  8
0
  6
CONTINUOUS
 62
    58
 10
-426.000977
 20
590.698524
 30
0.0
 11
-415.000977
 21
590.698524
 31
0.0
  0
LINE
  8
0
  6
CONTINUOUS
 62
    58
 10
-426.000977
 20
590.998524
 30
0.0
 11
-415.000977
 21
590.998524
 31
0.0
  0
ENDBLK
  8
0
  0
BLOCK
  8
0
  6
CONTINUOUS
 62
     7
  2
*H24
 70
    65
 10
0.0
 20
0.0
 30
0.0
  3
*H24
  0
LINE
  8
0
  6
CONTINUOUS
 62
    58
 10
-426.002197
 20
3.299747
 30
0.0
 11
-415.002197
 21
3.299747
 31
0.0
  0
LINE
  8
0
  6
CONTINUOUS
 62
    58
 10
-426.002197
 20
3.599747
 30
0.0
 11
-415.002197
 21
3.599747
 31
0.0
  0
LINE
  8
0
  6
CONTINUOUS
 62
    58
 10
-426.002197
 20
3.899747
 30
0.0
 11
-415.002197
 21
3.899747
 31
0.0
  0
LINE
  8
0
  6
CONTINUOUS
 62
    58
 10
-426.002197
 20
4.199747
 30
0.0
 11
-415.002197
 21
4.199747
 31
0.0
  0
LINE
  8
0
  6
CONTINUOUS
 62
    58
 10
-426.002197
 20
4.499747
 30
0.0
 11
-415.002197
 21
4.499747
 31
0.0
  0
LINE
  8
0
  6
CONTINUOUS
 62
    58
 10
-426.002197
 20
4.799747
 30
0.0
 11
-415.002197
 21
4.799747
 31
0.0
  0
LINE
  8
0
  6
CONTINUOUS
 62
    58
 10
-426.002197
 20
5.099747
 30
0.0
 11
-415.002197
 21
5.099747
 31
0.0
  0
LINE
  8
0
  6
CONTINUOUS
 62
    58
 10
-426.002197
 20
5.399747
 30
0.0
 11
-415.002197
 21
5.399747
 31
0.0
  0
LINE
  8
0
  6
CONTINUOUS
 62
    58
 10
-426.002197
 20
5.699747
 30
0.0
 11
-415.002197
 21
5.699747
 31
0.0
  0
LINE
  8
0
  6
CONTINUOUS
 62
    58
 10
-428.002199
 20
5.999747
 30
0.0
 11
-426.002198
 21
5.999747
 31
0.0
  0
LINE
  8
0
  6
CONTINUOUS
 62
    58
 10
-426.002197
 20
5.999747
 30
0.0
 11
-415.002197
 21
5.999747
 31
0.0
  0
LINE
  8
0
  6
CONTINUOUS
 62
    58
 10
-427.627199
 20
6.299747
 30
0.0
 11
-413.377167
 21
6.299747
 31
0.0
  0
LINE
  8
0
  6
CONTINUOUS
 62
    58
 10
-427.2522
 20
6.599747
 30
0.0
 11
-413.752167
 21
6.599747
 31
0.0
  0
LINE
  8
0
  6
CONTINUOUS
 62
    58
 10
-426.8772
 20
6.899747
 30
0.0
 11
-414.127167
 21
6.899747
 31
0.0
  0
LINE
  8
0
  6
CONTINUOUS
 62
    58
 10
-426.5022
 20
7.199747
 30
0.0
 11
-414.502168
 21
7.199747
 31
0.0
  0
LINE
  8
0
  6
CONTINUOUS
 62
    58
 10
-426.1272
 20
7.499747
 30
0.0
 11
-414.877168
 21
7.499747
 31
0.0
  0
LINE
  8
0
  6
CONTINUOUS
 62
    58
 10
-425.752201
 20
7.799747
 30
0.0
 11
-415.252168
 21
7.799747
 31
0.0
  0
LINE
  8
0
  6
CONTINUOUS
 62
    58
 10
-425.377201
 20
8.099747
 30
0.0
 11
-415.627168
 21
8.099747
 31
0.0
  0
LINE
  8
0
  6
CONTINUOUS
 62
    58
 10
-425.002201
 20
8.399747
 30
0.0
 11
-416.002169
 21
8.399747
 31
0.0
  0
LINE
  8
0
  6
CONTINUOUS
 62
    58
 10
-424.627201
 20
8.699747
 30
0.0
 11
-416.377169
 21
8.699747
 31
0.0
  0
LINE
  8
0
  6
CONTINUOUS
 62
    58
 10
-424.252201
 20
8.999747
 30
0.0
 11
-416.752169
 21
8.999747
 31
0.0
  0
LINE
  8
0
  6
CONTINUOUS
 62
    58
 10
-423.877202
 20
9.299747
 30
0.0
 11
-417.127169
 21
9.299747
 31
0.0
  0
LINE
  8
0
  6
CONTINUOUS
 62
    58
 10
-423.502202
 20
9.599747
 30
0.0
 11
-417.50217
 21
9.599747
 31
0.0
  0
LINE
  8
0
  6
CONTINUOUS
 62
    58
 10
-423.127202
 20
9.899747
 30
0.0
 11
-417.87717
 21
9.899747
 31
0.0
  0
LINE
  8
0
  6
CONTINUOUS
 62
    58
 10
-422.752202
 20
10.199747
 30
0.0
 11
-418.25217
 21
10.199747
 31
0.0
  0
LINE
  8
0
  6
CONTINUOUS
 62
    58
 10
-422.377203
 20
10.499747
 30
0.0
 11
-418.62717
 21
10.499747
 31
0.0
  0
LINE
  8
0
  6
CONTINUOUS
 62
    58
 10
-422.002203
 20
10.799747
 30
0.0
 11
-419.002171
 21
10.799747
 31
0.0
  0
LINE
  8
0
  6
CONTINUOUS
 62
    58
 10
-421.627203
 20
11.099747
 30
0.0
 11
-419.377171
 21
11.099747
 31
0.0
  0
LINE
  8
0
  6
CONTINUOUS
 62
    58
 10
-421.252203
 20
11.399747
 30
0.0
 11
-419.752171
 21
11.399747
 31
0.0
  0
LINE
  8
0
  6
CONTINUOUS
 62
    58
 10
-420.877204
 20
11.699747
 30
0.0
 11
-420.127171
 21
11.699747
 31
0.0
  0
LINE
  8
0
  6
CONTINUOUS
 62
    58
 10
-420.502204
 20
11.999747
 30
0.0
 11
-420.502172
 21
11.999747
 31
0.0
  0
ENDBLK
  8
0
  0
BLOCK
  8
0
  6
CONTINUOUS
 62
     7
  2
*H25
 70
    65
 10
0.0
 20
0.0
 30
0.0
  3
*H25
  0
LINE
  8
0
  6
CONTINUOUS
 62
    58
 10
-834.999023
 20
289.799499
 30
0.0
 11
-834.759023
 21
289.799499
 31
0.0
  0
LINE
  8
0
  6
CONTINUOUS
 62
    58
 10
-834.999023
 20
290.099499
 30
0.0
 11
-834.519023
 21
290.099499
 31
0.0
  0
LINE
  8
0
  6
CONTINUOUS
 62
    58
 10
-834.999023
 20
290.399499
 30
0.0
 11
-834.279023
 21
290.399499
 31
0.0
  0
LINE
  8
0
  6
CONTINUOUS
 62
    58
 10
-834.999023
 20
290.699499
 30
0.0
 11
-834.039022
 21
290.699499
 31
0.0
  0
LINE
  8
0
  6
CONTINUOUS
 62
    58
 10
-834.999023
 20
290.999499
 30
0.0
 11
-833.799022
 21
290.999499
 31
0.0
  0
LINE
  8
0
  6
CONTINUOUS
 62
    58
 10
-834.999023
 20
291.299499
 30
0.0
 11
-833.559022
 21
291.299499
 31
0.0
  0
LINE
  8
0
  6
CONTINUOUS
 62
    58
 10
-837.999023
 20
291.599499
 30
0.0
 11
-833.319021
 21
291.599499
 31
0.0
  0
LINE
  8
0
  6
CONTINUOUS
 62
    58
 10
-837.999023
 20
291.899499
 30
0.0
 11
-833.079021
 21
291.899499
 31
0.0
  0
LINE
  8
0
  6
CONTINUOUS
 62
    58
 10
-837.999023
 20
292.199499
 30
0.0
 11
-832.839021
 21
292.199499
 31
0.0
  0
LINE
  8
0
  6
CONTINUOUS
 62
    58
 10
-837.999023
 20
292.499499
 30
0.0
 11
-832.59902
 21
292.499499
 31
0.0
  0
LINE
  8
0
  6
CONTINUOUS
 62
    58
 10
-837.999023
 20
292.799499
 30
0.0
 11
-832.35902
 21
292.799499
 31
0.0
  0
LINE
  8
0
  6
CONTINUOUS
 62
    58
 10
-837.999023
 20
293.099499
 30
0.0
 11
-832.11902
 21
293.099499
 31
0.0
  0
LINE
  8
0
  6
CONTINUOUS
 62
    58
 10
-837.999023
 20
293.399499
 30
0.0
 11
-831.879019
 21
293.399499
 31
0.0
  0
LINE
  8
0
  6
CONTINUOUS
 62
    58
 10
-837.999023
 20
293.699499
 30
0.0
 11
-831.639019
 21
293.699499
 31
0.0
  0
LINE
  8
0
  6
CONTINUOUS
 62
    58
 10
-837.999023
 20
293.999499
 30
0.0
 11
-831.399019
 21
293.999499
 31
0.0
  0
LINE
  8
0
  6
CONTINUOUS
 62
    58
 10
-837.999023
 20
294.299499
 30
0.0
 11
-831.159019
 21
294.299499
 31
0.0
  0
LINE
  8
0
  6
CONTINUOUS
 62
    58
 10
-837.999023
 20
294.599499
 30
0.0
 11
-830.919018
 21
294.599499
 31
0.0
  0
LINE
  8
0
  6
CONTINUOUS
 62
    58
 10
-837.999023
 20
294.899499
 30
0.0
 11
-830.679018
 21
294.899499
 31
0.0
  0
LINE
  8
0
  6
CONTINUOUS
 62
    58
 10
-837.999023
 20
295.199499
 30
0.0
 11
-830.439018
 21
295.199499
 31
0.0
  0
LINE
  8
0
  6
CONTINUOUS
 62
    58
 10
-837.999023
 20
295.499499
 30
0.0
 11
-830.199017
 21
295.499499
 31
0.0
  0
LINE
  8
0
  6
CONTINUOUS
 62
    58
 10
-837.999023
 20
295.799499
 30
0.0
 11
-829.959017
 21
295.799499
 31
0.0
  0
LINE
  8
0
  6
CONTINUOUS
 62
    58
 10
-837.999023
 20
296.099499
 30
0.0
 11
-829.719017
 21
296.099499
 31
0.0
  0
LINE
  8
0
  6
CONTINUOUS
 62
    58
 10
-837.999023
 20
296.399499
 30
0.0
 11
-829.479016
 21
296.399499
 31
0.0
  0
LINE
  8
0
  6
CONTINUOUS
 62
    58
 10
-837.999023
 20
296.699499
 30
0.0
 11
-829.239016
 21
296.699499
 31
0.0
  0
LINE
  8
0
  6
CONTINUOUS
 62
    58
 10
-837.999023
 20
296.999499
 30
0.0
 11
-828.999016
 21
296.999499
 31
0.0
  0
LINE
  8
0
  6
CONTINUOUS
 62
    58
 10
-837.999023
 20
297.299499
 30
0.0
 11
-829.239008
 21
297.299499
 31
0.0
  0
LINE
  8
0
  6
CONTINUOUS
 62
    58
 10
-837.999023
 20
297.599499
 30
0.0
 11
-829.479008
 21
297.599499
 31
0.0
  0
LINE
  8
0
  6
CONTINUOUS
 62
    58
 10
-837.999023
 20
297.899499
 30
0.0
 11
-829.719008
 21
297.899499
 31
0.0
  0
LINE
  8
0
  6
CONTINUOUS
 62
    58
 10
-837.999023
 20
298.199499
 30
0.0
 11
-829.959007
 21
298.199499
 31
0.0
  0
LINE
  8
0
  6
CONTINUOUS
 62
    58
 10
-837.999023
 20
298.499499
 30
0.0
 11
-830.199007
 21
298.499499
 31
0.0
  0
LINE
  8
0
  6
CONTINUOUS
 62
    58
 10
-837.999023
 20
298.799499
 30
0.0
 11
-830.439007
 21
298.799499
 31
0.0
  0
LINE
  8
0
  6
CONTINUOUS
 62
    58
 10
-837.999023
 20
299.099499
 30
0.0
 11
-830.679007
 21
299.099499
 31
0.0
  0
LINE
  8
0
  6
CONTINUOUS
 62
    58
 10
-837.999023
 20
299.399499
 30
0.0
 11
-830.919006
 21
299.399499
 31
0.0
  0
LINE
  8
0
  6
CONTINUOUS
 62
    58
 10
-837.999023
 20
299.699499
 30
0.0
 11
-831.159006
 21
299.699499
 31
0.0
  0
LINE
  8
0
  6
CONTINUOUS
 62
    58
 10
-837.999023
 20
299.999499
 30
0.0
 11
-831.399006
 21
299.999499
 31
0.0
  0
LINE
  8
0
  6
CONTINUOUS
 62
    58
 10
-837.999023
 20
300.299499
 30
0.0
 11
-831.639005
 21
300.299499
 31
0.0
  0
LINE
  8
0
  6
CONTINUOUS
 62
    58
 10
-837.999023
 20
300.599499
 30
0.0
 11
-831.879005
 21
300.599499
 31
0.0
  0
LINE
  8
0
  6
CONTINUOUS
 62
    58
 10
-837.999023
 20
300.899499
 30
0.0
 11
-832.119005
 21
300.899499
 31
0.0
  0
LINE
  8
0
  6
CONTINUOUS
 62
    58
 10
-837.999023
 20
301.199499
 30
0.0
 11
-832.359004
 21
301.199499
 31
0.0
  0
LINE
  8
0
  6
CONTINUOUS
 62
    58
 10
-837.999023
 20
301.499499
 30
0.0
 11
-832.599004
 21
301.499499
 31
0.0
  0
LINE
  8
0
  6
CONTINUOUS
 62
    58
 10
-837.999023
 20
301.799499
 30
0.0
 11
-832.839004
 21
301.799499
 31
0.0
  0
LINE
  8
0
  6
CONTINUOUS
 62
    58
 10
-837.999023
 20
302.099499
 30
0.0
 11
-833.079003
 21
302.099499
 31
0.0
  0
LINE
  8
0
  6
CONTINUOUS
 62
    58
 10
-837.999023
 20
302.399499
 30
0.0
 11
-833.319003
 21
302.399499
 31
0.0
  0
LINE
  8
0
  6
CONTINUOUS
 62
    58
 10
-834.999023
 20
302.699499
 30
0.0
 11
-833.559003
 21
302.699499
 31
0.0
  0
LINE
  8
0
  6
CONTINUOUS
 62
    58
 10
-834.999023
 20
302.999499
 30
0.0
 11
-833.799002
 21
302.999499
 31
0.0
  0
LINE
  8
0
  6
CONTINUOUS
 62
    58
 10
-834.999023
 20
303.299499
 30
0.0
 11
-834.039002
 21
303.299499
 31
0.0
  0
LINE
  8
0
  6
CONTINUOUS
 62
    58
 10
-834.999023
 20
303.599499
 30
0.0
 11
-834.279002
 21
303.599499
 31
0.0
  0
LINE
  8
0
  6
CONTINUOUS
 62
    58
 10
-834.999023
 20
303.899499
 30
0.0
 11
-834.519002
 21
303.899499
 31
0.0
  0
LINE
  8
0
  6
CONTINUOUS
 62
    58
 10
-834.999023
 20
304.199499
 30
0.0
 11
-834.759001
 21
304.199499
 31
0.0
  0
LINE
  8
0
  6
CONTINUOUS
 62
    58
 10
-834.999023
 20
304.499499
 30
0.0
 11
-834.999001
 21
304.499499
 31
0.0
  0
ENDBLK
  8
0
  0
BLOCK
  8
0
  6
CONTINUOUS
 62
     7
  2
*H26
 70
    65
 10
0.0
 20
0.0
 30
0.0
  3
*H26
  0
LINE
  8
0
  6
CONTINUOUS
 62
    58
 10
-6.239988
 20
289.799507
 30
0.0
 11
-5.999988
 21
289.799507
 31
0.0
  0
LINE
  8
0
  6
CONTINUOUS
 62
    58
 10
-6.479988
 20
290.099507
 30
0.0
 11
-5.999988
 21
290.099507
 31
0.0
  0
LINE
  8
0
  6
CONTINUOUS
 62
    58
 10
-6.719988
 20
290.399507
 30
0.0
 11
-5.999988
 21
290.399507
 31
0.0
  0
LINE
  8
0
  6
CONTINUOUS
 62
    58
 10
-6.959988
 20
290.699507
 30
0.0
 11
-5.999988
 21
290.699507
 31
0.0
  0
LINE
  8
0
  6
CONTINUOUS
 62
    58
 10
-7.199988
 20
290.999507
 30
0.0
 11
-5.999988
 21
290.999507
 31
0.0
  0
LINE
  8
0
  6
CONTINUOUS
 62
    58
 10
-7.439988
 20
291.299507
 30
0.0
 11
-5.999988
 21
291.299507
 31
0.0
  0
LINE
  8
0
  6
CONTINUOUS
 62
    58
 10
-7.679988
 20
291.599507
 30
0.0
 11
-2.999988
 21
291.599507
 31
0.0
  0
LINE
  8
0
  6
CONTINUOUS
 62
    58
 10
-7.919988
 20
291.899507
 30
0.0
 11
-2.999988
 21
291.899507
 31
0.0
  0
LINE
  8
0
  6
CONTINUOUS
 62
    58
 10
-8.159988
 20
292.199507
 30
0.0
 11
-2.999988
 21
292.199507
 31
0.0
  0
LINE
  8
0
  6
CONTINUOUS
 62
    58
 10
-8.399988
 20
292.499507
 30
0.0
 11
-2.999988
 21
292.499507
 31
0.0
  0
LINE
  8
0
  6
CONTINUOUS
 62
    58
 10
-8.639988
 20
292.799507
 30
0.0
 11
-2.999988
 21
292.799507
 31
0.0
  0
LINE
  8
0
  6
CONTINUOUS
 62
    58
 10
-8.879988
 20
293.099507
 30
0.0
 11
-2.999988
 21
293.099507
 31
0.0
  0
LINE
  8
0
  6
CONTINUOUS
 62
    58
 10
-9.119988
 20
293.399507
 30
0.0
 11
-2.999988
 21
293.399507
 31
0.0
  0
LINE
  8
0
  6
CONTINUOUS
 62
    58
 10
-9.359988
 20
293.699507
 30
0.0
 11
-2.999988
 21
293.699507
 31
0.0
  0
LINE
  8
0
  6
CONTINUOUS
 62
    58
 10
-9.599988
 20
293.999507
 30
0.0
 11
-2.999988
 21
293.999507
 31
0.0
  0
LINE
  8
0
  6
CONTINUOUS
 62
    58
 10
-9.839988
 20
294.299507
 30
0.0
 11
-2.999988
 21
294.299507
 31
0.0
  0
LINE
  8
0
  6
CONTINUOUS
 62
    58
 10
-10.079988
 20
294.599507
 30
0.0
 11
-2.999988
 21
294.599507
 31
0.0
  0
LINE
  8
0
  6
CONTINUOUS
 62
    58
 10
-10.319988
 20
294.899507
 30
0.0
 11
-2.999988
 21
294.899507
 31
0.0
  0
LINE
  8
0
  6
CONTINUOUS
 62
    58
 10
-10.559988
 20
295.199507
 30
0.0
 11
-2.999988
 21
295.199507
 31
0.0
  0
LINE
  8
0
  6
CONTINUOUS
 62
    58
 10
-10.799988
 20
295.499507
 30
0.0
 11
-2.999988
 21
295.499507
 31
0.0
  0
LINE
  8
0
  6
CONTINUOUS
 62
    58
 10
-11.039988
 20
295.799507
 30
0.0
 11
-2.999988
 21
295.799507
 31
0.0
  0
LINE
  8
0
  6
CONTINUOUS
 62
    58
 10
-11.279988
 20
296.099507
 30
0.0
 11
-2.999988
 21
296.099507
 31
0.0
  0
LINE
  8
0
  6
CONTINUOUS
 62
    58
 10
-11.519987
 20
296.399507
 30
0.0
 11
-2.999988
 21
296.399507
 31
0.0
  0
LINE
  8
0
  6
CONTINUOUS
 62
    58
 10
-11.759987
 20
296.699507
 30
0.0
 11
-2.999988
 21
296.699507
 31
0.0
  0
LINE
  8
0
  6
CONTINUOUS
 62
    58
 10
-11.999987
 20
296.999507
 30
0.0
 11
-2.999988
 21
296.999507
 31
0.0
  0
LINE
  8
0
  6
CONTINUOUS
 62
    58
 10
-11.76001
 20
297.299507
 30
0.0
 11
-2.999988
 21
297.299507
 31
0.0
  0
LINE
  8
0
  6
CONTINUOUS
 62
    58
 10
-11.52001
 20
297.599507
 30
0.0
 11
-2.999988
 21
297.599507
 31
0.0
  0
LINE
  8
0
  6
CONTINUOUS
 62
    58
 10
-11.28001
 20
297.899507
 30
0.0
 11
-2.999988
 21
297.899507
 31
0.0
  0
LINE
  8
0
  6
CONTINUOUS
 62
    58
 10
-11.04001
 20
298.199507
 30
0.0
 11
-2.999988
 21
298.199507
 31
0.0
  0
LINE
  8
0
  6
CONTINUOUS
 62
    58
 10
-10.80001
 20
298.499507
 30
0.0
 11
-2.999988
 21
298.499507
 31
0.0
  0
LINE
  8
0
  6
CONTINUOUS
 62
    58
 10
-10.56001
 20
298.799507
 30
0.0
 11
-2.999988
 21
298.799507
 31
0.0
  0
LINE
  8
0
  6
CONTINUOUS
 62
    58
 10
-10.32001
 20
299.099507
 30
0.0
 11
-2.999988
 21
299.099507
 31
0.0
  0
LINE
  8
0
  6
CONTINUOUS
 62
    58
 10
-10.08001
 20
299.399507
 30
0.0
 11
-2.999988
 21
299.399507
 31
0.0
  0
LINE
  8
0
  6
CONTINUOUS
 62
    58
 10
-9.84001
 20
299.699507
 30
0.0
 11
-2.999988
 21
299.699507
 31
0.0
  0
LINE
  8
0
  6
CONTINUOUS
 62
    58
 10
-9.60001
 20
299.999507
 30
0.0
 11
-2.999988
 21
299.999507
 31
0.0
  0
LINE
  8
0
  6
CONTINUOUS
 62
    58
 10
-9.36001
 20
300.299507
 30
0.0
 11
-2.999988
 21
300.299507
 31
0.0
  0
LINE
  8
0
  6
CONTINUOUS
 62
    58
 10
-9.12001
 20
300.599507
 30
0.0
 11
-2.999988
 21
300.599507
 31
0.0
  0
LINE
  8
0
  6
CONTINUOUS
 62
    58
 10
-8.88001
 20
300.899507
 30
0.0
 11
-2.999988
 21
300.899507
 31
0.0
  0
LINE
  8
0
  6
CONTINUOUS
 62
    58
 10
-8.64001
 20
301.199507
 30
0.0
 11
-2.999988
 21
301.199507
 31
0.0
  0
LINE
  8
0
  6
CONTINUOUS
 62
    58
 10
-8.40001
 20
301.499507
 30
0.0
 11
-2.999988
 21
301.499507
 31
0.0
  0
LINE
  8
0
  6
CONTINUOUS
 62
    58
 10
-8.16001
 20
301.799507
 30
0.0
 11
-2.999988
 21
301.799507
 31
0.0
  0
LINE
  8
0
  6
CONTINUOUS
 62
    58
 10
-7.92001
 20
302.099507
 30
0.0
 11
-2.999988
 21
302.099507
 31
0.0
  0
LINE
  8
0
  6
CONTINUOUS
 62
    58
 10
-7.68001
 20
302.399507
 30
0.0
 11
-2.999988
 21
302.399507
 31
0.0
  0
LINE
  8
0
  6
CONTINUOUS
 62
    58
 10
-7.44001
 20
302.699507
 30
0.0
 11
-5.999988
 21
302.699507
 31
0.0
  0
LINE
  8
0
  6
CONTINUOUS
 62
    58
 10
-7.20001
 20
302.999507
 30
0.0
 11
-5.999988
 21
302.999507
 31
0.0
  0
LINE
  8
0
  6
CONTINUOUS
 62
    58
 10
-6.96001
 20
303.299507
 30
0.0
 11
-5.999988
 21
303.299507
 31
0.0
  0
LINE
  8
0
  6
CONTINUOUS
 62
    58
 10
-6.72001
 20
303.599507
 30
0.0
 11
-5.999988
 21
303.599507
 31
0.0
  0
LINE
  8
0
  6
CONTINUOUS
 62
    58
 10
-6.48001
 20
303.899507
 30
0.0
 11
-5.999988
 21
303.899507
 31
0.0
  0
LINE
  8
0
  6
CONTINUOUS
 62
    58
 10
-6.24001
 20
304.199507
 30
0.0
 11
-5.999988
 21
304.199507
 31
0.0
  0
LINE
  8
0
  6
CONTINUOUS
 62
    58
 10
-6.00001
 20
304.499507
 30
0.0
 11
-5.999988
 21
304.499507
 31
0.0
  0
ENDBLK
  8
0
  0
BLOCK
  8
0
  6
CONTINUOUS
 62
     7
  2
*U27
 70
    65
 10
0.0
 20
0.0
 30
0.0
  3
*U27
  0
LINE
  8
0
  6
CONTINUOUS
 62
     7
 10
-315.006662
 20
263.121717
 30
0.0
 11
-361.809454
 21
225.227477
 31
0.0
  0
LINE
  8
0
  6
CONTINUOUS
 62
     7
 10
-315.006662
 20
263.121717
 30
0.0
 11
-272.568044
 21
263.121717
 31
0.0
  0
LINE
  8
0
  6
CONTINUOUS
 62
     7
 10
-346.474727
 20
236.644304
 30
0.0
 11
-344.711186
 21
239.071221
 31
0.0
  0
LINE
  8
0
  6
CONTINUOUS
 62
     7
 10
-344.711186
 20
239.071221
 30
0.0
 11
-347.451916
 21
237.85122
 31
0.0
  0
LINE
  8
0
  6
CONTINUOUS
 62
     7
 10
-360.045913
 20
227.654393
 30
0.0
 11
-361.809454
 21
225.227477
 31
0.0
  0
LINE
  8
0
  6
CONTINUOUS
 62
     7
 10
-361.809454
 20
225.227477
 30
0.0
 11
-359.068725
 21
226.447478
 31
0.0
  0
TEXT
  8
0
  6
CONTINUOUS
 62
     7
 10
-292.484711
 20
265.121717
 30
0.0
 40
3.5
  1
11.0
 50
360.0
 41
0.933333
 72
     1
 11
-286.301377
 21
266.871717
 31
0.0
 73
     2
  0
TEXT
  8
0
  6
CONTINUOUS
 62
     7
 10
-296.984711
 20
265.121717
 30
0.0
 40
3.5
  1
n
 50
360.0
  7
TOLERANCE
 72
     1
 11
-295.23471
 21
266.871717
 31
0.0
 73
     2
  0
TEXT
  8
0
  6
CONTINUOUS
 62
     7
 10
-304.534711
 20
256.621717
 30
0.0
 40
3.5
  1
TYP 4 PLCS
 50
360.0
 41
0.933333
 72
     1
 11
-288.551377
 21
258.371717
 31
0.0
 73
     2
  0
ENDBLK
  8
0
  0
BLOCK
  8
0
  6
CONTINUOUS
 62
     7
  2
*U28
 70
    65
 10
0.0
 20
0.0
 30
0.0
  3
*U28
  0
ARC
  8
0
  6
CONTINUOUS
 62
     7
 10
-353.26032
 20
232.149349
 30
0.0
 40
18.0
 50
156.925894
 51
164.114678
  0
LINE
  8
0
  6
CONTINUOUS
 62
     7
 10
-305.608325
 20
217.845896
 30
0.0
 11
-370.500411
 21
237.324218
 31
0.0
  0
LINE
  8
0
  6
CONTINUOUS
 62
     7
 10
-305.608325
 20
217.845896
 30
0.0
 11
-264.430309
 21
217.845896
 31
0.0
  0
LINE
  8
0
  6
CONTINUOUS
 62
     7
 10
-339.018897
 20
227.063893
 30
0.0
 11
-336.020229
 21
226.97448
 31
0.0
  0
LINE
  8
0
  6
CONTINUOUS
 62
     7
 10
-336.020229
 20
226.97448
 30
0.0
 11
-338.572445
 21
228.551247
 31
0.0
  0
LINE
  8
0
  6
CONTINUOUS
 62
     7
 10
-367.501744
 20
237.234805
 30
0.0
 11
-370.500411
 21
237.324218
 31
0.0
  0
LINE
  8
0
  6
CONTINUOUS
 62
     7
 10
-370.500411
 20
237.324218
 30
0.0
 11
-367.948195
 21
235.747451
 31
0.0
  0
TEXT
  8
0
  6
CONTINUOUS
 62
     7
 10
-284.346976
 20
219.845896
 30
0.0
 40
3.5
  1
18.0
 50
360.0
 41
0.933333
 72
     1
 11
-278.163643
 21
221.595896
 31
0.0
 73
     2
  0
TEXT
  8
0
  6
CONTINUOUS
 62
     7
 10
-288.846976
 20
219.845896
 30
0.0
 40
3.5
  1
n
 50
360.0
  7
TOLERANCE
 72
     1
 11
-287.096976
 21
221.595896
 31
0.0
 73
     2
  0
TEXT
  8
0
  6
CONTINUOUS
 62
     7
 10
-296.396976
 20
211.345896
 30
0.0
 40
3.5
  1
TYP 4 PLCS
 50
360.0
 41
0.933333
 72
     1
 11
-280.413643
 21
213.095896
 31
0.0
 73
     2
  0
ENDBLK
  8
0
  0
BLOCK
  8
0
  6
CONTINUOUS
 62
     7
  2
*U29
 70
    65
 10
0.0
 20
0.0
 30
0.0
  3
*U29
  0
LINE
  8
0
  6
CONTINUOUS
 62
     7
 10
-569.26032
 20
231.149349
 30
0.0
 11
-569.26032
 21
202.10683
 31
0.0
  0
LINE
  8
0
  6
CONTINUOUS
 62
     7
 10
-461.26032
 20
204.10683
 30
0.0
 11
-569.26032
 21
204.10683
 31
0.0
  0
LINE
  8
0
  6
CONTINUOUS
 62
     7
 10
-464.158098
 20
203.330373
 30
0.0
 11
-461.26032
 21
204.10683
 31
0.0
  0
LINE
  8
0
  6
CONTINUOUS
 62
     7
 10
-461.26032
 20
204.10683
 30
0.0
 11
-464.158098
 21
204.883287
 31
0.0
  0
LINE
  8
0
  6
CONTINUOUS
 62
     7
 10
-566.362543
 20
204.883287
 30
0.0
 11
-569.26032
 21
204.10683
 31
0.0
  0
LINE
  8
0
  6
CONTINUOUS
 62
     7
 10
-569.26032
 20
204.10683
 30
0.0
 11
-566.362543
 21
203.330373
 31
0.0
  0
TEXT
  8
0
  6
CONTINUOUS
 62
     7
 10
-519.80497
 20
206.10683
 30
0.0
 40
3.5
  1
54.0
 50
360.0
 41
0.933333
 72
     1
 11
-513.621636
 21
207.85683
 31
0.0
 73
     2
  0
TEXT
  8
0
  6
CONTINUOUS
 62
     7
 10
-518.171636
 20
197.60683
 30
0.0
 40
3.5
  1
TYP
 50
360.0
 41
0.933333
 72
     1
 11
-513.621636
 21
199.35683
 31
0.0
 73
     2
  0
ENDBLK
  8
0
  0
BLOCK
  8
0
  6
CONTINUOUS
 62
     7
  2
*U30
 70
    65
 10
0.0
 20
0.0
 30
0.0
  3
*U30
  0
LINE
  8
0
  6
CONTINUOUS
 62
     7
 10
-592.26032
 20
396.149349
 30
0.0
 11
-638.600442
 21
396.149349
 31
0.0
  0
LINE
  8
0
  6
CONTINUOUS
 62
     7
 10
-626.955352
 20
376.149349
 30
0.0
 11
-638.600442
 21
376.149349
 31
0.0
  0
LINE
  8
0
  6
CONTINUOUS
 62
     7
 10
-636.600442
 20
401.149349
 30
0.0
 11
-636.600442
 21
371.149349
 31
0.0
  0
LINE
  8
0
  6
CONTINUOUS
 62
     7
 10
-637.3769
 20
399.047126
 30
0.0
 11
-636.600442
 21
396.149349
 31
0.0
  0
LINE
  8
0
  6
CONTINUOUS
 62
     7
 10
-636.600442
 20
396.149349
 30
0.0
 11
-635.823985
 21
399.047126
 31
0.0
  0
LINE
  8
0
  6
CONTINUOUS
 62
     7
 10
-635.823985
 20
373.251571
 30
0.0
 11
-636.600442
 21
376.149349
 31
0.0
  0
LINE
  8
0
  6
CONTINUOUS
 62
     7
 10
-636.600442
 20
376.149349
 30
0.0
 11
-637.3769
 21
373.251571
 31
0.0
  0
TEXT
  8
0
  6
CONTINUOUS
 62
     7
 10
-638.600443
 20
379.590367
 30
0.0
 40
3.5
  1
10.0
 50
450.0
 41
0.933333
 72
     1
 11
-640.350442
 21
385.7737
 31
0.0
 73
     2
  0
TEXT
  8
0
  6
CONTINUOUS
 62
     7
 10
-630.100442
 20
381.2237
 30
0.0
 40
3.5
  1
TYP
 50
450.0
 41
0.933333
 72
     1
 11
-631.850442
 21
385.7737
 31
0.0
 73
     2
  0
ENDBLK
  8
0
  0
BLOCK
  8
0
  6
CONTINUOUS
 62
     7
  2
*U31
 70
    65
 10
0.0
 20
0.0
 30
0.0
  3
*U31
  0
LINE
  8
0
  6
CONTINUOUS
 62
     7
 10
-353.26032
 20
231.149349
 30
0.0
 11
-353.26032
 21
182.123941
 31
0.0
  0
LINE
  8
0
  6
CONTINUOUS
 62
     7
 10
-569.26032
 20
231.149349
 30
0.0
 11
-569.26032
 21
182.123941
 31
0.0
  0
LINE
  8
0
  6
CONTINUOUS
 62
     7
 10
-353.26032
 20
184.123941
 30
0.0
 11
-569.26032
 21
184.123941
 31
0.0
  0
LINE
  8
0
  6
CONTINUOUS
 62
     7
 10
-356.158098
 20
183.347484
 30
0.0
 11
-353.26032
 21
184.123941
 31
0.0
  0
LINE
  8
0
  6
CONTINUOUS
 62
     7
 10
-353.26032
 20
184.123941
 30
0.0
 11
-356.158098
 21
184.900399
 31
0.0
  0
LINE
  8
0
  6
CONTINUOUS
 62
     7
 10
-566.362543
 20
184.900399
 30
0.0
 11
-569.26032
 21
184.123941
 31
0.0
  0
LINE
  8
0
  6
CONTINUOUS
 62
     7
 10
-569.26032
 20
184.123941
 30
0.0
 11
-566.362543
 21
183.347484
 31
0.0
  0
TEXT
  8
0
  6
CONTINUOUS
 62
     7
 10
-470.1271
 20
186.123941
 30
0.0
 40
3.5
  1
108.0
 50
360.0
 41
0.933333
 72
     1
 11
-462.310434
 21
187.873941
 31
0.0
 73
     2
  0
ENDBLK
  8
0
  0
BLOCK
  8
0
  6
CONTINUOUS
 62
     7
  2
*U32
 70
    65
 10
0.0
 20
0.0
 30
0.0
  3
*U32
  0
LINE
  8
0
  6
CONTINUOUS
 62
     7
 10
-626.955352
 20
376.149349
 30
0.0
 11
-639.114021
 21
376.149349
 31
0.0
  0
LINE
  8
0
  6
CONTINUOUS
 62
     7
 10
-476.410515
 20
284.149349
 30
0.0
 11
-511.754107
 21
284.149349
 31
0.0
  0
LINE
  8
0
  6
CONTINUOUS
 62
     7
 10
-551.766558
 20
284.149349
 30
0.0
 11
-639.114021
 21
284.149349
 31
0.0
  0
LINE
  8
0
  6
CONTINUOUS
 62
     7
 10
-637.114021
 20
376.149349
 30
0.0
 11
-637.114021
 21
284.149349
 31
0.0
  0
LINE
  8
0
  6
CONTINUOUS
 62
     7
 10
-636.337564
 20
373.251571
 30
0.0
 11
-637.114021
 21
376.149349
 31
0.0
  0
LINE
  8
0
  6
CONTINUOUS
 62
     7
 10
-637.114021
 20
376.149349
 30
0.0
 11
-637.890479
 21
373.251571
 31
0.0
  0
LINE
  8
0
  6
CONTINUOUS
 62
     7
 10
-637.890479
 20
287.047126
 30
0.0
 11
-637.114021
 21
284.149349
 31
0.0
  0
LINE
  8
0
  6
CONTINUOUS
 62
     7
 10
-637.114021
 20
284.149349
 30
0.0
 11
-636.337564
 21
287.047126
 31
0.0
  0
TEXT
  8
0
  6
CONTINUOUS
 62
     7
 10
-639.114021
 20
319.875145
 30
0.0
 40
3.5
  1
46.0
 50
450.0
 41
0.933333
 72
     1
 11
-640.864021
 21
326.058479
 31
0.0
 73
     2
  0
ENDBLK
  8
0
  0
BLOCK
  8
0
  6
CONTINUOUS
 62
     7
  2
*U33
 70
    65
 10
0.0
 20
0.0
 30
0.0
  3
*U33
  0
LINE
  8
0
  6
CONTINUOUS
 62
     7
 10
-626.955352
 20
376.149349
 30
0.0
 11
-651.720049
 21
376.149349
 31
0.0
  0
LINE
  8
0
  6
CONTINUOUS
 62
     7
 10
-592.572722
 20
232.149349
 30
0.0
 11
-651.720049
 21
232.149349
 31
0.0
  0
LINE
  8
0
  6
CONTINUOUS
 62
     7
 10
-649.720049
 20
376.149349
 30
0.0
 11
-649.720049
 21
232.149349
 31
0.0
  0
LINE
  8
0
  6
CONTINUOUS
 62
     7
 10
-648.943592
 20
373.251571
 30
0.0
 11
-649.720049
 21
376.149349
 31
0.0
  0
LINE
  8
0
  6
CONTINUOUS
 62
     7
 10
-649.720049
 20
376.149349
 30
0.0
 11
-650.496507
 21
373.251571
 31
0.0
  0
LINE
  8
0
  6
CONTINUOUS
 62
     7
 10
-650.496507
 20
235.047126
 30
0.0
 11
-649.720049
 21
232.149349
 31
0.0
  0
LINE
  8
0
  6
CONTINUOUS
 62
     7
 10
-649.720049
 20
232.149349
 30
0.0
 11
-648.943592
 21
235.047126
 31
0.0
  0
TEXT
  8
0
  6
CONTINUOUS
 62
     7
 10
-651.720049
 20
299.145233
 30
0.0
 40
3.5
  1
72.0
 50
450.0
 41
0.933333
 72
     1
 11
-653.470049
 21
305.328566
 31
0.0
 73
     2
  0
TEXT
  8
0
  6
CONTINUOUS
 62
     7
 10
-643.220049
 20
300.778566
 30
0.0
 40
3.5
  1
TYP
 50
450.0
 41
0.933333
 72
     1
 11
-644.970049
 21
305.328566
 31
0.0
 73
     2
  0
ENDBLK
  8
0
  0
BLOCK
  8
0
  6
CONTINUOUS
 62
     7
  2
*U34
 70
    65
 10
0.0
 20
0.0
 30
0.0
  3
*U34
  0
LINE
  8
0
  6
CONTINUOUS
 62
     7
 10
-355.753772
 20
301.555593
 30
0.0
 11
-395.05056
 21
273.538438
 31
0.0
  0
LINE
  8
0
  6
CONTINUOUS
 62
     7
 10
-380.67445
 20
282.834478
 30
0.0
 11
-378.765709
 21
285.148934
 31
0.0
  0
LINE
  8
0
  6
CONTINUOUS
 62
     7
 10
-378.765709
 20
285.148934
 30
0.0
 11
-381.575955
 21
284.098927
 31
0.0
  0
LINE
  8
0
  6
CONTINUOUS
 62
     7
 10
-393.141819
 20
275.852894
 30
0.0
 11
-395.05056
 21
273.538438
 31
0.0
  0
LINE
  8
0
  6
CONTINUOUS
 62
     7
 10
-395.05056
 20
273.538438
 30
0.0
 11
-392.240314
 21
274.588445
 31
0.0
  0
TEXT
  8
0
  6
CONTINUOUS
 62
     7
 10
-366.984288
 20
296.004921
 30
0.0
 40
3.5
  1
10.0
 50
395.487462
 41
0.933333
 72
     1
 11
-362.965473
 21
301.019424
 31
0.0
 73
     2
  0
TEXT
  8
0
  6
CONTINUOUS
 62
     7
 10
-360.719897
 20
290.03205
 30
0.0
 40
3.5
  1
TYP
 50
395.487462
 41
0.933333
 72
     1
 11
-358.031012
 21
294.098362
 31
0.0
 73
     2
  0
ENDBLK
  8
0
  0
BLOCK
  8
0
  6
CONTINUOUS
 62
     7
  2
*U35
 70
    65
 10
0.0
 20
0.0
 30
0.0
  3
*U35
  0
LINE
  8
0
  6
CONTINUOUS
 62
     7
 10
-449.26032
 20
283.303062
 30
0.0
 11
-449.26032
 21
260.281315
 31
0.0
  0
LINE
  8
0
  6
CONTINUOUS
 62
     7
 10
-473.26032
 20
283.044643
 30
0.0
 11
-473.26032
 21
260.281315
 31
0.0
  0
LINE
  8
0
  6
CONTINUOUS
 62
     7
 10
-425.592499
 20
262.281315
 30
0.0
 11
-473.26032
 21
262.281315
 31
0.0
  0
LINE
  8
0
  6
CONTINUOUS
 62
     7
 10
-452.158098
 20
261.504858
 30
0.0
 11
-449.26032
 21
262.281315
 31
0.0
  0
LINE
  8
0
  6
CONTINUOUS
 62
     7
 10
-449.26032
 20
262.281315
 30
0.0
 11
-452.158098
 21
263.057772
 31
0.0
  0
LINE
  8
0
  6
CONTINUOUS
 62
     7
 10
-470.362543
 20
263.057772
 30
0.0
 11
-473.26032
 21
262.281315
 31
0.0
  0
LINE
  8
0
  6
CONTINUOUS
 62
     7
 10
-473.26032
 20
262.281315
 30
0.0
 11
-470.362543
 21
261.504858
 31
0.0
  0
TEXT
  8
0
  6
CONTINUOUS
 62
     7
 10
-437.959166
 20
264.281315
 30
0.0
 40
3.5
  1
12.0
 50
360.0
 41
0.933333
 72
     1
 11
-431.775833
 21
266.031315
 31
0.0
 73
     2
  0
ENDBLK
  8
0
  0
BLOCK
  8
0
  6
CONTINUOUS
 62
     7
  2
*U36
 70
    65
 10
0.0
 20
0.0
 30
0.0
  3
*U36
  0
LINE
  8
0
  6
CONTINUOUS
 62
     7
 10
-591.26032
 20
397.149349
 30
0.0
 11
-591.26032
 21
431.007707
 31
0.0
  0
LINE
  8
0
  6
CONTINUOUS
 62
     7
 10
-461.26032
 20
429.007707
 30
0.0
 11
-591.26032
 21
429.007707
 31
0.0
  0
LINE
  8
0
  6
CONTINUOUS
 62
     7
 10
-464.158098
 20
428.23125
 30
0.0
 11
-461.26032
 21
429.007707
 31
0.0
  0
LINE
  8
0
  6
CONTINUOUS
 62
     7
 10
-461.26032
 20
429.007707
 30
0.0
 11
-464.158098
 21
429.784164
 31
0.0
  0
LINE
  8
0
  6
CONTINUOUS
 62
     7
 10
-588.362543
 20
429.784164
 30
0.0
 11
-591.26032
 21
429.007707
 31
0.0
  0
LINE
  8
0
  6
CONTINUOUS
 62
     7
 10
-591.26032
 20
429.007707
 30
0.0
 11
-588.362543
 21
428.23125
 31
0.0
  0
TEXT
  8
0
  6
CONTINUOUS
 62
     7
 10
-532.691132
 20
431.007707
 30
0.0
 40
3.5
  1
65.0
 50
360.0
 41
0.933333
 72
     1
 11
-526.507798
 21
432.757707
 31
0.0
 73
     2
  0
TEXT
  8
0
  6
CONTINUOUS
 62
     7
 10
-531.057798
 20
422.507707
 30
0.0
 40
3.5
  1
TYP
 50
360.0
 41
0.933333
 72
     1
 11
-526.507798
 21
424.257707
 31
0.0
 73
     2
  0
ENDBLK
  8
0
  0
BLOCK
  8
0
  6
CONTINUOUS
 62
     7
  2
*U37
 70
    65
 10
0.0
 20
0.0
 30
0.0
  3
*U37
  0
LINE
  8
0
  6
CONTINUOUS
 62
     7
 10
-331.26032
 20
397.149349
 30
0.0
 11
-331.26032
 21
458.320768
 31
0.0
  0
LINE
  8
0
  6
CONTINUOUS
 62
     7
 10
-591.26032
 20
397.149349
 30
0.0
 11
-591.26032
 21
458.320768
 31
0.0
  0
LINE
  8
0
  6
CONTINUOUS
 62
     7
 10
-331.26032
 20
456.320768
 30
0.0
 11
-591.26032
 21
456.320768
 31
0.0
  0
LINE
  8
0
  6
CONTINUOUS
 62
     7
 10
-334.158098
 20
455.54431
 30
0.0
 11
-331.26032
 21
456.320768
 31
0.0
  0
LINE
  8
0
  6
CONTINUOUS
 62
     7
 10
-331.26032
 20
456.320768
 30
0.0
 11
-334.158098
 21
457.097225
 31
0.0
  0
LINE
  8
0
  6
CONTINUOUS
 62
     7
 10
-588.362543
 20
457.097225
 30
0.0
 11
-591.26032
 21
456.320768
 31
0.0
  0
LINE
  8
0
  6
CONTINUOUS
 62
     7
 10
-591.26032
 20
456.320768
 30
0.0
 11
-588.362543
 21
455.54431
 31
0.0
  0
TEXT
  8
0
  6
CONTINUOUS
 62
     7
 10
-469.333387
 20
458.320768
 30
0.0
 40
3.5
  1
130.0
 50
360.0
 41
0.933333
 72
     1
 11
-461.516721
 21
460.070768
 31
0.0
 73
     2
  0
ENDBLK
  8
0
  0
BLOCK
  8
0
  6
CONTINUOUS
 62
     7
  2
*U38
 70
    65
 10
0.0
 20
0.0
 30
0.0
  3
*U38
  0
LINE
  8
0
  6
CONTINUOUS
 62
     7
 10
-433.532017
 20
368.041583
 30
0.0
 11
-399.560428
 21
348.282439
 31
0.0
  0
LINE
  8
0
  6
CONTINUOUS
 62
     7
 10
-399.560428
 20
348.282439
 30
0.0
 11
-380.960428
 21
348.282439
 31
0.0
  0
LINE
  8
0
  6
CONTINUOUS
 62
     7
 10
-430.636746
 20
367.25583
 30
0.0
 11
-433.532017
 21
368.041583
 31
0.0
  0
LINE
  8
0
  6
CONTINUOUS
 62
     7
 10
-433.532017
 20
368.041583
 30
0.0
 11
-431.417515
 21
365.913466
 31
0.0
  0
TEXT
  8
0
  6
CONTINUOUS
 62
     7
 10
-390.060428
 20
350.282439
 30
0.0
 40
3.5
  1
3.0
 50
360.0
 41
0.933333
 72
     1
 11
-385.510428
 21
352.032439
 31
0.0
 73
     2
  0
TEXT
  8
0
  6
CONTINUOUS
 62
     7
 10
-394.560428
 20
350.282439
 30
0.0
 40
3.5
  1
R
 50
360.0
  7
TOLERANCE
 72
     1
 11
-392.810428
 21
352.032439
 31
0.0
 73
     2
  0
TEXT
  8
0
  6
CONTINUOUS
 62
     7
 10
-392.310428
 20
341.782439
 30
0.0
 40
3.5
  1
TYP
 50
360.0
 41
0.933333
 72
     1
 11
-387.760428
 21
343.532439
 31
0.0
 73
     2
  0
ENDBLK
  8
0
  0
BLOCK
  8
0
  6
CONTINUOUS
 62
     7
  2
*U39
 70
    65
 10
0.0
 20
0.0
 30
0.0
  3
*U39
  0
LINE
  8
0
  6
CONTINUOUS
 62
     7
 10
-455.277445
 20
362.45564
 30
0.0
 11
-463.662495
 21
381.64749
 31
0.0
  0
LINE
  8
0
  6
CONTINUOUS
 62
     7
 10
-455.277445
 20
362.45564
 30
0.0
 11
-436.677445
 21
362.45564
 31
0.0
  0
LINE
  8
0
  6
CONTINUOUS
 62
     7
 10
-458.988284
 20
372.888458
 30
0.0
 11
-460.859958
 21
375.232992
 31
0.0
  0
LINE
  8
0
  6
CONTINUOUS
 62
     7
 10
-460.859958
 20
375.232992
 30
0.0
 11
-460.411308
 21
372.26673
 31
0.0
  0
LINE
  8
0
  6
CONTINUOUS
 62
     7
 10
-463.532356
 20
379.41024
 30
0.0
 11
-461.660683
 21
377.065706
 31
0.0
  0
LINE
  8
0
  6
CONTINUOUS
 62
     7
 10
-461.660683
 20
377.065706
 30
0.0
 11
-462.109333
 21
380.031968
 31
0.0
  0
TEXT
  8
0
  6
CONTINUOUS
 62
     7
 10
-445.777445
 20
364.45564
 30
0.0
 40
3.5
  1
1.0
 50
360.0
 41
0.933333
 72
     1
 11
-441.227445
 21
366.20564
 31
0.0
 73
     2
  0
TEXT
  8
0
  6
CONTINUOUS
 62
     7
 10
-450.277445
 20
364.45564
 30
0.0
 40
3.5
  1
n
 50
360.0
  7
TOLERANCE
 72
     1
 11
-448.527445
 21
366.20564
 31
0.0
 73
     2
  0
ENDBLK
  8
0
  0
ENDSEC
  0
SECTION
  2
ENTITIES
  0
VIEWPORT
  8
0
 62
     0
 67
     1
 68
     1
 10
0.0
 20
0.0
 30
0.0
 40
1000.0
 41
1000.0
 69
     1
1001
ACAD
1000
MVIEW
1002
{
1070
    16
1010
0.0
1020
0.0
1030
0.0
1010
0.0
1020
0.0
1030
1.0
1040
0.0
1040
1000.0
1040
0.0
1040
0.0
1040
50.0
1040
0.0
1040
0.0
1070
     0
1070
   100
1070
     1
1070
     1
1070
     0
1070
     0
1070
     0
1070
     0
1040
0.0
1040
0.0
1040
0.0
1040
1.0
1040
1.0
1040
1.0
1040
1.0
1070
     0
1002
{
1002
}
1002
}
  0
LINE
  8
0
  6
CONTINUOUS
 62
     7
 10
-296.0
 20
125.0
 30
0.0
 11
-146.0
 21
125.0
 31
0.0
  0
LINE
  8
0
  6
CONTINUOUS
 62
     7
 10
-296.0
 20
66.0
 30
0.0
 11
-206.0
 21
66.0
 31
0.0
  0
LINE
  8
0
  6
CONTINUOUS
 62
     7
 10
-296.0
 20
19.999741
 30
0.0
 11
-296.0
 21
66.0
 31
0.0
  0
LINE
  8
0
  6
CONTINUOUS
 62
     7
 10
-296.0
 20
19.999741
 30
0.0
 11
-206.0
 21
19.999741
 31
0.0
  0
POINT
  8
0
  6
CONTINUOUS
 62
     7
 10
-296.0
 20
19.999741
 30
0.0
  0
LINE
  8
0
  6
CONTINUOUS
 62
     7
 10
-296.0
 20
92.0
 30
0.0
 11
-296.0
 21
125.0
 31
0.0
  0
LINE
  8
0
  6
CONTINUOUS
 62
     7
 10
-296.0
 20
92.0
 30
0.0
 11
-206.0
 21
92.0
 31
0.0
  0
LINE
  8
0
  6
CONTINUOUS
 62
     7
 10
-206.0
 20
19.999741
 30
0.0
 11
-146.0
 21
19.999741
 31
0.0
  0
LINE
  8
0
  6
CONTINUOUS
 62
     7
 10
-146.0
 20
19.999741
 30
0.0
 11
-146.0
 21
125.0
 31
0.0
  0
LINE
  8
0
  6
CONTINUOUS
 62
     7
 10
-296.0
 20
125.0
 30
0.0
 11
-146.0
 21
125.0
 31
0.0
  0
POINT
  8
0
  6
CONTINUOUS
 62
     7
 10
-296.0
 20
66.0
 30
0.0
  0
POINT
  8
0
  6
CONTINUOUS
 62
     7
 10
-206.0
 20
66.0
 30
0.0
  0
POINT
  8
0
  6
CONTINUOUS
 62
     7
 10
-206.0
 20
19.999741
 30
0.0
  0
POINT
  8
0
  6
CONTINUOUS
 62
     7
 10
-206.0
 20
92.0
 30
0.0
  0
POINT
  8
0
  6
CONTINUOUS
 62
     7
 10
-206.0
 20
19.999741
 30
0.0
  0
POINT
  8
0
  6
CONTINUOUS
 62
     7
 10
-146.0
 20
19.999741
 30
0.0
  0
POINT
  8
0
  6
CONTINUOUS
 62
     7
 10
-146.0
 20
92.0
 30
0.0
  0
POINT
  8
0
  6
CONTINUOUS
 62
     7
 10
-296.0
 20
92.0
 30
0.0
  0
POINT
  8
0
  6
CONTINUOUS
 62
     7
 10
-146.0
 20
125.0
 30
0.0
  0
POINT
  8
0
  6
CONTINUOUS
 62
     7
 10
-296.0
 20
125.0
 30
0.0
  0
TEXT
  8
0
  6
CONTINUOUS
 62
     3
 10
-224.690534
 20
551.369839
 30
0.0
 40
4.1656
  1
A
 41
1.000001
 72
     1
 11
-223.20282
 21
553.452639
 31
0.0
 73
     2
  0
TEXT
  8
0
  6
CONTINUOUS
 62
     3
 10
-212.52859
 20
551.369839
 30
0.0
 40
4.1656
  1
SM406-VR-1
 41
0.890295
 72
     1
 11
-194.515335
 21
553.452639
 31
0.0
 73
     2
  0
TEXT
  8
0
  6
CONTINUOUS
 62
     3
 10
-31.314286
 20
21.805062
 30
0.0
 40
5.08
  1
A
 41
1.000001
 72
     1
 11
-29.5
 21
24.345062
 31
0.0
 73
     2
  0
TEXT
  8
0
  6
CONTINUOUS
 62
     3
 10
-105.754303
 20
24.46
 30
0.0
 40
5.08
  1
SHT 01 OF 01
 41
1.000001
 72
     1
 11
-76.0
 21
27.0
 31
0.0
 73
     2
  0
TEXT
  8
0
  6
CONTINUOUS
 62
     3
 10
-88.985474
 20
36.712014
 30
0.0
 40
5.08
  1
406-VR-1
 41
1.000001
 11
-88.985474
 21
39.252014
 31
0.0
 73
     2
  0
TEXT
  8
0
  6
CONTINUOUS
 62
     7
 10
-130.705597
 20
60.04103
 30
0.0
 40
5.08
  1
DOUBLER REINFORCEMENT
 41
1.000001
 11
-130.705597
 21
62.581029
 31
0.0
 73
     2
  0
TEXT
  8
0
  6
CONTINUOUS
 62
     3
 10
-233.463261
 20
81.146033
 30
0.0
 40
6.2484
  1
:
 41
1.000001
 11
-233.463261
 21
84.270233
 31
0.0
 73
     2
  0
TEXT
  8
0
  6
CONTINUOUS
 62
     3
 10
-239.813358
 20
80.3758
 30
0.0
 40
6.2484
  1
2 1
 41
1.000001
 11
-239.813358
 21
83.5
 31
0.0
 73
     2
  0
LINE
  8
0
  6
CONTINUOUS
 62
     7
 10
-206.0
 20
66.0
 30
0.0
 11
-206.0
 21
92.0
 31
0.0
  0
LINE
  8
0
  6
CONTINUOUS
 62
     7
 10
-233.999169
 20
104.275918
 30
0.0
 11
-233.04966
 21
104.276019
 31
0.0
  0
ARC
  8
0
  6
CONTINUOUS
 62
     7
 10
-192.866983
 20
108.08291
 30
0.0
 40
1.137793
 50
30.862292
 51
156.093318
  0
LINE
  8
0
  6
CONTINUOUS
 62
     7
 10
-191.890248
 20
108.66665
 30
0.0
 11
-191.890248
 21
110.198925
 31
0.0
  0
ARC
  8
0
  6
CONTINUOUS
 62
     7
 10
-192.143386
 20
110.198925
 30
0.0
 40
0.253028
 50
0.0
 51
89.999982
  0
LINE
  8
0
  6
CONTINUOUS
 62
     7
 10
-192.464102
 20
110.451901
 30
0.0
 11
-192.143386
 21
110.451901
 31
0.0
  0
LINE
  8
0
  6
CONTINUOUS
 62
     7
 10
-192.464102
 20
110.451901
 30
0.0
 11
-192.464102
 21
110.66744
 31
0.0
  0
LINE
  8
0
  6
CONTINUOUS
 62
     7
 10
-192.464059
 20
110.667309
 30
0.0
 11
-191.170568
 21
110.796048
 31
0.0
  0
LINE
  8
0
  6
CONTINUOUS
 62
     7
 10
-191.170703
 20
105.76821
 30
0.0
 11
-191.170703
 21
110.796116
 31
0.0
  0
LINE
  8
0
  6
CONTINUOUS
 62
     7
 10
-191.890248
 20
105.76821
 30
0.0
 11
-191.170703
 21
105.76821
 31
0.0
  0
LINE
  8
0
  6
CONTINUOUS
 62
     7
 10
-191.890248
 20
105.76821
 30
0.0
 11
-191.890248
 21
106.20642
 31
0.0
  0
ARC
  8
0
  6
CONTINUOUS
 62
     7
 10
-192.852073
 20
106.920617
 30
0.0
 40
1.197994
 50
199.868383
 51
323.399239
  0
ARC
  8
0
  6
CONTINUOUS
 62
     7
 10
-191.415899
 20
107.439695
 30
0.0
 40
2.725102
 50
156.093318
 51
199.868383
  0
ARC
  8
0
  6
CONTINUOUS
 62
     7
 10
-192.590185
 20
108.117105
 30
0.0
 40
0.663122
 50
12.372864
 51
171.137384
  0
ARC
  8
0
  6
CONTINUOUS
 62
     7
 10
-195.541456
 20
107.469676
 30
0.0
 40
3.684553
 50
347.273756
 51
372.372843
  0
ARC
  8
0
  6
CONTINUOUS
 62
     7
 10
-192.596343
 20
106.804583
 30
0.0
 40
0.665252
 50
188.143626
 51
347.273756
  0
ARC
  8
0
  6
CONTINUOUS
 62
     7
 10
-188.203874
 20
107.433213
 30
0.0
 40
5.102588
 50
171.137384
 51
188.143626
  0
LINE
  8
0
  6
CONTINUOUS
 62
     7
 10
-198.417528
 20
109.006274
 30
0.0
 11
-197.106927
 21
109.182595
 31
0.0
  0
LINE
  8
0
  6
CONTINUOUS
 62
     7
 10
-197.107116
 20
108.29845
 30
0.0
 11
-197.107116
 21
109.182486
 31
0.0
  0
LINE
  8
0
  6
CONTINUOUS
 62
     7
 10
-197.10715
 20
108.29853
 30
0.0
 11
-196.757578
 21
108.794064
 31
0.0
  0
ARC
  8
0
  6
CONTINUOUS
 62
     7
 10
-195.966215
 20
108.235571
 30
0.0
 40
0.9684
 50
89.999982
 51
144.799191
  0
LINE
  8
0
  6
CONTINUOUS
 62
     7
 10
-195.966215
 20
109.20404
 30
0.0
 11
-195.838512
 21
109.20404
 31
0.0
  0
ARC
  8
0
  6
CONTINUOUS
 62
     7
 10
-195.838512
 20
108.396334
 30
0.0
 40
0.807611
 50
0.0
 51
89.999982
  0
LINE
  8
0
  6
CONTINUOUS
 62
     7
 10
-195.030806
 20
105.76821
 30
0.0
 11
-195.030806
 21
108.396334
 31
0.0
  0
LINE
  8
0
  6
CONTINUOUS
 62
     7
 10
-195.755861
 20
105.76821
 30
0.0
 11
-195.030806
 21
105.76821
 31
0.0
  0
LINE
  8
0
  6
CONTINUOUS
 62
     7
 10
-195.755861
 20
105.76821
 30
0.0
 11
-195.755861
 21
108.232816
 31
0.0
  0
ARC
  8
0
  6
CONTINUOUS
 62
     7
 10
-196.253061
 20
108.232816
 30
0.0
 40
0.497192
 50
0.0
 51
144.799191
  0
LINE
  8
0
  6
CONTINUOUS
 62
     7
 10
-196.993627
 20
108.045902
 30
0.0
 11
-196.659376
 21
108.519719
 31
0.0
  0
ARC
  8
0
  6
CONTINUOUS
 62
     7
 10
-196.486589
 20
107.687971
 30
0.0
 40
0.620467
 50
144.799191
 51
179.999964
  0
LINE
  8
0
  6
CONTINUOUS
 62
     7
 10
-197.107116
 20
105.76821
 30
0.0
 11
-197.107116
 21
107.687971
 31
0.0
  0
LINE
  8
0
  6
CONTINUOUS
 62
     7
 10
-197.845622
 20
105.76821
 30
0.0
 11
-197.107116
 21
105.76821
 31
0.0
  0
LINE
  8
0
  6
CONTINUOUS
 62
     7
 10
-197.845622
 20
105.76821
 30
0.0
 11
-197.845622
 21
108.539109
 31
0.0
  0
ARC
  8
0
  6
CONTINUOUS
 62
     7
 10
-198.115776
 20
108.539109
 30
0.0
 40
0.270112
 50
0.0
 51
89.999982
  0
LINE
  8
0
  6
CONTINUOUS
 62
     7
 10
-198.417694
 20
108.809263
 30
0.0
 11
-198.115776
 21
108.809263
 31
0.0
  0
LINE
  8
0
  6
CONTINUOUS
 62
     7
 10
-203.123425
 20
105.736933
 30
0.0
 11
-203.123425
 21
110.151442
 31
0.0
  0
ARC
  8
0
  6
CONTINUOUS
 62
     7
 10
-203.427773
 20
110.151442
 30
0.0
 40
0.304312
 50
359.999983
 51
449.999965
  0
LINE
  8
0
  6
CONTINUOUS
 62
     7
 10
-203.697603
 20
110.45579
 30
0.0
 11
-203.427773
 21
110.45579
 31
0.0
  0
LINE
  8
0
  6
CONTINUOUS
 62
     7
 10
-203.697603
 20
110.45579
 30
0.0
 11
-203.697603
 21
110.655286
 31
0.0
  0
LINE
  8
0
  6
CONTINUOUS
 62
     7
 10
-203.697607
 20
110.655284
 30
0.0
 11
-202.405584
 21
110.809364
 31
0.0
  0
LINE
  8
0
  6
CONTINUOUS
 62
     7
 10
-202.405662
 20
105.736933
 30
0.0
 11
-202.405662
 21
110.809405
 31
0.0
  0
LINE
  8
0
  6
CONTINUOUS
 62
     7
 10
-203.123425
 20
105.736933
 30
0.0
 11
-202.405662
 21
105.736933
 31
0.0
  0
LINE
  8
0
  6
CONTINUOUS
 62
     7
 10
-205.45309
 20
109.738317
 30
0.0
 11
-204.754035
 21
110.353988
 31
0.0
  0
LINE
  8
0
  6
CONTINUOUS
 62
     7
 10
-204.75407
 20
109.132086
 30
0.0
 11
-204.75407
 21
110.353855
 31
0.0
  0
LINE
  8
0
  6
CONTINUOUS
 62
     7
 10
-204.75407
 20
109.132086
 30
0.0
 11
-203.80991
 21
109.132086
 31
0.0
  0
LINE
  8
0
  6
CONTINUOUS
 62
     7
 10
-203.80991
 20
108.818176
 30
0.0
 11
-203.80991
 21
109.132086
 31
0.0
  0
LINE
  8
0
  6
CONTINUOUS
 62
     7
 10
-204.75407
 20
108.818176
 30
0.0
 11
-203.80991
 21
108.818176
 31
0.0
  0
LINE
  8
0
  6
CONTINUOUS
 62
     7
 10
-204.75407
 20
106.410777
 30
0.0
 11
-204.75407
 21
108.818176
 31
0.0
  0
ARC
  8
0
  6
CONTINUOUS
 62
     7
 10
-204.402563
 20
106.410777
 30
0.0
 40
0.351585
 50
179.999964
 51
271.477289
  0
LINE
  8
0
  6
CONTINUOUS
 62
     7
 10
-204.393324
 20
106.059328
 30
0.0
 11
-203.872151
 21
106.072769
 31
0.0
  0
LINE
  8
0
  6
CONTINUOUS
 62
     7
 10
-203.872303
 20
105.801594
 30
0.0
 11
-203.872303
 21
106.072883
 31
0.0
  0
LINE
  8
0
  6
CONTINUOUS
 62
     7
 10
-204.094358
 20
105.701038
 30
0.0
 11
-203.872174
 21
105.801643
 31
0.0
  0
LINE
  8
0
  6
CONTINUOUS
 62
     7
 10
-204.763627
 20
105.683563
 30
0.0
 11
-204.094381
 21
105.700822
 31
0.0
  0
ARC
  8
0
  6
CONTINUOUS
 62
     7
 10
-204.780972
 20
106.355515
 30
0.0
 40
0.672111
 50
179.999964
 51
271.477289
  0
LINE
  8
0
  6
CONTINUOUS
 62
     7
 10
-205.453197
 20
106.355515
 30
0.0
 11
-205.453197
 21
108.818176
 31
0.0
  0
LINE
  8
0
  6
CONTINUOUS
 62
     7
 10
-206.058328
 20
108.818176
 30
0.0
 11
-205.453197
 21
108.818176
 31
0.0
  0
LINE
  8
0
  6
CONTINUOUS
 62
     7
 10
-206.058328
 20
108.818176
 30
0.0
 11
-206.058328
 21
109.132086
 31
0.0
  0
LINE
  8
0
  6
CONTINUOUS
 62
     7
 10
-206.058328
 20
109.132086
 30
0.0
 11
-205.453197
 21
109.132086
 31
0.0
  0
LINE
  8
0
  6
CONTINUOUS
 62
     7
 10
-205.453197
 20
109.132086
 30
0.0
 11
-205.453197
 21
109.738189
 31
0.0
  0
LINE
  8
0
  6
CONTINUOUS
 62
     7
 10
-211.368218
 20
108.119536
 30
0.0
 11
-211.368218
 21
108.390176
 31
0.0
  0
ARC
  8
0
  6
CONTINUOUS
 62
     7
 10
-210.806843
 20
108.390176
 30
0.0
 40
0.561348
 50
89.999982
 51
179.999964
  0
LINE
  8
0
  6
CONTINUOUS
 62
     7
 10
-210.806843
 20
108.951551
 30
0.0
 11
-210.609454
 21
108.951551
 31
0.0
  0
ARC
  8
0
  6
CONTINUOUS
 62
     7
 10
-210.609454
 20
108.355333
 30
0.0
 40
0.596153
 50
0.0
 51
89.999982
  0
LINE
  8
0
  6
CONTINUOUS
 62
     7
 10
-210.013236
 20
108.119536
 30
0.0
 11
-210.013236
 21
108.355333
 31
0.0
  0
LINE
  8
0
  6
CONTINUOUS
 62
     7
 10
-211.368218
 20
108.119536
 30
0.0
 11
-210.013236
 21
108.119536
 31
0.0
  0
LINE
  8
0
  6
CONTINUOUS
 62
     7
 10
-210.871829
 20
109.19691
 30
0.0
 11
-210.468948
 21
109.19691
 31
0.0
  0
ARC
  8
0
  6
CONTINUOUS
 62
     7
 10
-210.468948
 20
108.063625
 30
0.0
 40
1.133317
 50
0.0
 51
89.999982
  0
LINE
  8
0
  6
CONTINUOUS
 62
     7
 10
-209.335664
 20
107.837714
 30
0.0
 11
-209.335664
 21
108.063625
 31
0.0
  0
LINE
  8
0
  6
CONTINUOUS
 62
     7
 10
-211.368218
 20
107.837714
 30
0.0
 11
-209.335664
 21
107.837714
 31
0.0
  0
LINE
  8
0
  6
CONTINUOUS
 62
     7
 10
-211.368218
 20
107.357531
 30
0.0
 11
-211.368218
 21
107.837714
 31
0.0
  0
ARC
  8
0
  6
CONTINUOUS
 62
     7
 10
-210.122302
 20
107.357531
 30
0.0
 40
1.24597
 50
179.999964
 51
269.999946
  0
LINE
  8
0
  6
CONTINUOUS
 62
     7
 10
-210.122302
 20
106.111453
 30
0.0
 11
-209.978717
 21
106.111453
 31
0.0
  0
ARC
  8
0
  6
CONTINUOUS
 62
     7
 10
-209.978717
 20
107.554433
 30
0.0
 40
1.442915
 50
269.999946
 51
293.89621
  0
LINE
  8
0
  6
CONTINUOUS
 62
     7
 10
-209.394167
 20
105.89332
 30
0.0
 11
-209.394167
 21
106.235267
 31
0.0
  0
ARC
  8
0
  6
CONTINUOUS
 62
     7
 10
-210.293761
 20
107.915989
 30
0.0
 40
2.213678
 50
269.999946
 51
293.977079
  0
LINE
  8
0
  6
CONTINUOUS
 62
     7
 10
-210.565211
 20
105.702252
 30
0.0
 11
-210.293761
 21
105.702252
 31
0.0
  0
ARC
  8
0
  6
CONTINUOUS
 62
     7
 10
-210.565211
 20
107.297406
 30
0.0
 40
1.595032
 50
179.999964
 51
269.999946
  0
LINE
  8
0
  6
CONTINUOUS
 62
     7
 10
-212.160204
 20
107.297406
 30
0.0
 11
-212.160204
 21
107.908534
 31
0.0
  0
ARC
  8
0
  6
CONTINUOUS
 62
     7
 10
-210.871829
 20
107.908534
 30
0.0
 40
1.288359
 50
89.999982
 51
179.999964
  0
LINE
  8
0
  6
CONTINUOUS
 62
     7
 10
-218.350245
 20
109.969789
 30
0.0
 11
-217.42397
 21
105.767655
 31
0.0
  0
ARC
  8
0
  6
CONTINUOUS
 62
     7
 10
-218.894762
 20
109.849849
 30
0.0
 40
0.557567
 50
12.430896
 51
89.999982
  0
LINE
  8
0
  6
CONTINUOUS
 62
     7
 10
-219.144496
 20
110.407334
 30
0.0
 11
-218.894762
 21
110.407334
 31
0.0
  0
LINE
  8
0
  6
CONTINUOUS
 62
     7
 10
-219.144496
 20
110.407334
 30
0.0
 11
-219.144496
 21
110.652855
 31
0.0
  0
LINE
  8
0
  6
CONTINUOUS
 62
     7
 10
-219.144496
 20
110.652855
 30
0.0
 11
-217.804099
 21
110.652855
 31
0.0
  0
LINE
  8
0
  6
CONTINUOUS
 62
     7
 10
-217.80393
 20
110.65284
 30
0.0
 11
-216.86628
 21
106.709674
 31
0.0
  0
LINE
  8
0
  6
CONTINUOUS
 62
     7
 10
-216.866424
 20
106.709735
 30
0.0
 11
-215.68979
 21
110.652945
 31
0.0
  0
LINE
  8
0
  6
CONTINUOUS
 62
     7
 10
-215.689867
 20
110.652855
 30
0.0
 11
-215.251657
 21
110.652855
 31
0.0
  0
LINE
  8
0
  6
CONTINUOUS
 62
     7
 10
-215.251535
 20
110.653009
 30
0.0
 11
-213.924738
 21
106.606959
 31
0.0
  0
LINE
  8
0
  6
CONTINUOUS
 62
     7
 10
-213.92473
 20
106.606979
 30
0.0
 11
-213.109873
 21
110.65308
 31
0.0
  0
LINE
  8
0
  6
CONTINUOUS
 62
     7
 10
-213.109875
 20
110.652855
 30
0.0
 11
-212.665831
 21
110.652855
 31
0.0
  0
LINE
  8
0
  6
CONTINUOUS
 62
     7
 10
-213.649536
 20
105.767805
 30
0.0
 11
-212.665679
 21
110.653057
 31
0.0
  0
LINE
  8
0
  6
CONTINUOUS
 62
     7
 10
-214.358708
 20
105.767724
 30
0.0
 11
-213.649696
 21
105.767724
 31
0.0
  0
LINE
  8
0
  6
CONTINUOUS
 62
     7
 10
-215.613944
 20
109.596147
 30
0.0
 11
-214.358558
 21
105.76786
 31
0.0
  0
LINE
  8
0
  6
CONTINUOUS
 62
     7
 10
-216.756301
 20
105.76785
 30
0.0
 11
-215.613957
 21
109.596147
 31
0.0
  0
LINE
  8
0
  6
CONTINUOUS
 62
     7
 10
-217.424069
 20
105.767724
 30
0.0
 11
-216.756383
 21
105.767724
 31
0.0
  0
LINE
  8
0
  6
CONTINUOUS
 62
     7
 10
-199.66442
 20
106.787728
 30
0.0
 11
-199.66442
 21
107.372602
 31
0.0
  0
ARC
  8
0
  6
CONTINUOUS
 62
     7
 10
-200.340695
 20
106.787728
 30
0.0
 40
0.676326
 50
269.999946
 51
359.999983
  0
LINE
  8
0
  6
CONTINUOUS
 62
     7
 10
-200.415729
 20
106.111291
 30
0.0
 11
-200.340695
 21
106.111291
 31
0.0
  0
ARC
  8
0
  6
CONTINUOUS
 62
     7
 10
-200.415729
 20
106.460854
 30
0.0
 40
0.34945
 50
179.999964
 51
269.999946
  0
LINE
  8
0
  6
CONTINUOUS
 62
     7
 10
-200.76513
 20
106.460854
 30
0.0
 11
-200.76513
 21
106.678338
 31
0.0
  0
ARC
  8
0
  6
CONTINUOUS
 62
     7
 10
-200.070866
 20
106.678338
 30
0.0
 40
0.694304
 50
89.999982
 51
179.999964
  0
LINE
  8
0
  6
CONTINUOUS
 62
     7
 10
-200.070866
 20
107.372602
 30
0.0
 11
-199.66442
 21
107.372602
 31
0.0
  0
LINE
  8
0
  6
CONTINUOUS
 62
     7
 10
-219.901153
 20
106.787728
 30
0.0
 11
-219.901153
 21
107.372602
 31
0.0
  0
ARC
  8
0
  6
CONTINUOUS
 62
     7
 10
-220.577429
 20
106.787728
 30
0.0
 40
0.676326
 50
269.999946
 51
359.999983
  0
LINE
  8
0
  6
CONTINUOUS
 62
     7
 10
-220.686657
 20
106.111291
 30
0.0
 11
-220.577429
 21
106.111291
 31
0.0
  0
ARC
  8
0
  6
CONTINUOUS
 62
     7
 10
-220.686657
 20
106.460854
 30
0.0
 40
0.34945
 50
179.999964
 51
269.999946
  0
LINE
  8
0
  6
CONTINUOUS
 62
     7
 10
-221.036058
 20
106.460854
 30
0.0
 11
-221.036058
 21
106.678338
 31
0.0
  0
ARC
  8
0
  6
CONTINUOUS
 62
     7
 10
-220.341794
 20
106.678338
 30
0.0
 40
0.694304
 50
89.999982
 51
179.999964
  0
LINE
  8
0
  6
CONTINUOUS
 62
     7
 10
-220.341794
 20
107.372602
 30
0.0
 11
-219.901153
 21
107.372602
 31
0.0
  0
LINE
  8
0
  6
CONTINUOUS
 62
     7
 10
-223.815217
 20
109.738331
 30
0.0
 11
-223.116161
 21
110.354001
 31
0.0
  0
LINE
  8
0
  6
CONTINUOUS
 62
     7
 10
-223.116258
 20
109.132086
 30
0.0
 11
-223.116258
 21
110.353855
 31
0.0
  0
LINE
  8
0
  6
CONTINUOUS
 62
     7
 10
-223.116258
 20
109.132086
 30
0.0
 11
-222.172098
 21
109.132086
 31
0.0
  0
LINE
  8
0
  6
CONTINUOUS
 62
     7
 10
-222.172098
 20
108.818176
 30
0.0
 11
-222.172098
 21
109.132086
 31
0.0
  0
LINE
  8
0
  6
CONTINUOUS
 62
     7
 10
-223.116258
 20
108.818176
 30
0.0
 11
-222.172098
 21
108.818176
 31
0.0
  0
LINE
  8
0
  6
CONTINUOUS
 62
     7
 10
-223.116258
 20
106.410777
 30
0.0
 11
-223.116258
 21
108.818176
 31
0.0
  0
ARC
  8
0
  6
CONTINUOUS
 62
     7
 10
-222.764588
 20
106.410777
 30
0.0
 40
0.351585
 50
179.999964
 51
271.477289
  0
LINE
  8
0
  6
CONTINUOUS
 62
     7
 10
-222.755456
 20
106.059311
 30
0.0
 11
-222.234283
 21
106.072751
 31
0.0
  0
LINE
  8
0
  6
CONTINUOUS
 62
     7
 10
-222.234329
 20
105.801594
 30
0.0
 11
-222.234329
 21
106.072883
 31
0.0
  0
LINE
  8
0
  6
CONTINUOUS
 62
     7
 10
-222.456556
 20
105.701014
 30
0.0
 11
-222.234224
 21
105.801686
 31
0.0
  0
LINE
  8
0
  6
CONTINUOUS
 62
     7
 10
-223.12576
 20
105.683546
 30
0.0
 11
-222.456514
 21
105.700805
 31
0.0
  0
ARC
  8
0
  6
CONTINUOUS
 62
     7
 10
-223.14316
 20
106.355515
 30
0.0
 40
0.672111
 50
179.999964
 51
271.477289
  0
LINE
  8
0
  6
CONTINUOUS
 62
     7
 10
-223.815222
 20
106.355515
 30
0.0
 11
-223.815222
 21
108.818176
 31
0.0
  0
LINE
  8
0
  6
CONTINUOUS
 62
     7
 10
-224.420516
 20
108.818176
 30
0.0
 11
-223.815222
 21
108.818176
 31
0.0
  0
LINE
  8
0
  6
CONTINUOUS
 62
     7
 10
-224.420516
 20
108.818176
 30
0.0
 11
-224.420516
 21
109.132086
 31
0.0
  0
LINE
  8
0
  6
CONTINUOUS
 62
     7
 10
-224.420516
 20
109.132086
 30
0.0
 11
-223.815222
 21
109.132086
 31
0.0
  0
LINE
  8
0
  6
CONTINUOUS
 62
     7
 10
-223.815222
 20
109.132086
 30
0.0
 11
-223.815222
 21
109.738189
 31
0.0
  0
LINE
  8
0
  6
CONTINUOUS
 62
     7
 10
-231.296469
 20
109.004611
 30
0.0
 11
-229.989638
 21
109.249286
 31
0.0
  0
LINE
  8
0
  6
CONTINUOUS
 62
     7
 10
-229.989702
 20
106.684496
 30
0.0
 11
-229.989702
 21
109.249255
 31
0.0
  0
ARC
  8
0
  6
CONTINUOUS
 62
     7
 10
-229.511301
 20
106.684496
 30
0.0
 40
0.478492
 50
179.999964
 51
277.851877
  0
ARC
  8
0
  6
CONTINUOUS
 62
     7
 10
-229.570453
 20
107.113955
 30
0.0
 40
0.911979
 50
277.851877
 51
359.999983
  0
LINE
  8
0
  6
CONTINUOUS
 62
     7
 10
-228.658542
 20
107.113955
 30
0.0
 11
-228.658542
 21
108.499566
 31
0.0
  0
ARC
  8
0
  6
CONTINUOUS
 62
     7
 10
-228.977314
 20
108.499566
 30
0.0
 40
0.318798
 50
359.999983
 51
458.011121
  0
LINE
  8
0
  6
CONTINUOUS
 62
     7
 10
-229.214971
 20
108.788025
 30
0.0
 11
-229.021596
 21
108.81524
 31
0.0
  0
LINE
  8
0
  6
CONTINUOUS
 62
     7
 10
-229.215056
 20
108.788033
 30
0.0
 11
-229.215056
 21
108.990121
 31
0.0
  0
LINE
  8
0
  6
CONTINUOUS
 62
     7
 10
-229.21483
 20
108.990077
 30
0.0
 11
-227.89414
 21
109.237347
 31
0.0
  0
LINE
  8
0
  6
CONTINUOUS
 62
     7
 10
-227.894268
 20
105.759297
 30
0.0
 11
-227.894268
 21
109.237262
 31
0.0
  0
LINE
  8
0
  6
CONTINUOUS
 62
     7
 10
-228.658542
 20
105.759297
 30
0.0
 11
-227.894268
 21
105.759297
 31
0.0
  0
LINE
  8
0
  6
CONTINUOUS
 62
     7
 10
-228.658542
 20
105.759297
 30
0.0
 11
-228.658542
 21
106.348222
 31
0.0
  0
ARC
  8
0
  6
CONTINUOUS
 62
     7
 10
-229.71339
 20
106.738786
 30
0.0
 40
1.054838
 50
269.999946
 51
339.023488
  0
LINE
  8
0
  6
CONTINUOUS
 62
     7
 10
-229.812733
 20
105.683939
 30
0.0
 11
-229.71339
 21
105.683939
 31
0.0
  0
ARC
  8
0
  6
CONTINUOUS
 62
     7
 10
-229.812733
 20
106.635716
 30
0.0
 40
0.951907
 50
179.999964
 51
269.999946
  0
LINE
  8
0
  6
CONTINUOUS
 62
     7
 10
-230.764672
 20
106.635716
 30
0.0
 11
-230.764672
 21
108.489032
 31
0.0
  0
ARC
  8
0
  6
CONTINUOUS
 62
     7
 10
-231.081175
 20
108.489032
 30
0.0
 40
0.316518
 50
0.0
 51
100.604588
  0
LINE
  8
0
  6
CONTINUOUS
 62
     7
 10
-231.296362
 20
108.770673
 30
0.0
 11
-231.1393
 21
108.800079
 31
0.0
  0
LINE
  8
0
  6
CONTINUOUS
 62
     7
 10
-231.296552
 20
108.770692
 30
0.0
 11
-231.296552
 21
109.004545
 31
0.0
  0
LINE
  8
0
  6
CONTINUOUS
 62
     7
 10
-232.728027
 20
108.689176
 30
0.0
 11
-232.728027
 21
109.144564
 31
0.0
  0
LINE
  8
0
  6
CONTINUOUS
 62
     7
 10
-232.728027
 20
109.144564
 30
0.0
 11
-231.436896
 21
109.144564
 31
0.0
  0
LINE
  8
0
  6
CONTINUOUS
 62
     7
 10
-231.436896
 20
108.953982
 30
0.0
 11
-231.436896
 21
109.144564
 31
0.0
  0
LINE
  8
0
  6
CONTINUOUS
 62
     7
 10
-231.53867
 20
108.953982
 30
0.0
 11
-231.436896
 21
108.953982
 31
0.0
  0
ARC
  8
0
  6
CONTINUOUS
 62
     7
 10
-231.53867
 20
108.484171
 30
0.0
 40
0.469847
 50
89.999982
 51
179.999964
  0
LINE
  8
0
  6
CONTINUOUS
 62
     7
 10
-232.008481
 20
105.317198
 30
0.0
 11
-232.008481
 21
108.484171
 31
0.0
  0
ARC
  8
0
  6
CONTINUOUS
 62
     7
 10
-233.049553
 20
105.317198
 30
0.0
 40
1.041087
 50
269.999946
 51
359.999983
  0
ARC
  8
0
  6
CONTINUOUS
 62
     7
 10
-233.999062
 20
105.221582
 30
0.0
 40
0.945571
 50
176.089435
 51
269.999946
  0
LINE
  8
0
  6
CONTINUOUS
 62
     7
 10
-234.942412
 20
105.286082
 30
0.0
 11
-234.090139
 21
105.286082
 31
0.0
  0
ARC
  8
0
  6
CONTINUOUS
 62
     7
 10
-233.410947
 20
105.213803
 30
0.0
 40
0.683006
 50
173.922899
 51
359.999983
  0
LINE
  8
0
  6
CONTINUOUS
 62
     7
 10
-232.728027
 20
105.213803
 30
0.0
 11
-232.728027
 21
106.228946
 31
0.0
  0
ARC
  8
0
  6
CONTINUOUS
 62
     7
 10
-233.68969
 20
106.943306
 30
0.0
 40
1.197994
 50
199.868383
 51
323.399239
  0
ARC
  8
0
  6
CONTINUOUS
 62
     7
 10
-232.253515
 20
107.462221
 30
0.0
 40
2.725102
 50
156.093318
 51
199.868383
  0
ARC
  8
0
  6
CONTINUOUS
 62
     7
 10
-233.704599
 20
108.105437
 30
0.0
 40
1.137793
 50
30.862292
 51
156.093318
  0
ARC
  8
0
  6
CONTINUOUS
 62
     7
 10
-229.04149
 20
107.455739
 30
0.0
 40
5.102588
 50
171.137384
 51
188.143626
  0
ARC
  8
0
  6
CONTINUOUS
 62
     7
 10
-233.427963
 20
108.139793
 30
0.0
 40
0.663122
 50
12.372864
 51
171.137384
  0
ARC
  8
0
  6
CONTINUOUS
 62
     7
 10
-236.379234
 20
107.492364
 30
0.0
 40
3.684553
 50
347.273756
 51
372.372843
  0
ARC
  8
0
  6
CONTINUOUS
 62
     7
 10
-233.434121
 20
106.827271
 30
0.0
 40
0.665252
 50
188.143626
 51
347.273756
  0
LINE
  8
0
  6
CONTINUOUS
 62
     7
 10
-238.269214
 20
107.671296
 30
0.0
 11
-237.549257
 21
109.634849
 31
0.0
  0
LINE
  8
0
  6
CONTINUOUS
 62
     7
 10
-237.549131
 20
109.634848
 30
0.0
 11
-236.805095
 21
107.671322
 31
0.0
  0
LINE
  8
0
  6
CONTINUOUS
 62
     7
 10
-238.269176
 20
107.671116
 30
0.0
 11
-236.805127
 21
107.671116
 31
0.0
  0
LINE
  8
0
  6
CONTINUOUS
 62
     7
 10
-238.460569
 20
110.638918
 30
0.0
 11
-237.107045
 21
110.638918
 31
0.0
  0
LINE
  8
0
  6
CONTINUOUS
 62
     7
 10
-237.107059
 20
110.63904
 30
0.0
 11
-235.304413
 21
105.756512
 31
0.0
  0
LINE
  8
0
  6
CONTINUOUS
 62
     7
 10
-236.079586
 20
105.75638
 30
0.0
 11
-235.304454
 21
105.75638
 31
0.0
  0
LINE
  8
0
  6
CONTINUOUS
 62
     7
 10
-236.659369
 20
107.286748
 30
0.0
 11
-236.079535
 21
105.756554
 31
0.0
  0
LINE
  8
0
  6
CONTINUOUS
 62
     7
 10
-238.410168
 20
107.286548
 30
0.0
 11
-236.659436
 21
107.286548
 31
0.0
  0
LINE
  8
0
  6
CONTINUOUS
 62
     7
 10
-238.971319
 20
105.756432
 30
0.0
 11
-238.410249
 21
107.286649
 31
0.0
  0
LINE
  8
0
  6
CONTINUOUS
 62
     7
 10
-239.463395
 20
105.75638
 30
0.0
 11
-238.971219
 21
105.75638
 31
0.0
  0
LINE
  8
0
  6
CONTINUOUS
 62
     7
 10
-239.463563
 20
105.756541
 30
0.0
 11
-237.873186
 21
110.094008
 31
0.0
  0
ARC
  8
0
  6
CONTINUOUS
 62
     7
 10
-238.084104
 20
110.171375
 30
0.0
 40
0.224779
 50
339.863984
 51
449.999965
  0
LINE
  8
0
  6
CONTINUOUS
 62
     7
 10
-238.460569
 20
110.396152
 30
0.0
 11
-238.084104
 21
110.396152
 31
0.0
  0
LINE
  8
0
  6
CONTINUOUS
 62
     7
 10
-238.460569
 20
110.396152
 30
0.0
 11
-238.460569
 21
110.638918
 31
0.0
  0
ARC
  8
0
  6
CONTINUOUS
 62
     7
 10
-249.098823
 20
115.382409
 30
0.0
 40
10.489339
 50
350.853594
 51
358.243094
  0
ARC
  8
0
  6
CONTINUOUS
 62
     7
 10
-270.065636
 20
60.431
 30
0.0
 40
61.808632
 50
59.550999
 51
61.402362
  0
ARC
  8
0
  6
CONTINUOUS
 62
     7
 10
-240.325391
 20
118.894241
 30
0.0
 40
4.197815
 50
267.880511
 51
294.053304
  0
ARC
  8
0
  6
CONTINUOUS
 62
     7
 10
-243.234365
 20
116.676615
 30
0.0
 40
4.550424
 50
10.180441
 51
32.148222
  0
ARC
  8
0
  6
CONTINUOUS
 62
     7
 10
-243.102934
 20
120.621151
 30
0.0
 40
5.362923
 50
301.671806
 51
324.157172
  0
ARC
  8
0
  6
CONTINUOUS
 62
     7
 10
-250.335501
 20
120.704287
 30
0.0
 40
11.071035
 50
335.180223
 51
351.65748
  0
LINE
  8
0
  6
CONTINUOUS
 62
     7
 10
-244.398099
 20
122.759041
 30
0.0
 11
-242.684188
 21
122.488229
 31
0.0
  0
ARC
  8
0
  6
CONTINUOUS
 62
     7
 10
-250.164528
 20
117.794827
 30
0.0
 40
8.830687
 50
352.574256
 51
392.105096
  0
ARC
  8
0
  6
CONTINUOUS
 62
     7
 10
-253.467631
 20
114.532081
 30
0.0
 40
12.245027
 50
9.977424
 51
42.210726
  0
ARC
  8
0
  6
CONTINUOUS
 62
     7
 10
-253.938091
 20
119.926238
 30
0.0
 40
14.148562
 50
304.065378
 51
333.639769
  0
ARC
  8
0
  6
CONTINUOUS
 62
     7
 10
-251.518052
 20
114.867869
 30
0.0
 40
10.330004
 50
315.240278
 51
353.196732
  0
LINE
  8
0
  6
CONTINUOUS
 62
     7
 10
-246.012881
 20
108.205755
 30
0.0
 11
-244.183026
 21
107.59427
 31
0.0
  0
LINE
  8
0
  6
CONTINUOUS
 62
     7
 10
-249.451632
 20
120.126088
 30
0.0
 11
-248.257879
 21
121.430765
 31
0.0
  0
ARC
  8
0
  6
CONTINUOUS
 62
     7
 10
-256.156852
 20
107.04281
 30
0.0
 40
16.41354
 50
33.851083
 51
61.233138
  0
ARC
  8
0
  6
CONTINUOUS
 62
     7
 10
-253.63909
 20
104.708339
 30
0.0
 40
15.976221
 50
45.922869
 51
74.804887
  0
LINE
  8
0
  6
CONTINUOUS
 62
     7
 10
-250.829297
 20
114.854418
 30
0.0
 11
-250.829297
 21
116.618111
 31
0.0
  0
ARC
  8
0
  6
CONTINUOUS
 62
     7
 10
-253.748643
 20
80.934322
 30
0.0
 40
35.802994
 50
72.470657
 51
85.322887
  0
ARC
  8
0
  6
CONTINUOUS
 62
     7
 10
-235.290354
 20
-299.403419
 30
0.0
 40
414.549338
 50
91.060738
 51
92.148158
  0
LINE
  8
0
  6
CONTINUOUS
 62
     7
 10
-250.142232
 20
112.202778
 30
0.0
 11
-249.260183
 21
110.565263
 31
0.0
  0
ARC
  8
0
  6
CONTINUOUS
 62
     7
 10
-249.60364
 20
127.568331
 30
0.0
 40
15.375091
 50
267.99198
 51
296.49343
  0
ARC
  8
0
  6
CONTINUOUS
 62
     7
 10
-251.387107
 20
123.005699
 30
0.0
 40
12.620965
 50
279.701601
 51
313.21652
  0
LINE
  8
0
  6
CONTINUOUS
 62
     7
 10
-201.494723
 20
108.233788
 30
0.0
 11
-200.620735
 21
108.233788
 31
0.0
  0
ARC
  8
0
  6
CONTINUOUS
 62
     7
 10
-200.532736
 20
108.234274
 30
0.0
 40
0.961928
 50
89.999982
 51
179.999964
  0
LINE
  8
0
  6
CONTINUOUS
 62
     7
 10
-200.532736
 20
109.196261
 30
0.0
 11
-199.916585
 21
109.196261
 31
0.0
  0
ARC
  8
0
  6
CONTINUOUS
 62
     7
 10
-199.916585
 20
108.222444
 30
0.0
 40
0.973809
 50
0.0
 51
89.999982
  0
LINE
  8
0
  6
CONTINUOUS
 62
     7
 10
-198.94293
 20
105.767724
 30
0.0
 11
-198.94293
 21
108.222444
 31
0.0
  0
LINE
  8
0
  6
CONTINUOUS
 62
     7
 10
-199.66442
 20
105.767724
 30
0.0
 11
-198.94293
 21
105.767724
 31
0.0
  0
LINE
  8
0
  6
CONTINUOUS
 62
     7
 10
-199.66442
 20
105.767724
 30
0.0
 11
-199.66442
 21
106.17498
 31
0.0
  0
LINE
  8
0
  6
CONTINUOUS
 62
     7
 10
-199.855635
 20
105.973743
 30
0.0
 11
-199.664335
 21
106.17514
 31
0.0
  0
ARC
  8
0
  6
CONTINUOUS
 62
     7
 10
-200.510048
 20
106.595039
 30
0.0
 40
0.902428
 50
269.999946
 51
316.472881
  0
LINE
  8
0
  6
CONTINUOUS
 62
     7
 10
-200.714243
 20
105.69269
 30
0.0
 11
-200.510048
 21
105.69269
 31
0.0
  0
ARC
  8
0
  6
CONTINUOUS
 62
     7
 10
-200.714243
 20
106.563275
 30
0.0
 40
0.870602
 50
125.87749
 51
269.999946
  0
ARC
  8
0
  6
CONTINUOUS
 62
     7
 10
-200.113974
 20
105.733367
 30
0.0
 40
1.894867
 50
89.999982
 51
125.87749
  0
LINE
  8
0
  6
CONTINUOUS
 62
     7
 10
-200.113974
 20
107.628171
 30
0.0
 11
-199.66442
 21
107.628171
 31
0.0
  0
LINE
  8
0
  6
CONTINUOUS
 62
     7
 10
-199.66442
 20
107.628171
 30
0.0
 11
-199.66442
 21
108.508479
 31
0.0
  0
ARC
  8
0
  6
CONTINUOUS
 62
     7
 10
-200.103602
 20
108.508479
 30
0.0
 40
0.439202
 50
0.0
 51
89.999982
  0
LINE
  8
0
  6
CONTINUOUS
 62
     7
 10
-200.212344
 20
108.947662
 30
0.0
 11
-200.103602
 21
108.947662
 31
0.0
  0
ARC
  8
0
  6
CONTINUOUS
 62
     7
 10
-200.212344
 20
108.539271
 30
0.0
 40
0.408376
 50
89.999982
 51
179.999964
  0
LINE
  8
0
  6
CONTINUOUS
 62
     7
 10
-200.620735
 20
108.233788
 30
0.0
 11
-200.620735
 21
108.539271
 31
0.0
  0
ARC
  8
0
  6
CONTINUOUS
 62
     7
 10
-220.803665
 20
108.234274
 30
0.0
 40
0.961928
 50
89.999982
 51
179.999964
  0
LINE
  8
0
  6
CONTINUOUS
 62
     7
 10
-220.803665
 20
109.196261
 30
0.0
 11
-220.187513
 21
109.196261
 31
0.0
  0
ARC
  8
0
  6
CONTINUOUS
 62
     7
 10
-220.187513
 20
108.222444
 30
0.0
 40
0.973809
 50
0.0
 51
89.999982
  0
LINE
  8
0
  6
CONTINUOUS
 62
     7
 10
-219.213858
 20
105.769345
 30
0.0
 11
-219.213858
 21
108.222444
 31
0.0
  0
LINE
  8
0
  6
CONTINUOUS
 62
     7
 10
-219.901153
 20
105.769345
 30
0.0
 11
-219.213858
 21
105.769345
 31
0.0
  0
LINE
  8
0
  6
CONTINUOUS
 62
     7
 10
-219.901153
 20
105.769345
 30
0.0
 11
-219.901153
 21
106.176601
 31
0.0
  0
LINE
  8
0
  6
CONTINUOUS
 62
     7
 10
-220.093765
 20
105.973738
 30
0.0
 11
-219.900902
 21
106.17678
 31
0.0
  0
ARC
  8
0
  6
CONTINUOUS
 62
     7
 10
-220.74824
 20
106.595039
 30
0.0
 40
0.902428
 50
269.999946
 51
316.472881
  0
LINE
  8
0
  6
CONTINUOUS
 62
     7
 10
-220.985172
 20
105.69269
 30
0.0
 11
-220.74824
 21
105.69269
 31
0.0
  0
ARC
  8
0
  6
CONTINUOUS
 62
     7
 10
-220.985172
 20
106.563275
 30
0.0
 40
0.870602
 50
125.87749
 51
269.999946
  0
ARC
  8
0
  6
CONTINUOUS
 62
     7
 10
-220.384902
 20
105.733367
 30
0.0
 40
1.894867
 50
89.999982
 51
125.87749
  0
LINE
  8
0
  6
CONTINUOUS
 62
     7
 10
-220.384902
 20
107.628171
 30
0.0
 11
-219.917684
 21
107.628171
 31
0.0
  0
LINE
  8
0
  6
CONTINUOUS
 62
     7
 10
-219.935382
 20
108.517253
 30
0.0
 11
-219.917652
 21
107.628208
 31
0.0
  0
ARC
  8
0
  6
CONTINUOUS
 62
     7
 10
-220.37453
 20
108.508479
 30
0.0
 40
0.439202
 50
1.142478
 51
89.999982
  0
LINE
  8
0
  6
CONTINUOUS
 62
     7
 10
-220.483272
 20
108.947662
 30
0.0
 11
-220.37453
 21
108.947662
 31
0.0
  0
ARC
  8
0
  6
CONTINUOUS
 62
     7
 10
-220.483272
 20
108.539271
 30
0.0
 40
0.408376
 50
89.999982
 51
179.999964
  0
LINE
  8
0
  6
CONTINUOUS
 62
     7
 10
-220.891663
 20
108.233788
 30
0.0
 11
-220.891663
 21
108.539271
 31
0.0
  0
LINE
  8
0
  6
CONTINUOUS
 62
     7
 10
-206.732659
 20
108.546888
 30
0.0
 11
-206.732659
 21
108.712351
 31
0.0
  0
ARC
  8
0
  6
CONTINUOUS
 62
     7
 10
-207.427247
 20
108.236543
 30
0.0
 40
0.628401
 50
58.375769
 51
89.999982
  0
LINE
  8
0
  6
CONTINUOUS
 62
     7
 10
-207.689946
 20
108.865011
 30
0.0
 11
-207.427247
 21
108.865011
 31
0.0
  0
ARC
  8
0
  6
CONTINUOUS
 62
     7
 10
-207.689946
 20
108.438146
 30
0.0
 40
0.426866
 50
89.999982
 51
240.327364
  0
LINE
  8
0
  6
CONTINUOUS
 62
     7
 10
-207.901334
 20
108.067419
 30
0.0
 11
-206.990865
 21
107.548673
 31
0.0
  0
ARC
  8
0
  6
CONTINUOUS
 62
     7
 10
-207.484454
 20
106.681741
 30
0.0
 40
0.997469
 50
269.999946
 51
420.327328
  0
LINE
  8
0
  6
CONTINUOUS
 62
     7
 10
-207.817649
 20
105.684263
 30
0.0
 11
-207.484454
 21
105.684263
 31
0.0
  0
ARC
  8
0
  6
CONTINUOUS
 62
     7
 10
-207.817649
 20
109.103563
 30
0.0
 40
3.419226
 50
261.79137
 51
269.999946
  0
LINE
  8
0
  6
CONTINUOUS
 62
     7
 10
-208.756854
 20
105.784422
 30
0.0
 11
-208.305811
 21
105.719357
 31
0.0
  0
LINE
  8
0
  6
CONTINUOUS
 62
     7
 10
-208.756786
 20
105.784416
 30
0.0
 11
-208.756786
 21
106.400568
 31
0.0
  0
LINE
  8
0
  6
CONTINUOUS
 62
     7
 10
-208.756851
 20
106.400755
 30
0.0
 11
-208.259238
 21
106.150135
 31
0.0
  0
ARC
  8
0
  6
CONTINUOUS
 62
     7
 10
-207.843255
 20
106.975718
 30
0.0
 40
0.924604
 50
243.26817
 51
269.999946
  0
LINE
  8
0
  6
CONTINUOUS
 62
     7
 10
-207.843255
 20
106.051005
 30
0.0
 11
-207.643435
 21
106.051005
 31
0.0
  0
ARC
  8
0
  6
CONTINUOUS
 62
     7
 10
-207.643435
 20
106.536374
 30
0.0
 40
0.485294
 50
269.999946
 51
420.327328
  0
LINE
  8
0
  6
CONTINUOUS
 62
     7
 10
-208.271624
 20
107.452865
 30
0.0
 11
-207.403399
 21
106.958187
 31
0.0
  0
ARC
  8
0
  6
CONTINUOUS
 62
     7
 10
-207.811329
 20
108.260528
 30
0.0
 40
0.929628
 50
179.999964
 51
240.327364
  0
LINE
  8
0
  6
CONTINUOUS
 62
     7
 10
-208.740904
 20
108.260528
 30
0.0
 11
-208.740904
 21
108.283703
 31
0.0
  0
ARC
  8
0
  6
CONTINUOUS
 62
     7
 10
-207.834179
 20
108.283703
 30
0.0
 40
0.906842
 50
89.999982
 51
179.999964
  0
LINE
  8
0
  6
CONTINUOUS
 62
     7
 10
-207.834179
 20
109.190427
 30
0.0
 11
-207.423358
 21
109.190427
 31
0.0
  0
ARC
  8
0
  6
CONTINUOUS
 62
     7
 10
-207.423358
 20
107.511812
 30
0.0
 40
1.678649
 50
74.689375
 51
89.999982
  0
LINE
  8
0
  6
CONTINUOUS
 62
     7
 10
-206.980108
 20
109.131011
 30
0.0
 11
-206.732672
 21
109.063271
 31
0.0
  0
LINE
  8
0
  6
CONTINUOUS
 62
     7
 10
-206.732659
 20
108.671188
 30
0.0
 11
-206.732659
 21
109.06321
 31
0.0
  0
LINE
  8
0
  6
CONTINUOUS
 62
     7
 10
-225.123531
 20
108.546888
 30
0.0
 11
-225.123531
 21
108.712351
 31
0.0
  0
LINE
  8
0
  6
CONTINUOUS
 62
     7
 10
-225.488614
 20
108.771763
 30
0.0
 11
-225.123484
 21
108.54692
 31
0.0
  0
ARC
  8
0
  6
CONTINUOUS
 62
     7
 10
-225.818119
 20
108.236543
 30
0.0
 40
0.628401
 50
58.375769
 51
89.999982
  0
LINE
  8
0
  6
CONTINUOUS
 62
     7
 10
-226.080656
 20
108.865011
 30
0.0
 11
-225.818119
 21
108.865011
 31
0.0
  0
ARC
  8
0
  6
CONTINUOUS
 62
     7
 10
-226.080656
 20
108.438146
 30
0.0
 40
0.426866
 50
89.999982
 51
240.327364
  0
LINE
  8
0
  6
CONTINUOUS
 62
     7
 10
-226.292111
 20
108.067282
 30
0.0
 11
-225.381639
 21
107.548534
 31
0.0
  0
ARC
  8
0
  6
CONTINUOUS
 62
     7
 10
-225.875327
 20
106.681741
 30
0.0
 40
0.997469
 50
269.999946
 51
420.327328
  0
LINE
  8
0
  6
CONTINUOUS
 62
     7
 10
-226.208522
 20
105.684263
 30
0.0
 11
-225.875327
 21
105.684263
 31
0.0
  0
ARC
  8
0
  6
CONTINUOUS
 62
     7
 10
-226.208522
 20
109.103563
 30
0.0
 40
3.419226
 50
261.79137
 51
269.999946
  0
LINE
  8
0
  6
CONTINUOUS
 62
     7
 10
-227.147677
 20
105.784363
 30
0.0
 11
-226.696633
 21
105.719298
 31
0.0
  0
LINE
  8
0
  6
CONTINUOUS
 62
     7
 10
-227.147658
 20
105.784416
 30
0.0
 11
-227.147658
 21
106.400568
 31
0.0
  0
LINE
  8
0
  6
CONTINUOUS
 62
     7
 10
-227.147694
 20
106.400725
 30
0.0
 11
-226.650081
 21
106.150105
 31
0.0
  0
ARC
  8
0
  6
CONTINUOUS
 62
     7
 10
-226.234127
 20
106.975718
 30
0.0
 40
0.924604
 50
243.26817
 51
269.999946
  0
LINE
  8
0
  6
CONTINUOUS
 62
     7
 10
-226.234127
 20
106.051005
 30
0.0
 11
-226.034307
 21
106.051005
 31
0.0
  0
ARC
  8
0
  6
CONTINUOUS
 62
     7
 10
-226.034307
 20
106.536374
 30
0.0
 40
0.485294
 50
269.999946
 51
420.327328
  0
LINE
  8
0
  6
CONTINUOUS
 62
     7
 10
-226.662463
 20
107.452948
 30
0.0
 11
-225.794092
 21
106.958188
 31
0.0
  0
ARC
  8
0
  6
CONTINUOUS
 62
     7
 10
-226.202201
 20
108.260528
 30
0.0
 40
0.929628
 50
179.999964
 51
240.327364
  0
LINE
  8
0
  6
CONTINUOUS
 62
     7
 10
-227.131776
 20
108.260528
 30
0.0
 11
-227.131776
 21
108.283703
 31
0.0
  0
ARC
  8
0
  6
CONTINUOUS
 62
     7
 10
-226.225052
 20
108.283703
 30
0.0
 40
0.906842
 50
89.999982
 51
179.999964
  0
LINE
  8
0
  6
CONTINUOUS
 62
     7
 10
-226.225052
 20
109.190427
 30
0.0
 11
-225.81423
 21
109.190427
 31
0.0
  0
ARC
  8
0
  6
CONTINUOUS
 62
     7
 10
-225.81423
 20
107.511812
 30
0.0
 40
1.678649
 50
74.689375
 51
89.999982
  0
LINE
  8
0
  6
CONTINUOUS
 62
     7
 10
-225.370919
 20
109.131012
 30
0.0
 11
-225.123483
 21
109.063272
 31
0.0
  0
LINE
  8
0
  6
CONTINUOUS
 62
     7
 10
-225.123531
 20
108.671188
 30
0.0
 11
-225.123531
 21
109.06321
 31
0.0
  0
TEXT
  8
0
  6
CONTINUOUS
 62
     7
 10
-275.714321
 20
100.0
 30
0.0
 40
2.0
  1
AGUSTA S.p.A - CASCINA COSTA DI SAMARATE (VA) - ITALY -
 41
1.000001
 72
     1
 11
-221.0
 21
101.0
 31
0.0
 73
     2
  0
TEXT
  8
0
  6
CONTINUOUS
 62
     7
 10
-235.714295
 20
95.0
 30
0.0
 40
2.0
  1
CAGE CODE A0126
 41
1.000001
 72
     1
 11
-221.0
 21
96.0
 31
0.0
 73
     2
  0
LINE
  8
0
  6
CONTINUOUS
 62
     7
 10
-195.966215
 20
109.20404
 30
0.0
 11
-195.838512
 21
109.20404
 31
0.0
  0
LINE
  8
0
  6
CONTINUOUS
 62
     7
 10
-211.368218
 20
108.119536
 30
0.0
 11
-211.368218
 21
108.390176
 31
0.0
  0
ARC
  8
0
  6
CONTINUOUS
 62
     7
 10
-210.806843
 20
108.390176
 30
0.0
 40
0.561348
 50
89.999982
 51
179.999964
  0
LINE
  8
0
  6
CONTINUOUS
 62
     7
 10
-210.806843
 20
108.951551
 30
0.0
 11
-210.609454
 21
108.951551
 31
0.0
  0
ARC
  8
0
  6
CONTINUOUS
 62
     7
 10
-210.609454
 20
108.355333
 30
0.0
 40
0.596153
 50
0.0
 51
89.999982
  0
LINE
  8
0
  6
CONTINUOUS
 62
     7
 10
-210.013236
 20
108.119536
 30
0.0
 11
-210.013236
 21
108.355333
 31
0.0
  0
LINE
  8
0
  6
CONTINUOUS
 62
     7
 10
-211.368218
 20
108.119536
 30
0.0
 11
-210.013236
 21
108.119536
 31
0.0
  0
LINE
  8
0
  6
CONTINUOUS
 62
     7
 10
-210.122302
 20
106.111453
 30
0.0
 11
-209.978717
 21
106.111453
 31
0.0
  0
LINE
  8
0
  6
CONTINUOUS
 62
     7
 10
-199.66442
 20
106.787728
 30
0.0
 11
-199.66442
 21
107.372602
 31
0.0
  0
ARC
  8
0
  6
CONTINUOUS
 62
     7
 10
-200.340695
 20
106.787728
 30
0.0
 40
0.676326
 50
269.999946
 51
359.999983
  0
LINE
  8
0
  6
CONTINUOUS
 62
     7
 10
-200.415729
 20
106.111291
 30
0.0
 11
-200.340695
 21
106.111291
 31
0.0
  0
ARC
  8
0
  6
CONTINUOUS
 62
     7
 10
-200.415729
 20
106.460854
 30
0.0
 40
0.34945
 50
179.999964
 51
269.999946
  0
LINE
  8
0
  6
CONTINUOUS
 62
     7
 10
-200.76513
 20
106.460854
 30
0.0
 11
-200.76513
 21
106.678338
 31
0.0
  0
ARC
  8
0
  6
CONTINUOUS
 62
     7
 10
-200.070866
 20
106.678338
 30
0.0
 40
0.694304
 50
89.999982
 51
179.999964
  0
LINE
  8
0
  6
CONTINUOUS
 62
     7
 10
-200.070866
 20
107.372602
 30
0.0
 11
-199.66442
 21
107.372602
 31
0.0
  0
LINE
  8
0
  6
CONTINUOUS
 62
     7
 10
-219.901153
 20
106.787728
 30
0.0
 11
-219.901153
 21
107.372602
 31
0.0
  0
ARC
  8
0
  6
CONTINUOUS
 62
     7
 10
-220.577429
 20
106.787728
 30
0.0
 40
0.676326
 50
269.999946
 51
359.999983
  0
LINE
  8
0
  6
CONTINUOUS
 62
     7
 10
-220.686657
 20
106.111291
 30
0.0
 11
-220.577429
 21
106.111291
 31
0.0
  0
ARC
  8
0
  6
CONTINUOUS
 62
     7
 10
-220.686657
 20
106.460854
 30
0.0
 40
0.34945
 50
179.999964
 51
269.999946
  0
LINE
  8
0
  6
CONTINUOUS
 62
     7
 10
-221.036058
 20
106.460854
 30
0.0
 11
-221.036058
 21
106.678338
 31
0.0
  0
ARC
  8
0
  6
CONTINUOUS
 62
     7
 10
-220.341794
 20
106.678338
 30
0.0
 40
0.694304
 50
89.999982
 51
179.999964
  0
LINE
  8
0
  6
CONTINUOUS
 62
     7
 10
-220.341794
 20
107.372602
 30
0.0
 11
-219.901153
 21
107.372602
 31
0.0
  0
LINE
  8
0
  6
CONTINUOUS
 62
     7
 10
-229.812733
 20
105.683939
 30
0.0
 11
-229.71339
 21
105.683939
 31
0.0
  0
LINE
  8
0
  6
CONTINUOUS
 62
     7
 10
-220.483272
 20
108.947662
 30
0.0
 11
-220.37453
 21
108.947662
 31
0.0
  0
LINE
  8
0
  6
CONTINUOUS
 62
     7
 10
-208.740904
 20
108.260528
 30
0.0
 11
-208.740904
 21
108.283703
 31
0.0
  0
LINE
  8
0
  6
CONTINUOUS
 62
     7
 10
-227.131776
 20
108.260528
 30
0.0
 11
-227.131776
 21
108.283703
 31
0.0
  0
LINE
  8
0
  6
CONTINUOUS
 62
     7
 10
-228.728459
 20
106.36117
 30
0.0
 11
-228.658542
 21
106.348222
 31
0.0
  0
LINE
  8
0
  6
CONTINUOUS
 62
     7
 10
-221.765593
 20
108.234275
 30
0.0
 11
-220.891663
 21
108.233788
 31
0.0
  0
LINE
  8
0
  6
CONTINUOUS
 62
     7
 10
-207.097747
 20
108.77163
 30
0.0
 11
-206.732659
 21
108.546888
 31
0.0
  0
LINE
  8
0
  6
CONTINUOUS
 62
     7
 10
-198.417694
 20
108.809263
 30
0.0
 11
-198.417528
 21
109.006274
 31
0.0
  0
LINE
  8
0
  6
CONTINUOUS
 62
     7
 10
-820.998779
 20
19.999741
 30
0.0
 11
-20.0
 21
19.999741
 31
0.0
  0
LINE
  8
0
  6
CONTINUOUS
 62
     7
 10
-20.0
 20
19.999741
 30
0.0
 11
-20.0
 21
573.998779
 31
0.0
  0
LINE
  8
0
  6
CONTINUOUS
 62
     7
 10
-820.998779
 20
573.998779
 30
0.0
 11
-20.0
 21
573.998779
 31
0.0
  0
LINE
  8
0
  6
CONTINUOUS
 62
     7
 10
-840.998779
 20
593.998535
 30
0.0
 11
0.0
 21
593.998535
 31
0.0
  0
LINE
  8
0
  6
CONTINUOUS
 62
     7
 10
-840.998779
 20
0.0
 30
0.0
 11
-840.998779
 21
593.998535
 31
0.0
  0
LINE
  8
0
  6
CONTINUOUS
 62
     7
 10
-840.998779
 20
0.0
 30
0.0
 11
0.0
 21
0.0
 31
0.0
  0
LINE
  8
0
  6
CONTINUOUS
 62
     7
 10
0.0
 20
0.0
 30
0.0
 11
0.0
 21
593.998535
 31
0.0
  0
LINE
  8
0
  6
CONTINUOUS
 62
     7
 10
-20.0
 20
254.571014
 30
0.0
 11
-12.999988
 21
254.571014
 31
0.0
  0
LINE
  8
0
  6
CONTINUOUS
 62
     7
 10
-756.898682
 20
573.999023
 30
0.0
 11
-756.898682
 21
580.999023
 31
0.0
  0
LINE
  8
0
  6
CONTINUOUS
 62
     7
 10
-672.798828
 20
573.999023
 30
0.0
 11
-672.798828
 21
580.999023
 31
0.0
  0
LINE
  8
0
  6
CONTINUOUS
 62
     7
 10
-588.698975
 20
573.999023
 30
0.0
 11
-588.698975
 21
580.999023
 31
0.0
  0
LINE
  8
0
  6
CONTINUOUS
 62
     7
 10
-504.599121
 20
573.999023
 30
0.0
 11
-504.599121
 21
580.999023
 31
0.0
  0
LINE
  8
0
  6
CONTINUOUS
 62
     7
 10
-336.399658
 20
573.999023
 30
0.0
 11
-336.399658
 21
580.999023
 31
0.0
  0
LINE
  8
0
  6
CONTINUOUS
 62
     7
 10
-252.299667
 20
573.999023
 30
0.0
 11
-252.299667
 21
580.999023
 31
0.0
  0
LINE
  8
0
  6
CONTINUOUS
 62
     7
 10
-168.20018
 20
573.999023
 30
0.0
 11
-168.20018
 21
580.999023
 31
0.0
  0
LINE
  8
0
  6
CONTINUOUS
 62
     7
 10
-84.100082
 20
573.999023
 30
0.0
 11
-84.100082
 21
580.999023
 31
0.0
  0
LINE
  8
0
  6
CONTINUOUS
 62
     7
 10
-20.0
 20
169.713837
 30
0.0
 11
-12.999988
 21
169.713837
 31
0.0
  0
LINE
  8
0
  6
CONTINUOUS
 62
     7
 10
-20.0
 20
84.856659
 30
0.0
 11
-12.999988
 21
84.856659
 31
0.0
  0
LINE
  8
0
  6
CONTINUOUS
 62
     7
 10
-20.0
 20
339.427979
 30
0.0
 11
-12.999988
 21
339.427979
 31
0.0
  0
LINE
  8
0
  6
CONTINUOUS
 62
     7
 10
-20.0
 20
424.28418
 30
0.0
 11
-12.999988
 21
424.28418
 31
0.0
  0
LINE
  8
0
  6
CONTINUOUS
 62
     7
 10
-20.0
 20
509.141357
 30
0.0
 11
-12.999988
 21
509.141357
 31
0.0
  0
LINE
  8
0
  6
CONTINUOUS
 62
     7
 10
-827.999023
 20
12.999748
 30
0.0
 11
-12.999988
 21
12.999748
 31
0.0
  0
LINE
  8
0
  6
CONTINUOUS
 62
     7
 10
-12.999988
 20
12.999748
 30
0.0
 11
-12.999988
 21
580.998535
 31
0.0
  0
LINE
  8
0
  6
CONTINUOUS
 62
     7
 10
-827.999023
 20
580.998535
 30
0.0
 11
-12.999988
 21
580.998535
 31
0.0
  0
LINE
  8
0
  6
CONTINUOUS
 62
     7
 10
-827.999023
 20
12.999748
 30
0.0
 11
-827.999023
 21
580.998535
 31
0.0
  0
LINE
  8
0
  6
CONTINUOUS
 62
     7
 10
-420.500977
 20
573.999023
 30
0.0
 11
-420.500977
 21
580.999023
 31
0.0
  0
LINE
  8
0
  6
CONTINUOUS
 62
     7
 10
-12.999988
 20
176.144501
 30
0.0
 11
0.0
 21
176.144501
 31
0.0
  0
LINE
  8
0
  6
CONTINUOUS
 62
     7
 10
-820.998779
 20
19.999741
 30
0.0
 11
-820.998779
 21
573.998779
 31
0.0
  0
LINE
  8
0
  6
CONTINUOUS
 62
     7
 10
-12.999988
 20
76.144501
 30
0.0
 11
0.0
 21
76.144501
 31
0.0
  0
LINE
  8
0
  6
CONTINUOUS
 62
     7
 10
-426.000973
 20
590.998537
 30
0.0
 11
-415.000973
 21
590.998533
 31
0.0
  0
LINE
  8
0
  6
CONTINUOUS
 62
     7
 10
-426.000977
 20
587.998537
 30
0.0
 11
-426.000977
 21
590.998537
 31
0.0
  0
LINE
  8
0
  6
CONTINUOUS
 62
     7
 10
-428.000974
 20
587.998538
 30
0.0
 11
-426.000974
 21
587.998537
 31
0.0
  0
LINE
  8
0
  6
CONTINUOUS
 62
     7
 10
-428.000976
 20
587.99852
 30
0.0
 11
-420.500987
 21
581.998525
 31
0.0
  0
LINE
  8
0
  6
CONTINUOUS
 62
     7
 10
-415.000977
 20
587.998533
 30
0.0
 11
-415.000977
 21
590.998533
 31
0.0
  0
LINE
  8
0
  6
CONTINUOUS
 62
     7
 10
-415.000974
 20
587.998533
 30
0.0
 11
-413.000974
 21
587.998533
 31
0.0
  0
LINE
  8
0
  6
CONTINUOUS
 62
     7
 10
-420.500982
 20
581.998527
 30
0.0
 11
-413.000997
 21
587.998511
 31
0.0
  0
LINE
  8
0
  6
CONTINUOUS
 62
     7
 10
-426.002194
 20
2.999747
 30
0.0
 11
-415.002194
 21
2.99975
 31
0.0
  0
LINE
  8
0
  6
CONTINUOUS
 62
     7
 10
-415.002197
 20
2.99975
 30
0.0
 11
-415.002197
 21
5.99975
 31
0.0
  0
LINE
  8
0
  6
CONTINUOUS
 62
     7
 10
-415.002195
 20
5.99975
 30
0.0
 11
-413.002195
 21
5.999751
 31
0.0
  0
LINE
  8
0
  6
CONTINUOUS
 62
     7
 10
-420.502186
 20
11.999758
 30
0.0
 11
-413.002194
 21
5.999768
 31
0.0
  0
LINE
  8
0
  6
CONTINUOUS
 62
     7
 10
-426.002197
 20
2.999747
 30
0.0
 11
-426.002197
 21
5.999747
 31
0.0
  0
LINE
  8
0
  6
CONTINUOUS
 62
     7
 10
-428.002195
 20
5.999746
 30
0.0
 11
-426.002195
 21
5.999747
 31
0.0
  0
LINE
  8
0
  6
CONTINUOUS
 62
     7
 10
-428.002173
 20
5.999768
 30
0.0
 11
-420.502191
 21
11.999757
 31
0.0
  0
LINE
  8
0
  6
CONTINUOUS
 62
     7
 10
-837.999023
 20
291.499518
 30
0.0
 11
-837.999023
 21
302.499518
 31
0.0
  0
LINE
  8
0
  6
CONTINUOUS
 62
     7
 10
-837.999027
 20
291.499518
 30
0.0
 11
-834.999027
 21
291.499516
 31
0.0
  0
LINE
  8
0
  6
CONTINUOUS
 62
     7
 10
-834.999023
 20
289.499516
 30
0.0
 11
-834.999023
 21
291.499516
 31
0.0
  0
LINE
  8
0
  6
CONTINUOUS
 62
     7
 10
-834.999011
 20
289.499515
 30
0.0
 11
-828.999014
 21
296.999502
 31
0.0
  0
LINE
  8
0
  6
CONTINUOUS
 62
     7
 10
-837.99902
 20
302.499518
 30
0.0
 11
-834.99902
 21
302.499516
 31
0.0
  0
LINE
  8
0
  6
CONTINUOUS
 62
     7
 10
-834.999023
 20
302.499516
 30
0.0
 11
-834.999023
 21
304.499516
 31
0.0
  0
LINE
  8
0
  6
CONTINUOUS
 62
     7
 10
-834.998997
 20
304.499494
 30
0.0
 11
-828.999015
 21
296.999507
 31
0.0
  0
LINE
  8
0
  6
CONTINUOUS
 62
     7
 10
-2.999988
 20
291.499512
 30
0.0
 11
-2.999988
 21
302.499512
 31
0.0
  0
LINE
  8
0
  6
CONTINUOUS
 62
     7
 10
-5.999988
 20
302.499512
 30
0.0
 11
-2.999988
 21
302.499512
 31
0.0
  0
LINE
  8
0
  6
CONTINUOUS
 62
     7
 10
-5.999988
 20
302.499512
 30
0.0
 11
-5.999988
 21
304.499512
 31
0.0
  0
LINE
  8
0
  6
CONTINUOUS
 62
     7
 10
-11.999998
 20
296.999522
 30
0.0
 11
-6.000005
 21
304.499513
 31
0.0
  0
LINE
  8
0
  6
CONTINUOUS
 62
     7
 10
-5.999988
 20
291.499512
 30
0.0
 11
-2.999988
 21
291.499512
 31
0.0
  0
LINE
  8
0
  6
CONTINUOUS
 62
     7
 10
-5.999988
 20
289.499512
 30
0.0
 11
-5.999988
 21
291.499512
 31
0.0
  0
LINE
  8
0
  6
CONTINUOUS
 62
     7
 10
-11.999996
 20
296.999517
 30
0.0
 11
-6.000009
 21
289.499534
 31
0.0
  0
TEXT
  8
0
  6
CONTINUOUS
 62
     7
 10
-113.478356
 20
7.818387
 30
0.0
 40
2.54
  1
AW139 SIZE A1 (594 x 841mm)
 41
1.000001
 11
-113.478356
 21
9.088387
 31
0.0
 73
     2
  0
TEXT
  8
0
  6
CONTINUOUS
 62
     7
 10
-18.33332
 20
44.274414
 30
0.0
 40
5.0
  1
A
 41
0.933333
 72
     1
 11
-16.499986
 21
46.774414
 31
0.0
 73
     2
  0
TEXT
  8
0
  6
CONTINUOUS
 62
     7
 10
-18.333327
 20
122.356659
 30
0.0
 40
5.0
  1
B
 41
0.933333
 72
     1
 11
-16.499994
 21
124.856659
 31
0.0
 73
     2
  0
TEXT
  8
0
  6
CONTINUOUS
 62
     7
 10
-18.333327
 20
209.642425
 30
0.0
 40
5.0
  1
C
 41
0.933333
 72
     1
 11
-16.499994
 21
212.142426
 31
0.0
 73
     2
  0
TEXT
  8
0
  6
CONTINUOUS
 62
     7
 10
-18.333327
 20
294.499496
 30
0.0
 40
5.0
  1
D
 41
0.933333
 72
     1
 11
-16.499994
 21
296.999496
 31
0.0
 73
     2
  0
TEXT
  8
0
  6
CONTINUOUS
 62
     7
 10
-18.333327
 20
379.356079
 30
0.0
 40
5.0
  1
E
 41
0.933333
 72
     1
 11
-16.499994
 21
381.856079
 31
0.0
 73
     2
  0
TEXT
  8
0
  6
CONTINUOUS
 62
     7
 10
-18.333327
 20
464.212768
 30
0.0
 40
5.0
  1
F
 41
0.933333
 72
     1
 11
-16.499994
 21
466.712769
 31
0.0
 73
     2
  0
TEXT
  8
0
  6
CONTINUOUS
 62
     7
 10
-18.333327
 20
546.061357
 30
0.0
 40
5.0
  1
G
 41
0.933333
 72
     1
 11
-16.499994
 21
548.561357
 31
0.0
 73
     2
  0
TEXT
  8
0
  6
CONTINUOUS
 62
     7
 10
-46.883321
 20
574.998657
 30
0.0
 40
5.0
  1
1
 41
0.933333
 72
     1
 11
-45.049988
 21
577.498657
 31
0.0
 73
     2
  0
TEXT
  8
0
  6
CONTINUOUS
 62
     7
 10
-127.983465
 20
574.999023
 30
0.0
 40
5.0
  1
2
 41
0.933333
 72
     1
 11
-126.150131
 21
577.499023
 31
0.0
 73
     2
  0
TEXT
  8
0
  6
CONTINUOUS
 62
     7
 10
-803.782015
 20
574.998901
 30
0.0
 40
5.0
  1
0
 41
0.933333
 72
     1
 11
-801.948682
 21
577.498901
 31
0.0
 73
     2
  0
TEXT
  8
0
  6
CONTINUOUS
 62
     7
 10
-212.083257
 20
574.999023
 30
0.0
 40
5.0
  1
3
 41
0.933333
 72
     1
 11
-210.249924
 21
577.499023
 31
0.0
 73
     2
  0
TEXT
  8
0
  6
CONTINUOUS
 62
     7
 10
-296.182996
 20
574.999023
 30
0.0
 40
5.0
  1
4
 41
0.933333
 72
     1
 11
-294.349663
 21
577.499023
 31
0.0
 73
     2
  0
TEXT
  8
0
  6
CONTINUOUS
 62
     7
 10
-380.283651
 20
574.999023
 30
0.0
 40
5.0
  1
5
 41
0.933333
 72
     1
 11
-378.450317
 21
577.499023
 31
0.0
 73
     2
  0
TEXT
  8
0
  6
CONTINUOUS
 62
     7
 10
-464.383382
 20
574.999023
 30
0.0
 40
5.0
  1
6
 41
0.933333
 72
     1
 11
-462.550049
 21
577.499023
 31
0.0
 73
     2
  0
TEXT
  8
0
  6
CONTINUOUS
 62
     7
 10
-548.482381
 20
574.999023
 30
0.0
 40
5.0
  1
7
 41
0.933333
 72
     1
 11
-546.649048
 21
577.499023
 31
0.0
 73
     2
  0
TEXT
  8
0
  6
CONTINUOUS
 62
     7
 10
-632.582235
 20
574.999023
 30
0.0
 40
5.0
  1
8
 41
0.933333
 72
     1
 11
-630.748901
 21
577.499023
 31
0.0
 73
     2
  0
TEXT
  8
0
  6
CONTINUOUS
 62
     7
 10
-716.682088
 20
574.999023
 30
0.0
 40
5.0
  1
9
 41
0.933333
 72
     1
 11
-714.848755
 21
577.499023
 31
0.0
 73
     2
  0
TEXT
  8
0
  6
CONTINUOUS
 62
     7
 10
-291.483386
 20
32.649998
 30
0.0
 40
3.500005
  1
COPY CONFORM TO ORIGINAL.
 41
0.933333
 72
     1
 11
-251.0
 21
34.4
 31
0.0
 73
     2
  0
TEXT
  8
0
  6
CONTINUOUS
 62
     7
 10
-291.483386
 20
27.749998
 30
0.0
 40
3.500005
  1
SEE EO LAST REV. FOR DATE
 41
0.933333
 72
     1
 11
-251.0
 21
29.5
 31
0.0
 73
     2
  0
TEXT
  8
0
  6
CONTINUOUS
 62
     7
 10
-291.483386
 20
22.849998
 30
0.0
 40
3.500005
  1
AND OWN HAND SIGNATURES.
 41
0.933333
 72
     1
 11
-252.633335
 21
24.6
 31
0.0
 73
     2
  0
TEXT
  8
0
  6
CONTINUOUS
 62
     7
 10
-289.561121
 20
86.420976
 30
0.0
 40
3.301999
  1
SCALE VALID
 41
1.000001
 11
-289.561121
 21
88.071976
 31
0.0
 73
     2
  0
TEXT
  8
0
  6
CONTINUOUS
 62
     7
 10
-289.561121
 20
81.849
 30
0.0
 40
3.301999
  1
FOR MASTER
 41
1.000001
 11
-289.561121
 21
83.5
 31
0.0
 73
     2
  0
TEXT
  8
0
  6
CONTINUOUS
 62
     7
 10
-289.561121
 20
77.276994
 30
0.0
 40
3.301999
  1
DRG ONLY
 41
1.000001
 11
-289.561121
 21
78.927994
 31
0.0
 73
     2
  0
LINE
  8
0
  6
CONTINUOUS
 62
     7
 10
-154.102415
 20
47.05654
 30
0.0
 11
-150.286323
 21
53.666205
 31
0.0
  0
LINE
  8
0
  6
CONTINUOUS
 62
     7
 10
-155.585195
 20
49.624791
 30
0.0
 11
-152.647703
 21
49.624791
 31
0.0
  0
LINE
  8
0
  6
CONTINUOUS
 62
     7
 10
-155.585195
 20
49.624791
 30
0.0
 11
-154.102415
 21
47.05654
 31
0.0
  0
LINE
  8
0
  6
CONTINUOUS
 62
     7
 10
-128.178164
 20
30.710455
 30
0.0
 11
-119.140918
 21
29.945307
 31
0.0
  0
LINE
  8
0
  6
CONTINUOUS
 62
     7
 10
-128.179313
 20
36.831137
 30
0.0
 11
-119.141571
 21
37.596042
 31
0.0
  0
LINE
  8
0
  6
DASHDOT
 62
     7
 10
-129.003342
 20
33.769958
 30
0.0
 11
-118.322433
 21
33.769958
 31
0.0
  0
LINE
  8
0
  6
CONTINUOUS
 62
     7
 10
-119.144211
 20
29.945023
 30
0.0
 11
-119.144211
 21
37.595154
 31
0.0
  0
LINE
  8
0
  6
CONTINUOUS
 62
     7
 10
-128.181549
 20
30.710144
 30
0.0
 11
-128.181549
 21
36.830017
 31
0.0
  0
POLYLINE
  8
0
  6
CONTINUOUS
 62
     7
 66
     1
 10
0.0
 20
0.0
 30
0.0
 70
     1
  0
VERTEX
  8
0
  6
CONTINUOUS
 62
     7
 10
-132.289475
 20
33.769958
 30
0.0
  0
VERTEX
  8
0
  6
CONTINUOUS
 62
     7
 10
-132.539636
 20
34.940898
 30
0.0
  0
VERTEX
  8
0
  6
CONTINUOUS
 62
     7
 10
-133.252033
 20
35.933573
 30
0.0
  0
VERTEX
  8
0
  6
CONTINUOUS
 62
     7
 10
-134.31821
 20
36.596858
 30
0.0
  0
VERTEX
  8
0
  6
CONTINUOUS
 62
     7
 10
-135.575851
 20
36.829772
 30
0.0
  0
VERTEX
  8
0
  6
CONTINUOUS
 62
     7
 10
-136.833493
 20
36.596858
 30
0.0
  0
VERTEX
  8
0
  6
CONTINUOUS
 62
     7
 10
-137.89967
 20
35.933573
 30
0.0
  0
VERTEX
  8
0
  6
CONTINUOUS
 62
     7
 10
-138.612067
 20
34.940898
 30
0.0
  0
VERTEX
  8
0
  6
CONTINUOUS
 62
     7
 10
-138.862227
 20
33.769958
 30
0.0
  0
VERTEX
  8
0
  6
CONTINUOUS
 62
     7
 10
-138.612067
 20
32.599019
 30
0.0
  0
VERTEX
  8
0
  6
CONTINUOUS
 62
     7
 10
-137.89967
 20
31.606344
 30
0.0
  0
VERTEX
  8
0
  6
CONTINUOUS
 62
     7
 10
-136.833493
 20
30.943059
 30
0.0
  0
VERTEX
  8
0
  6
CONTINUOUS
 62
     7
 10
-135.575851
 20
30.710145
 30
0.0
  0
VERTEX
  8
0
  6
CONTINUOUS
 62
     7
 10
-134.31821
 20
30.943059
 30
0.0
  0
VERTEX
  8
0
  6
CONTINUOUS
 62
     7
 10
-133.252033
 20
31.606344
 30
0.0
  0
VERTEX
  8
0
  6
CONTINUOUS
 62
     7
 10
-132.539636
 20
32.599019
 30
0.0
  0
VERTEX
  8
0
  6
CONTINUOUS
 62
     7
 10
-132.289475
 20
33.769958
 30
0.0
  0
SEQEND
  8
0
  6
CONTINUOUS
 62
     7
  0
POLYLINE
  8
0
  6
CONTINUOUS
 62
     7
 66
     1
 10
0.0
 20
0.0
 30
0.0
 70
     1
  0
VERTEX
  8
0
  6
CONTINUOUS
 62
     7
 10
-131.467941
 20
33.769958
 30
0.0
  0
VERTEX
  8
0
  6
CONTINUOUS
 62
     7
 10
-131.780637
 20
35.233703
 30
0.0
  0
VERTEX
  8
0
  6
CONTINUOUS
 62
     7
 10
-132.67112
 20
36.474606
 30
0.0
  0
VERTEX
  8
0
  6
CONTINUOUS
 62
     7
 10
-134.003822
 20
37.303751
 30
0.0
  0
VERTEX
  8
0
  6
CONTINUOUS
 62
     7
 10
-135.575851
 20
37.594908
 30
0.0
  0
VERTEX
  8
0
  6
CONTINUOUS
 62
     7
 10
-137.147881
 20
37.303751
 30
0.0
  0
VERTEX
  8
0
  6
CONTINUOUS
 62
     7
 10
-138.480583
 20
36.474606
 30
0.0
  0
VERTEX
  8
0
  6
CONTINUOUS
 62
     7
 10
-139.371066
 20
35.233703
 30
0.0
  0
VERTEX
  8
0
  6
CONTINUOUS
 62
     7
 10
-139.683762
 20
33.769958
 30
0.0
  0
VERTEX
  8
0
  6
CONTINUOUS
 62
     7
 10
-139.371066
 20
32.306214
 30
0.0
  0
VERTEX
  8
0
  6
CONTINUOUS
 62
     7
 10
-138.480583
 20
31.065311
 30
0.0
  0
VERTEX
  8
0
  6
CONTINUOUS
 62
     7
 10
-137.147881
 20
30.236166
 30
0.0
  0
VERTEX
  8
0
  6
CONTINUOUS
 62
     7
 10
-135.575851
 20
29.945009
 30
0.0
  0
VERTEX
  8
0
  6
CONTINUOUS
 62
     7
 10
-134.003822
 20
30.236166
 30
0.0
  0
VERTEX
  8
0
  6
CONTINUOUS
 62
     7
 10
-132.67112
 20
31.065311
 30
0.0
  0
VERTEX
  8
0
  6
CONTINUOUS
 62
     7
 10
-131.780637
 20
32.306214
 30
0.0
  0
VERTEX
  8
0
  6
CONTINUOUS
 62
     7
 10
-131.467941
 20
33.769958
 30
0.0
  0
SEQEND
  8
0
  6
CONTINUOUS
 62
     7
  0
LINE
  8
0
  6
DASHDOT
 62
     7
 10
-135.575851
 20
29.179871
 30
0.0
 11
-135.575851
 21
38.359818
 31
0.0
  0
LINE
  8
0
  6
DASHDOT
 62
     7
 10
-140.50531
 20
33.769958
 30
0.0
 11
-130.646164
 21
33.769958
 31
0.0
  0
TEXT
  8
0
  6
CONTINUOUS
 62
     7
 10
-142.0
 20
73.73
 30
0.0
 40
2.54
  1
TITLE
 41
1.000001
 11
-142.0
 21
75.0
 31
0.0
 73
     2
  0
TEXT
  8
0
  6
CONTINUOUS
 62
     7
 10
-204.5
 20
39.881543
 30
0.0
 40
1.95
  1
 NTA025R INTERCHANGEABILITY
 41
1.000001
 11
-204.5
 21
40.856543
 31
0.0
 73
     2
  0
TEXT
  8
0
  6
CONTINUOUS
 62
     7
 10
-204.5
 20
35.881543
 30
0.0
 40
1.95
  1
 NTA029R GRADUATED TOLERANCES
 41
1.000001
 11
-204.5
 21
36.856543
 31
0.0
 73
     2
  0
TEXT
  8
0
  6
CONTINUOUS
 62
     7
 10
-197.714299
 20
81.717175
 30
0.0
 40
2.0
  1
DIMENSIONS AND GENERAL
 41
1.000001
 72
     1
 11
-176.0
 21
82.717176
 31
0.0
 73
     2
  0
TEXT
  8
0
  6
CONTINUOUS
 62
     7
 10
-196.714299
 20
78.717175
 30
0.0
 40
2.0
  1
TOLERANCES ARE IN mm.
 41
1.000001
 72
     1
 11
-176.0
 21
79.717175
 31
0.0
 73
     2
  0
TEXT
  8
0
  6
CONTINUOUS
 62
     7
 10
-192.714286
 20
76.067176
 30
0.0
 40
1.299999
  1
UNLESS OTHERWISE SPECIFIED
 41
1.000001
 72
     1
 11
-176.0
 21
76.717175
 31
0.0
 73
     2
  0
TEXT
  8
0
  6
CONTINUOUS
 62
     7
 10
-204.5
 20
59.881543
 30
0.0
 40
1.95
  1
 NTA010R GENERAL PROCEDURES
 41
1.000001
 11
-204.5
 21
60.856543
 31
0.0
 73
     2
  0
TEXT
  8
0
  6
CONTINUOUS
 62
     7
 10
-204.5
 20
23.881543
 30
0.0
 40
1.95
  1
 NTA856A CLASSIFIC. OF PARTS
 41
1.000001
 11
-204.5
 21
24.856543
 31
0.0
 73
     2
  0
TEXT
  8
0
  6
CONTINUOUS
 62
     7
 10
-204.5
 20
31.881543
 30
0.0
 40
1.95
  1
 NTA069R LOCKING OF FASTENERS
 41
1.000001
 11
-204.5
 21
32.856543
 31
0.0
 73
     2
  0
TEXT
  8
0
  6
CONTINUOUS
 62
     7
 10
-204.5
 20
27.881543
 30
0.0
 40
1.95
  1
 NTA455A FINISH CODES
 41
1.000001
 11
-204.5
 21
28.856543
 31
0.0
 73
     2
  0
TEXT
  8
0
  6
CONTINUOUS
 62
     7
 10
-204.5
 20
43.881543
 30
0.0
 40
1.95
  1
 NTA023R PART MARKING
 41
1.000001
 11
-204.5
 21
44.856543
 31
0.0
 73
     2
  0
TEXT
  8
0
  6
CONTINUOUS
 62
     7
 10
-204.5
 20
47.881543
 30
0.0
 40
1.95
  1
 NTA022R SURFACE FINISH
 41
1.000001
 11
-204.5
 21
48.856543
 31
0.0
 73
     2
  0
TEXT
  8
0
  6
CONTINUOUS
 62
     7
 10
-204.5
 20
51.881543
 30
0.0
 40
1.95
  1
 NTA018R RIVET SYMBOLS
 41
1.000001
 11
-204.5
 21
52.856543
 31
0.0
 73
     2
  0
TEXT
  8
0
  6
CONTINUOUS
 62
     7
 10
-204.5
 20
55.881543
 30
0.0
 40
1.95
  1
 NTA013R TOLERANCES GEOMETRIC
 41
1.000001
 11
-204.5
 21
56.856543
 31
0.0
 73
     2
  0
TEXT
  8
0
  6
CONTINUOUS
 62
     7
 10
-204.5
 20
66.55
 30
0.0
 40
1.95
  1
UNLESS OTHERWISE SPECIFIED
 41
1.000001
 11
-204.5
 21
68.5
 31
0.0
 73
     3
  0
TEXT
  8
0
  6
CONTINUOUS
 62
     7
 10
-204.5
 20
63.625
 30
0.0
 40
1.95
  1
THE FOLLOWING STDS APPLY:
 41
1.000001
 11
-204.5
 21
65.575
 31
0.0
 73
     3
  0
TEXT
  8
0
  6
CONTINUOUS
 62
     7
 10
-180.44838
 20
71.205551
 30
0.0
 40
2.0
  1
 0,7
 41
1.000001
 11
-180.44838
 21
72.205551
 31
0.0
 73
     2
  0
TEXT
  8
0
  6
CONTINUOUS
 62
     7
 10
-181.571413
 20
72.748444
 30
0.0
 40
1.5
  1
+
 41
1.000001
 11
-181.571413
 21
73.498444
 31
0.0
 73
     2
  0
TEXT
  8
0
  6
CONTINUOUS
 62
     7
 10
-181.571413
 20
70.664902
 30
0.0
 40
1.5
  1
-
 41
1.000001
 11
-181.571413
 21
71.414902
 31
0.0
 73
     2
  0
TEXT
  8
0
  6
CONTINUOUS
 62
     7
 10
-188.25
 20
71.498535
 30
0.0
 40
2.0
  1
X,
 41
1.000001
 11
-188.25
 21
72.498535
 31
0.0
 73
     2
  0
TEXT
  8
0
  6
CONTINUOUS
 62
     7
 10
-156.0
 20
71.498535
 30
0.0
 40
2.0
  1
0,25
 41
1.000001
 11
-156.0
 21
72.498535
 31
0.0
 73
     2
  0
TEXT
  8
0
  6
CONTINUOUS
 62
     7
 10
-158.821429
 20
72.748535
 30
0.0
 40
1.5
  1
+
 41
1.000001
 11
-158.821429
 21
73.498535
 31
0.0
 73
     2
  0
TEXT
  8
0
  6
CONTINUOUS
 62
     7
 10
-158.821429
 20
70.748535
 30
0.0
 40
1.5
  1
-
 41
1.000001
 11
-158.821429
 21
71.498535
 31
0.0
 73
     2
  0
TEXT
  8
0
  6
CONTINUOUS
 62
     7
 10
-167.25
 20
71.498535
 30
0.0
 40
2.0
  1
X,
 41
1.000001
 11
-167.25
 21
72.498535
 31
0.0
 73
     2
  0
TEXT
  8
0
  6
CONTINUOUS
 62
     7
 10
-198.821429
 20
70.748535
 30
0.0
 40
1.5
  1
-
 41
1.000001
 11
-198.821429
 21
71.498535
 31
0.0
 73
     2
  0
TEXT
  8
0
  6
CONTINUOUS
 62
     7
 10
-203.25
 20
71.498535
 30
0.0
 40
2.0
  1
X
 41
1.000001
 11
-203.25
 21
72.498535
 31
0.0
 73
     2
  0
TEXT
  8
0
  6
CONTINUOUS
 62
     7
 10
-198.821429
 20
72.748535
 30
0.0
 40
1.5
  1
+
 41
1.000001
 11
-198.821429
 21
73.498535
 31
0.0
 73
     2
  0
TEXT
  8
0
  6
CONTINUOUS
 62
     7
 10
-195.0
 20
71.498535
 30
0.0
 40
2.0
  1
2
 41
1.000001
 11
-195.0
 21
72.498535
 31
0.0
 73
     2
  0
TEXT
  8
0
  6
CONTINUOUS
 62
     7
 10
-184.571429
 20
72.06308
 30
0.0
 40
1.5
  1
X
 41
1.000001
 11
-184.571429
 21
72.81308
 31
0.0
 73
     2
  0
TEXT
  8
0
  6
CONTINUOUS
 62
     7
 10
-163.571429
 20
72.063171
 30
0.0
 40
1.5
  1
XX
 41
1.000001
 11
-163.571429
 21
72.813171
 31
0.0
 73
     2
  0
TEXT
  8
0
  6
CONTINUOUS
 62
     7
 10
-197.993995
 20
87.5
 30
0.0
 40
2.0
  1
FINISH SPEC. NTA893A
 41
1.000001
 11
-197.993995
 21
88.5
 31
0.0
 73
     2
  0
TEXT
  8
0
  6
CONTINUOUS
 62
     7
 10
-290.749999
 20
48.75
 30
0.0
 40
7.5
  1
- AW139 -
 41
1.2
 72
     1
 11
-251.0
 21
52.5
 31
0.0
 73
     2
  0
TEXT
  8
0
  6
CONTINUOUS
 62
     7
 10
-142.836662
 20
41.011921
 30
0.0
 40
2.54
  1
THIRD ANGLE
 41
1.000001
 11
-142.836662
 21
42.281921
 31
0.0
 73
     2
  0
TEXT
  8
0
  6
CONTINUOUS
 62
     7
 10
-141.476402
 20
23.514424
 30
0.0
 40
2.54
  1
PROJECTION
 41
1.000001
 11
-141.476402
 21
24.784424
 31
0.0
 73
     2
  0
TEXT
  8
0
  6
CONTINUOUS
 62
     7
 10
-276.428587
 20
68.5
 30
0.0
 40
4.0
  1
CATIA DRAWING
 41
1.000001
 72
     1
 11
-251.0
 21
70.5
 31
0.0
 73
     2
  0
TEXT
  8
0
  6
CONTINUOUS
 62
     7
 10
-114.80001
 20
115.8
 30
0.0
 40
2.799999
  1
FOR PART LIST AND NOTES
 41
1.000001
 72
     1
 11
-83.0
 21
117.2
 31
0.0
 73
     2
  0
TEXT
  8
0
  6
CONTINUOUS
 62
     7
 10
-84.0
 20
111.6
 30
0.0
 40
2.799999
  1
 
 41
1.000001
 72
     1
 11
-83.0
 21
113.0
 31
0.0
 73
     2
  0
TEXT
  8
0
  6
CONTINUOUS
 62
     7
 10
-98.000004
 20
107.400001
 30
0.0
 40
2.799999
  1
SEE  D.B.T.
 41
1.000001
 72
     1
 11
-83.0
 21
108.8
 31
0.0
 73
     2
  0
TEXT
  8
0
  6
CONTINUOUS
 62
     7
 10
-37.138191
 20
29.959919
 30
0.0
 40
2.54
  1
ISS.
 41
1.000001
 11
-37.138191
 21
31.229919
 31
0.0
 73
     2
  0
TEXT
  8
0
  6
CONTINUOUS
 62
     7
 10
-137.534186
 20
96.796127
 30
0.0
 40
2.0
  1
mm
 41
1.000001
 11
-137.534186
 21
97.796127
 31
0.0
 73
     2
  0
LINE
  8
0
  6
CONTINUOUS
 62
     7
 10
-108.92926
 20
97.323959
 30
0.0
 11
-108.92926
 21
99.0
 31
0.0
  0
TEXT
  8
0
  6
CONTINUOUS
 62
     7
 10
-32.143805
 20
94.462158
 30
0.0
 40
2.0
  1
100
 41
1.000001
 11
-32.143805
 21
95.462158
 31
0.0
 73
     2
  0
TEXT
  8
0
  6
CONTINUOUS
 62
     7
 10
-40.643821
 20
94.462158
 30
0.0
 40
2.0
  1
90
 41
1.000001
 11
-40.643821
 21
95.462158
 31
0.0
 73
     2
  0
TEXT
  8
0
  6
CONTINUOUS
 62
     7
 10
-50.643561
 20
94.462158
 30
0.0
 40
2.0
  1
80
 41
1.000001
 11
-50.643561
 21
95.462158
 31
0.0
 73
     2
  0
TEXT
  8
0
  6
CONTINUOUS
 62
     7
 10
-60.643561
 20
94.462158
 30
0.0
 40
2.0
  1
70
 41
1.000001
 11
-60.643561
 21
95.462158
 31
0.0
 73
     2
  0
TEXT
  8
0
  6
CONTINUOUS
 62
     7
 10
-70.64379
 20
94.462158
 30
0.0
 40
2.0
  1
60
 41
1.000001
 11
-70.64379
 21
95.462158
 31
0.0
 73
     2
  0
TEXT
  8
0
  6
CONTINUOUS
 62
     7
 10
-80.643546
 20
94.462158
 30
0.0
 40
2.0
  1
50
 41
1.000001
 11
-80.643546
 21
95.462158
 31
0.0
 73
     2
  0
TEXT
  8
0
  6
CONTINUOUS
 62
     7
 10
-90.643638
 20
94.462158
 30
0.0
 40
2.0
  1
40
 41
1.000001
 11
-90.643638
 21
95.462158
 31
0.0
 73
     2
  0
TEXT
  8
0
  6
CONTINUOUS
 62
     7
 10
-100.643638
 20
94.462158
 30
0.0
 40
2.0
  1
30
 41
1.000001
 11
-100.643638
 21
95.462158
 31
0.0
 73
     2
  0
TEXT
  8
0
  6
CONTINUOUS
 62
     7
 10
-110.643561
 20
94.462158
 30
0.0
 40
2.0
  1
20
 41
1.000001
 11
-110.643561
 21
95.462158
 31
0.0
 73
     2
  0
TEXT
  8
0
  6
CONTINUOUS
 62
     7
 10
-120.64379
 20
94.462158
 30
0.0
 40
2.0
  1
10
 41
1.000001
 11
-120.64379
 21
95.462158
 31
0.0
 73
     2
  0
TEXT
  8
0
  6
CONTINUOUS
 62
     7
 10
-129.643317
 20
94.462158
 30
0.0
 40
2.0
  1
0
 41
1.000001
 11
-129.643317
 21
95.462158
 31
0.0
 73
     2
  0
LINE
  8
0
  6
CONTINUOUS
 62
     7
 10
-28.929031
 20
97.323959
 30
0.0
 11
-28.929031
 21
99.0
 31
0.0
  0
LINE
  8
0
  6
CONTINUOUS
 62
     7
 10
-38.92952
 20
97.323959
 30
0.0
 11
-38.92952
 21
99.0
 31
0.0
  0
LINE
  8
0
  6
CONTINUOUS
 62
     7
 10
-48.92926
 20
97.323959
 30
0.0
 11
-48.92926
 21
99.0
 31
0.0
  0
LINE
  8
0
  6
CONTINUOUS
 62
     7
 10
-58.929535
 20
97.323959
 30
0.0
 11
-58.929535
 21
99.0
 31
0.0
  0
LINE
  8
0
  6
CONTINUOUS
 62
     7
 10
-68.92952
 20
97.323959
 30
0.0
 11
-68.92952
 21
99.0
 31
0.0
  0
LINE
  8
0
  6
CONTINUOUS
 62
     7
 10
-78.929031
 20
97.323959
 30
0.0
 11
-78.929031
 21
99.0
 31
0.0
  0
LINE
  8
0
  6
CONTINUOUS
 62
     7
 10
-88.929276
 20
97.323959
 30
0.0
 11
-88.929276
 21
99.0
 31
0.0
  0
LINE
  8
0
  6
CONTINUOUS
 62
     7
 10
-98.92926
 20
97.323959
 30
0.0
 11
-98.92926
 21
99.0
 31
0.0
  0
LINE
  8
0
  6
CONTINUOUS
 62
     7
 10
-118.929276
 20
97.323959
 30
0.0
 11
-118.929276
 21
99.0
 31
0.0
  0
LINE
  8
0
  6
CONTINUOUS
 62
     7
 10
-128.929031
 20
97.323959
 30
0.0
 11
-128.929031
 21
99.0
 31
0.0
  0
LINE
  8
0
  6
CONTINUOUS
 62
     7
 10
-128.929031
 20
99.0
 30
0.0
 11
-28.929031
 21
99.0
 31
0.0
  0
TEXT
  8
0
  6
CONTINUOUS
 62
     7
 10
-110.417565
 20
42.35883
 30
0.0
 40
2.54
  1
DRG.N°
 41
1.000001
 11
-110.417565
 21
43.62883
 31
0.0
 73
     2
  0
LINE
  8
0
  6
CONTINUOUS
 62
     7
 10
-296.0
 20
75.0
 30
0.0
 11
-206.0
 21
75.0
 31
0.0
  0
LINE
  8
0
  6
CONTINUOUS
 62
     7
 10
-296.0
 20
20.0
 30
0.0
 11
-296.0
 21
125.0
 31
0.0
  0
LINE
  8
0
  6
CONTINUOUS
 62
     7
 10
-146.0
 20
92.0
 30
0.0
 11
-146.0
 21
125.0
 31
0.0
  0
LINE
  8
0
  6
CONTINUOUS
 62
     7
 10
-113.0
 20
20.0
 30
0.0
 11
-113.0
 21
47.0
 31
0.0
  0
LINE
  8
0
  6
CONTINUOUS
 62
     7
 10
-113.0
 20
34.0
 30
0.0
 11
-20.0
 21
34.0
 31
0.0
  0
LINE
  8
0
  6
CONTINUOUS
 62
     7
 10
-146.0
 20
47.0
 30
0.0
 11
-20.0
 21
47.0
 31
0.0
  0
LINE
  8
0
  6
CONTINUOUS
 62
     7
 10
-146.0
 20
79.0
 30
0.0
 11
-20.0
 21
79.0
 31
0.0
  0
LINE
  8
0
  6
CONTINUOUS
 62
     7
 10
-296.0
 20
125.0
 30
0.0
 11
-20.0
 21
125.0
 31
0.0
  0
LINE
  8
0
  6
CONTINUOUS
 62
     7
 10
-296.0
 20
92.0
 30
0.0
 11
-20.0
 21
92.0
 31
0.0
  0
LINE
  8
0
  6
CONTINUOUS
 62
     7
 10
-146.0
 20
101.0
 30
0.0
 11
-20.0
 21
101.0
 31
0.0
  0
LINE
  8
0
  6
CONTINUOUS
 62
     7
 10
-206.0
 20
85.0
 30
0.0
 11
-146.0
 21
85.0
 31
0.0
  0
LINE
  8
0
  6
CONTINUOUS
 62
     7
 10
-206.0
 20
75.0
 30
0.0
 11
-146.0
 21
75.0
 31
0.0
  0
LINE
  8
0
  6
CONTINUOUS
 62
     7
 10
-206.0
 20
70.0
 30
0.0
 11
-146.0
 21
70.0
 31
0.0
  0
LINE
  8
0
  6
CONTINUOUS
 62
     7
 10
-296.0
 20
66.0
 30
0.0
 11
-206.0
 21
66.0
 31
0.0
  0
LINE
  8
0
  6
CONTINUOUS
 62
     7
 10
-296.0
 20
39.0
 30
0.0
 11
-206.0
 21
39.0
 31
0.0
  0
LINE
  8
0
  6
CONTINUOUS
 62
     7
 10
-206.0
 20
20.0
 30
0.0
 11
-206.0
 21
92.0
 31
0.0
  0
LINE
  8
0
  6
CONTINUOUS
 62
     7
 10
-146.0
 20
20.0
 30
0.0
 11
-146.0
 21
92.0
 31
0.0
  0
LINE
  8
0
  6
CONTINUOUS
 62
     7
 10
-39.0
 20
20.0
 30
0.0
 11
-39.0
 21
34.0
 31
0.0
  0
LINE
  8
0
  6
CONTINUOUS
 62
     7
 10
-191.0
 20
70.0
 30
0.0
 11
-191.0
 21
75.0
 31
0.0
  0
LINE
  8
0
  6
CONTINUOUS
 62
     7
 10
-170.0
 20
70.0
 30
0.0
 11
-170.0
 21
75.0
 31
0.0
  0
LINE
  8
0
  6
CONTINUOUS
 62
     7
 10
-230.374695
 20
529.498779
 30
0.0
 11
-20.0
 21
529.498779
 31
0.0
  0
LINE
  8
0
  6
CONTINUOUS
 62
     7
 10
-230.374695
 20
536.498779
 30
0.0
 11
-20.0
 21
536.498779
 31
0.0
  0
LINE
  8
0
  6
CONTINUOUS
 62
     7
 10
-230.374695
 20
543.498779
 30
0.0
 11
-20.0
 21
543.498779
 31
0.0
  0
LINE
  8
0
  6
CONTINUOUS
 62
     7
 10
-230.374695
 20
550.498779
 30
0.0
 11
-20.0
 21
550.498779
 31
0.0
  0
LINE
  8
0
  6
CONTINUOUS
 62
     7
 10
-230.374695
 20
557.498779
 30
0.0
 11
-20.0
 21
557.498779
 31
0.0
  0
LINE
  8
0
  6
CONTINUOUS
 62
     7
 10
-230.374695
 20
564.498779
 30
0.0
 11
-20.0
 21
564.498779
 31
0.0
  0
TEXT
  8
0
  6
CONTINUOUS
 62
     7
 10
-228.81439
 20
558.985559
 30
0.0
 40
4.1656
  1
ISS
 41
1.000001
 11
-228.81439
 21
561.068359
 31
0.0
 73
     2
  0
TEXT
  8
0
  6
CONTINUOUS
 62
     7
 10
-206.41704
 20
558.989954
 30
0.0
 40
4.1656
  1
EO NO.
 41
1.000001
 72
     1
 11
-194.51532
 21
561.072754
 31
0.0
 73
     2
  0
LINE
  8
0
  6
CONTINUOUS
 62
     7
 10
-172.999725
 20
529.498779
 30
0.0
 11
-172.999725
 21
564.573242
 31
0.0
  0
LINE
  8
0
  6
CONTINUOUS
 62
     7
 10
-216.030945
 20
529.498779
 30
0.0
 11
-216.030945
 21
564.573242
 31
0.0
  0
TEXT
  8
0
  6
CONTINUOUS
 62
     7
 10
-187.96167
 20
566.708779
 30
0.0
 40
5.08
  1
RECORD OF DRAWING CHANGES
 41
1.000001
 72
     1
 11
-125.187347
 21
569.248779
 31
0.0
 73
     2
  0
LINE
  8
0
  6
CONTINUOUS
 62
     7
 10
-230.374695
 20
529.498779
 30
0.0
 11
-230.374695
 21
573.998779
 31
0.0
  0
TEXT
  8
0
  6
CONTINUOUS
 62
     7
 10
-144.5
 20
88.425
 30
0.0
 40
1.4
  1
THIS DOCUMENT CONTAINS CONFIDENTIAL INFORMATION AND IS PROPRIETARY TO AGUSTA IT IS
 41
1.035715
 11
-144.5
 21
89.125
 31
0.0
 73
     2
  0
TEXT
  8
0
  6
CONTINUOUS
 62
     7
 10
-144.5
 20
84.8
 30
0.0
 40
1.4
  1
SUPPLIED ON THE EXPRESS CONDITION THAT IT MAY NOT BE DISCLOSED, REPRODUCED IN WHOLE OR
 41
1.0
 11
-144.5
 21
85.5
 31
0.0
 73
     2
  0
TEXT
  8
0
  6
CONTINUOUS
 62
     7
 10
-144.5
 20
81.175
 30
0.0
 40
1.4
  1
IN PART OR USED FOR MANUFACTURE FOR ANYONE OTHER THAN AGUSTA WITHOUT ITS WRITTEN CONSENT.
 41
0.978572
 11
-144.5
 21
81.875
 31
0.0
 73
     2
  0
CIRCLE
  8
0
  6
CONTINUOUS
 62
     7
 10
-461.26032
 20
376.149349
 30
0.0
 40
1.0
  0
LINE
  8
0
  6
CONTINUOUS
 62
     7
 10
-455.26032
 20
284.149349
 30
0.0
 11
-467.26032
 21
284.149349
 31
0.0
  0
LINE
  8
0
  6
CONTINUOUS
 62
     7
 10
-449.26032
 20
330.821846
 30
0.0
 11
-449.26032
 21
290.149349
 31
0.0
  0
LINE
  8
0
  6
CONTINUOUS
 62
     7
 10
-473.26032
 20
330.821846
 30
0.0
 11
-473.26032
 21
290.149349
 31
0.0
  0
CIRCLE
  8
0
  6
CONTINUOUS
 62
     7
 10
-331.26032
 20
396.149349
 30
0.0
 40
11.0
  0
ARC
  8
0
  6
CONTINUOUS
 62
     7
 10
-331.26032
 20
396.149349
 30
0.0
 40
18.0
 50
230.556477
 51
506.935847
  0
CIRCLE
  8
0
  6
CONTINUOUS
 62
     7
 10
-591.26032
 20
396.149349
 30
0.0
 40
11.0
  0
ARC
  8
0
  6
CONTINUOUS
 62
     7
 10
-591.26032
 20
396.149349
 30
0.0
 40
18.0
 50
33.064153
 51
309.443523
  0
LINE
  8
0
  6
CONTINUOUS
 62
     7
 10
-350.461422
 20
403.312984
 30
0.0
 11
-448.234755
 21
388.270933
 31
0.0
  0
LINE
  8
0
  6
CONTINUOUS
 62
     7
 10
-347.420279
 20
383.54555
 30
0.0
 11
-429.257862
 21
370.955153
 31
0.0
  0
LINE
  8
0
  6
CONTINUOUS
 62
     7
 10
-474.285885
 20
388.270933
 30
0.0
 11
-572.059218
 21
403.312984
 31
0.0
  0
LINE
  8
0
  6
CONTINUOUS
 62
     7
 10
-493.262778
 20
370.955153
 30
0.0
 11
-575.100362
 21
383.54555
 31
0.0
  0
CIRCLE
  8
0
  6
CONTINUOUS
 62
     7
 10
-353.26032
 20
232.149349
 30
0.0
 40
11.0
  0
CIRCLE
  8
0
  6
CONTINUOUS
 62
     7
 10
-569.26032
 20
232.149349
 30
0.0
 40
11.0
  0
ARC
  8
0
  6
CONTINUOUS
 62
     7
 10
-353.26032
 20
232.149349
 30
0.0
 40
18.0
 50
167.297777
 51
443.677148
  0
ARC
  8
0
  6
CONTINUOUS
 62
     7
 10
-569.26032
 20
232.149349
 30
0.0
 40
18.0
 50
96.322852
 51
372.702223
  0
LINE
  8
0
  6
CONTINUOUS
 62
     7
 10
-489.289666
 20
361.541774
 30
0.0
 11
-567.018003
 21
252.520211
 31
0.0
  0
LINE
  8
0
  6
CONTINUOUS
 62
     7
 10
-484.145776
 20
334.304995
 30
0.0
 11
-550.733151
 21
240.909715
 31
0.0
  0
LINE
  8
0
  6
CONTINUOUS
 62
     7
 10
-371.787489
 20
240.909715
 30
0.0
 11
-438.374865
 21
334.304995
 31
0.0
  0
LINE
  8
0
  6
CONTINUOUS
 62
     7
 10
-355.502638
 20
252.520211
 30
0.0
 11
-433.230974
 21
361.541774
 31
0.0
  0
ARC
  8
0
  6
CONTINUOUS
 62
     7
 10
-479.26032
 20
330.821846
 30
0.0
 40
6.0
 50
0.0
 51
144.512538
  0
ARC
  8
0
  6
CONTINUOUS
 62
     7
 10
-443.26032
 20
330.821846
 30
0.0
 40
6.0
 50
35.487462
 51
180.0
  0
ARC
  8
0
  6
CONTINUOUS
 62
     7
 10
-428.345519
 20
365.024923
 30
0.0
 40
6.0
 50
98.746162
 51
215.487462
  0
ARC
  8
0
  6
CONTINUOUS
 62
     7
 10
-494.175121
 20
365.024923
 30
0.0
 40
6.0
 50
324.512538
 51
441.253838
  0
LINE
  8
0
  6
CONTINUOUS
 62
     7
 10
-454.032553
 20
390.718015
 30
0.0
 11
-456.374865
 21
394.003334
 31
0.0
  0
LINE
  8
0
  6
CONTINUOUS
 62
     7
 10
-466.145776
 20
394.003334
 30
0.0
 11
-468.488087
 21
390.718015
 31
0.0
  0
ARC
  8
0
  6
CONTINUOUS
 62
     7
 10
-461.26032
 20
390.520186
 30
0.0
 40
6.0
 50
35.487462
 51
144.512538
  0
ARC
  8
0
  6
CONTINUOUS
 62
     7
 10
-449.147098
 20
394.201163
 30
0.0
 40
6.0
 50
215.487462
 51
278.746162
  0
ARC
  8
0
  6
CONTINUOUS
 62
     7
 10
-473.373542
 20
394.201163
 30
0.0
 40
6.0
 50
261.253838
 51
324.512538
  0
ARC
  8
0
  6
CONTINUOUS
 62
     7
 10
-467.26032
 20
290.149349
 30
0.0
 40
6.0
 50
180.0
 51
270.0
  0
ARC
  8
0
  6
CONTINUOUS
 62
     7
 10
-455.26032
 20
290.149349
 30
0.0
 40
6.0
 50
270.0
 51
360.0
  0
ARC
  8
0
  6
CONTINUOUS
 62
     7
 10
-346.507936
 20
377.61532
 30
0.0
 40
6.0
 50
50.556477
 51
98.746162
  0
ARC
  8
0
  6
CONTINUOUS
 62
     7
 10
-351.373766
 20
409.243214
 30
0.0
 40
6.0
 50
278.746162
 51
326.935847
  0
ARC
  8
0
  6
CONTINUOUS
 62
     7
 10
-350.617182
 20
256.00336
 30
0.0
 40
6.0
 50
215.487462
 51
263.677148
  0
ARC
  8
0
  6
CONTINUOUS
 62
     7
 10
-376.672945
 20
237.426566
 30
0.0
 40
6.0
 50
347.297777
 51
395.487462
  0
ARC
  8
0
  6
CONTINUOUS
 62
     7
 10
-545.847696
 20
237.426566
 30
0.0
 40
6.0
 50
144.512538
 51
192.702223
  0
ARC
  8
0
  6
CONTINUOUS
 62
     7
 10
-571.903458
 20
256.00336
 30
0.0
 40
6.0
 50
276.322852
 51
324.512538
  0
ARC
  8
0
  6
CONTINUOUS
 62
     7
 10
-576.012705
 20
377.61532
 30
0.0
 40
6.0
 50
81.253838
 51
129.443523
  0
ARC
  8
0
  6
CONTINUOUS
 62
     7
 10
-571.146875
 20
409.243214
 30
0.0
 40
6.0
 50
213.064153
 51
261.253838
  0
LINE
  8
0
  6
DASHDOT
 62
     7
 10
-291.662166
 20
376.149349
 30
0.0
 11
-625.955352
 21
376.149349
 31
0.0
  0
LINE
  8
0
  6
DASHDOT
 62
     7
 10
-461.26032
 20
447.076347
 30
0.0
 11
-461.26032
 21
196.449835
 31
0.0
  0
TEXT
  8
0
  6
CONTINUOUS
 62
     7
 10
-233.679925
 20
172.758671
 30
0.0
 40
3.5
  1
NOTE: Thickness of composite part to be 1.6mm
 50
360.0
 41
0.933333
 72
     1
 11
-160.529925
 21
174.50867
 31
0.0
 73
     2
  0
INSERT
  8
0
  6
CONTINUOUS
 62
     7
  2
*H0
 10
0.0
 20
0.0
 30
0.0
  0
INSERT
  8
0
  6
CONTINUOUS
 62
     7
  2
*H1
 10
0.0
 20
0.0
 30
0.0
  0
INSERT
  8
0
  6
CONTINUOUS
 62
     7
  2
*H2
 10
0.0
 20
0.0
 30
0.0
  0
INSERT
  8
0
  6
CONTINUOUS
 62
     7
  2
*H3
 10
0.0
 20
0.0
 30
0.0
  0
INSERT
  8
0
  6
CONTINUOUS
 62
     7
  2
*H4
 10
0.0
 20
0.0
 30
0.0
  0
INSERT
  8
0
  6
CONTINUOUS
 62
     7
  2
*H5
 10
0.0
 20
0.0
 30
0.0
  0
INSERT
  8
0
  6
CONTINUOUS
 62
     7
  2
*H6
 10
0.0
 20
0.0
 30
0.0
  0
INSERT
  8
0
  6
CONTINUOUS
 62
     7
  2
*H7
 10
0.0
 20
0.0
 30
0.0
  0
INSERT
  8
0
  6
CONTINUOUS
 62
     7
  2
*H8
 10
0.0
 20
0.0
 30
0.0
  0
INSERT
  8
0
  6
CONTINUOUS
 62
     7
  2
*H9
 10
0.0
 20
0.0
 30
0.0
  0
INSERT
  8
0
  6
CONTINUOUS
 62
     7
  2
*H10
 10
0.0
 20
0.0
 30
0.0
  0
INSERT
  8
0
  6
CONTINUOUS
 62
     7
  2
*H11
 10
0.0
 20
0.0
 30
0.0
  0
INSERT
  8
0
  6
CONTINUOUS
 62
     7
  2
*H12
 10
0.0
 20
0.0
 30
0.0
  0
INSERT
  8
0
  6
CONTINUOUS
 62
     7
  2
*H13
 10
0.0
 20
0.0
 30
0.0
  0
INSERT
  8
0
  6
CONTINUOUS
 62
     7
  2
*H14
 10
0.0
 20
0.0
 30
0.0
  0
INSERT
  8
0
  6
CONTINUOUS
 62
     7
  2
*H15
 10
0.0
 20
0.0
 30
0.0
  0
INSERT
  8
0
  6
CONTINUOUS
 62
     7
  2
*H16
 10
0.0
 20
0.0
 30
0.0
  0
INSERT
  8
0
  6
CONTINUOUS
 62
     7
  2
*H17
 10
0.0
 20
0.0
 30
0.0
  0
INSERT
  8
0
  6
CONTINUOUS
 62
     7
  2
*H18
 10
0.0
 20
0.0
 30
0.0
  0
INSERT
  8
0
  6
CONTINUOUS
 62
     7
  2
*H19
 10
0.0
 20
0.0
 30
0.0
  0
INSERT
  8
0
  6
CONTINUOUS
 62
     7
  2
*H20
 10
0.0
 20
0.0
 30
0.0
  0
INSERT
  8
0
  6
CONTINUOUS
 62
     7
  2
*H21
 10
0.0
 20
0.0
 30
0.0
  0
INSERT
  8
0
  6
CONTINUOUS
 62
     7
  2
*H22
 10
0.0
 20
0.0
 30
0.0
  0
INSERT
  8
0
  6
CONTINUOUS
 62
     7
  2
*H23
 10
0.0
 20
0.0
 30
0.0
  0
INSERT
  8
0
  6
CONTINUOUS
 62
     7
  2
*H24
 10
0.0
 20
0.0
 30
0.0
  0
INSERT
  8
0
  6
CONTINUOUS
 62
     7
  2
*H25
 10
0.0
 20
0.0
 30
0.0
  0
INSERT
  8
0
  6
CONTINUOUS
 62
     7
  2
*H26
 10
0.0
 20
0.0
 30
0.0
  0
INSERT
  8
0
  6
CONTINUOUS
 62
     7
  2
*U27
 10
0.0
 20
0.0
 30
0.0
  0
INSERT
  8
0
  6
CONTINUOUS
 62
     7
  2
*U28
 10
0.0
 20
0.0
 30
0.0
  0
INSERT
  8
0
  6
CONTINUOUS
 62
     7
  2
*U29
 10
0.0
 20
0.0
 30
0.0
  0
INSERT
  8
0
  6
CONTINUOUS
 62
     7
  2
*U30
 10
0.0
 20
0.0
 30
0.0
  0
INSERT
  8
0
  6
CONTINUOUS
 62
     7
  2
*U31
 10
0.0
 20
0.0
 30
0.0
  0
INSERT
  8
0
  6
CONTINUOUS
 62
     7
  2
*U32
 10
0.0
 20
0.0
 30
0.0
  0
INSERT
  8
0
  6
CONTINUOUS
 62
     7
  2
*U33
 10
0.0
 20
0.0
 30
0.0
  0
INSERT
  8
0
  6
CONTINUOUS
 62
     7
  2
*U34
 10
0.0
 20
0.0
 30
0.0
  0
INSERT
  8
0
  6
CONTINUOUS
 62
     7
  2
*U35
 10
0.0
 20
0.0
 30
0.0
  0
INSERT
  8
0
  6
CONTINUOUS
 62
     7
  2
*U36
 10
0.0
 20
0.0
 30
0.0
  0
INSERT
  8
0
  6
CONTINUOUS
 62
     7
  2
*U37
 10
0.0
 20
0.0
 30
0.0
  0
INSERT
  8
0
  6
CONTINUOUS
 62
     7
  2
*U38
 10
0.0
 20
0.0
 30
0.0
  0
INSERT
  8
0
  6
CONTINUOUS
 62
     7
  2
*U39
 10
0.0
 20
0.0
 30
0.0
  0
ENDSEC
  0
EOF
