  0
SECTION
  2
HEADER
  9
$ACADVER
  1
AC1009
  9
$INSBASE
 10
0.0
 20
0.0
 30
0.0
  9
$EXTMIN
 10
0.0
 20
0.0
 30
0.0
  9
$EXTMAX
 10
0.0
 20
0.0
 30
0.0
  0
ENDSEC
  0
SECTION
  2
TABLES
  0
TABLE
  2
VPORT
 70
0
  0
ENDTAB
  0
TABLE
  2
LTYPE
 70
1
  0
LTYPE
  2
CONTINUOUS
 70
0
  3
Solid line
 72
65
 73
0
 40
0.0
  0
ENDTAB
  0
TABLE
  2
LAYER
 70
1
  0
LAYER
  2
0
 70
64
 62
7
  6
continuous
  0
ENDTAB
  0
TABLE
  2
STYLE
 70
1
  0
STYLE
  2
STANDARD
 70
0
 40
0
 41
1.0
 50
0.0
 71
0
 42
1
 3
ARIAL.TTF
 4

  0
ENDTAB
  0
TABLE
  2
VIEW
 70
0
  0
ENDTAB
  0
ENDSEC
  0
SECTION
  2
BLOCKS
  0
BLOCK
  8
0
  2
FILLET002004
 70
0
 10
0.0
 20
0.0
 30
0.0
  3
FILLET002004
  0
POLYLINE
  8
0
 62
0
 70
0
 66
1
 10
0.0
 20
0.0
 30
0.0
  0
VERTEX
  8
0
 10
3.77018348624
 20
-0.472935779817
 30
0.0
  0
VERTEX
  8
0
 10
3.72041693551
 20
-0.468779906738
 30
0.0
  0
VERTEX
  8
0
 10
3.6722103593
 20
-0.455792664622
 30
0.0
  0
VERTEX
  8
0
 10
3.62749271982
 20
-0.433619372834
 30
0.0
  0
VERTEX
  8
0
 10
3.58834107094
 20
-0.402670772272
 30
0.0
  0
VERTEX
  8
0
 10
3.55656813846
 20
-0.364183624038
 30
0.0
  0
VERTEX
  8
0
 10
3.53334893076
 20
-0.319997067344
 30
0.0
  0
VERTEX
  8
0
 10
3.51907332352
 20
-0.272153511287
 30
0.0
  0
VERTEX
  8
0
 10
3.51344940441
 20
-0.222529982674
 30
0.0
  0
VERTEX
  8
0
 10
3.51330275229
 20
-0.212844036697
 30
0.0
  0
SEQEND
  8
0
  0
POLYLINE
  8
0
 62
0
 70
0
 66
1
 10
0.0
 20
0.0
 30
0.0
  0
VERTEX
  8
0
 10
5.54587155963
 20
-0.665596330275
 30
0.0
  0
VERTEX
  8
0
 10
5.49756618151
 20
-0.652690394631
 30
0.0
  0
VERTEX
  8
0
 10
5.44911777036
 20
-0.640332186441
 30
0.0
  0
VERTEX
  8
0
 10
5.40053535768
 20
-0.628511689942
 30
0.0
  0
VERTEX
  8
0
 10
5.35182762125
 20
-0.617218662994
 30
0.0
  0
VERTEX
  8
0
 10
5.30300288361
 20
-0.606442666208
 30
0.0
  0
VERTEX
  8
0
 10
5.25406911233
 20
-0.596173090551
 30
0.0
  0
VERTEX
  8
0
 10
5.20503392178
 20
-0.586399183325
 30
0.0
  0
VERTEX
  8
0
 10
5.15590457628
 20
-0.577110072501
 30
0.0
  0
VERTEX
  8
0
 10
5.10668799452
 20
-0.568294789364
 30
0.0
  0
VERTEX
  8
0
 10
5.05739075502
 20
-0.559942289451
 30
0.0
  0
VERTEX
  8
0
 10
5.00801910252
 20
-0.552041471826
 30
0.0
  0
VERTEX
  8
0
 10
4.95857895518
 20
-0.544581196675
 30
0.0
  0
VERTEX
  8
0
 10
4.90907591244
 20
-0.537550301261
 30
0.0
  0
VERTEX
  8
0
 10
4.85951526343
 20
-0.530937614291
 30
0.0
  0
VERTEX
  8
0
 10
4.80990199583
 20
-0.524731968745
 30
0.0
  0
VERTEX
  8
0
 10
4.76024080504
 20
-0.518922213208
 30
0.0
  0
VERTEX
  8
0
 10
4.71053610364
 20
-0.513497221774
 30
0.0
  0
VERTEX
  8
0
 10
4.66079203099
 20
-0.508445902576
 30
0.0
  0
VERTEX
  8
0
 10
4.61101246296
 20
-0.503757204991
 30
0.0
  0
VERTEX
  8
0
 10
4.56120102167
 20
-0.499420125619
 30
0.0
  0
VERTEX
  8
0
 10
4.51136108525
 20
-0.495423713082
 30
0.0
  0
VERTEX
  8
0
 10
4.46149579746
 20
-0.49175707169
 30
0.0
  0
VERTEX
  8
0
 10
4.41160807728
 20
-0.488409364053
 30
0.0
  0
VERTEX
  8
0
 10
4.36170062834
 20
-0.485369812702
 30
0.0
  0
VERTEX
  8
0
 10
4.31177594817
 20
-0.48262770075
 30
0.0
  0
VERTEX
  8
0
 10
4.26183633723
 20
-0.480172371664
 30
0.0
  0
VERTEX
  8
0
 10
4.2118839078
 20
-0.47799322819
 30
0.0
  0
VERTEX
  8
0
 10
4.16192059258
 20
-0.476079730472
 30
0.0
  0
VERTEX
  8
0
 10
4.11194815311
 20
-0.474421393426
 30
0.0
  0
VERTEX
  8
0
 10
4.06196818791
 20
-0.473007783408
 30
0.0
  0
VERTEX
  8
0
 10
4.05917431193
 20
-0.472935779817
 30
0.0
  0
SEQEND
  8
0
  0
POLYLINE
  8
0
 62
0
 70
0
 66
1
 10
0.0
 20
0.0
 30
0.0
  0
VERTEX
  8
0
 10
5.97935779817
 20
-1.24678899083
 30
0.0
  0
VERTEX
  8
0
 10
5.97758770618
 20
-1.19683095891
 30
0.0
  0
VERTEX
  8
0
 10
5.97217520066
 20
-1.14713647914
 30
0.0
  0
VERTEX
  8
0
 10
5.96298773538
 20
-1.09800070306
 30
0.0
  0
VERTEX
  8
0
 10
5.94992795588
 20
-1.04975056147
 30
0.0
  0
VERTEX
  8
0
 10
5.93294309652
 20
-1.0027393367
 30
0.0
  0
VERTEX
  8
0
 10
5.91203368367
 20
-0.957338287185
 30
0.0
  0
VERTEX
  8
0
 10
5.88726045947
 20
-0.913925377692
 30
0.0
  0
VERTEX
  8
0
 10
5.85874837578
 20
-0.872871634157
 30
0.0
  0
VERTEX
  8
0
 10
5.82668666887
 20
-0.83452615666
 30
0.0
  0
VERTEX
  8
0
 10
5.79132444869
 20
-0.799201257579
 30
0.0
  0
VERTEX
  8
0
 10
5.7529618753
 20
-0.76715939368
 30
0.0
  0
VERTEX
  8
0
 10
5.71193770817
 20
-0.738603425062
 30
0.0
  0
VERTEX
  8
0
 10
5.66861460901
 20
-0.713671254313
 30
0.0
  0
VERTEX
  8
0
 10
5.62336388333
 20
-0.692435193506
 30
0.0
  0
VERTEX
  8
0
 10
5.57655128662
 20
-0.674905669906
 30
0.0
  0
VERTEX
  8
0
 10
5.54587155963
 20
-0.665596330275
 30
0.0
  0
SEQEND
  8
0
  0
POLYLINE
  8
0
 62
0
 70
0
 66
1
 10
0.0
 20
0.0
 30
0.0
  0
VERTEX
  8
0
 10
5.54587155963
 20
-1.8247706422
 30
0.0
  0
VERTEX
  8
0
 10
5.5936561554
 20
-1.81009567856
 30
0.0
  0
VERTEX
  8
0
 10
5.64011303257
 20
-1.79164665243
 30
0.0
  0
VERTEX
  8
0
 10
5.68487296221
 20
-1.7693968976
 30
0.0
  0
VERTEX
  8
0
 10
5.72755360808
 20
-1.74338199259
 30
0.0
  0
VERTEX
  8
0
 10
5.76777376745
 20
-1.71370570231
 30
0.0
  0
VERTEX
  8
0
 10
5.80516941375
 20
-1.68054149163
 30
0.0
  0
VERTEX
  8
0
 10
5.83940983226
 20
-1.64412890243
 30
0.0
  0
VERTEX
  8
0
 10
5.87021194607
 20
-1.60476489992
 30
0.0
  0
VERTEX
  8
0
 10
5.89735116228
 20
-1.56279114146
 30
0.0
  0
VERTEX
  8
0
 10
5.92066767339
 20
-1.51857875314
 30
0.0
  0
VERTEX
  8
0
 10
5.94006794041
 20
-1.4725124493
 30
0.0
  0
VERTEX
  8
0
 10
5.95552182713
 20
-1.42497567573
 30
0.0
  0
VERTEX
  8
0
 10
5.96705637203
 20
-1.37633801105
 30
0.0
  0
VERTEX
  8
0
 10
5.97474740472
 20
-1.32694549809
 30
0.0
  0
VERTEX
  8
0
 10
5.97871017406
 20
-1.27711405463
 30
0.0
  0
VERTEX
  8
0
 10
5.97935779817
 20
-1.24678899083
 30
0.0
  0
SEQEND
  8
0
  0
POLYLINE
  8
0
 62
0
 70
0
 66
1
 10
0.0
 20
0.0
 30
0.0
  0
VERTEX
  8
0
 10
4.34174311927
 20
-2.00779816514
 30
0.0
  0
VERTEX
  8
0
 10
4.39165895787
 20
-2.0048995889
 30
0.0
  0
VERTEX
  8
0
 10
4.44155634791
 20
-2.00169919316
 30
0.0
  0
VERTEX
  8
0
 10
4.49143259634
 20
-1.99818475749
 30
0.0
  0
VERTEX
  8
0
 10
4.54128477256
 20
-1.99434402043
 30
0.0
  0
VERTEX
  8
0
 10
4.59110969786
 20
-1.99016468508
 30
0.0
  0
VERTEX
  8
0
 10
4.64090393485
 20
-1.98563442593
 30
0.0
  0
VERTEX
  8
0
 10
4.690663777
 20
-1.98074089705
 30
0.0
  0
VERTEX
  8
0
 10
4.74038523834
 20
-1.97547174177
 30
0.0
  0
VERTEX
  8
0
 10
4.79006404342
 20
-1.96981460371
 30
0.0
  0
VERTEX
  8
0
 10
4.83969561757
 20
-1.96375713954
 30
0.0
  0
VERTEX
  8
0
 10
4.88927507763
 20
-1.95728703317
 30
0.0
  0
VERTEX
  8
0
 10
4.93879722314
 20
-1.95039201173
 30
0.0
  0
VERTEX
  8
0
 10
4.98825652831
 20
-1.94305986317
 30
0.0
  0
VERTEX
  8
0
 10
5.03764713464
 20
-1.93527845563
 30
0.0
  0
VERTEX
  8
0
 10
5.08696284451
 20
-1.92703575852
 30
0.0
  0
VERTEX
  8
0
 10
5.1361971159
 20
-1.91831986541
 30
0.0
  0
VERTEX
  8
0
 10
5.18534305817
 20
-1.90911901856
 30
0.0
  0
VERTEX
  8
0
 10
5.23439342936
 20
-1.89942163531
 30
0.0
  0
VERTEX
  8
0
 10
5.28334063492
 20
-1.88921633593
 30
0.0
  0
VERTEX
  8
0
 10
5.33217672821
 20
-1.8784919732
 30
0.0
  0
VERTEX
  8
0
 10
5.3808934128
 20
-1.8672376634
 30
0.0
  0
VERTEX
  8
0
 10
5.42948204681
 20
-1.8554428186
 30
0.0
  0
VERTEX
  8
0
 10
5.47793364944
 20
-1.84309718022
 30
0.0
  0
VERTEX
  8
0
 10
5.52623890978
 20
-1.83019085348
 30
0.0
  0
VERTEX
  8
0
 10
5.54587155963
 20
-1.8247706422
 30
0.0
  0
SEQEND
  8
0
  0
POLYLINE
  8
0
 62
0
 70
0
 66
1
 10
0.0
 20
0.0
 30
0.0
  0
VERTEX
  8
0
 10
4.09449541284
 20
-2.26788990826
 30
0.0
  0
VERTEX
  8
0
 10
4.09845982379
 20
-2.21810240863
 30
0.0
  0
VERTEX
  8
0
 10
4.11091501141
 20
-2.16975046782
 30
0.0
  0
VERTEX
  8
0
 10
4.13236559051
 20
-2.1246784284
 30
0.0
  0
VERTEX
  8
0
 10
4.16261435552
 20
-2.08498386383
 30
0.0
  0
VERTEX
  8
0
 10
4.20058425889
 20
-2.05259844774
 30
0.0
  0
VERTEX
  8
0
 10
4.24446348124
 20
-2.02880876885
 30
0.0
  0
VERTEX
  8
0
 10
4.29214642948
 20
-2.01400759449
 30
0.0
  0
VERTEX
  8
0
 10
4.34170194392
 20
-2.00779995801
 30
0.0
  0
VERTEX
  8
0
 10
4.34174311927
 20
-2.00779816514
 30
0.0
  0
SEQEND
  8
0
  0
POLYLINE
  8
0
 62
0
 70
0
 66
1
 10
0.0
 20
0.0
 30
0.0
  0
VERTEX
  8
0
 10
4.1747706422
 20
-2.86834862385
 30
0.0
  0
VERTEX
  8
0
 10
4.14249636886
 20
-2.83023818709
 30
0.0
  0
VERTEX
  8
0
 10
4.11755379663
 20
-2.78698950642
 30
0.0
  0
VERTEX
  8
0
 10
4.1014187759
 20
-2.7397500375
 30
0.0
  0
VERTEX
  8
0
 10
4.09472625098
 20
-2.69027586549
 30
0.0
  0
VERTEX
  8
0
 10
4.09449541284
 20
-2.67889908257
 30
0.0
  0
SEQEND
  8
0
  0
POLYLINE
  8
0
 62
0
 70
0
 66
1
 10
0.0
 20
0.0
 30
0.0
  0
VERTEX
  8
0
 10
4.36422018349
 20
-2.93899082569
 30
0.0
  0
VERTEX
  8
0
 10
4.31434752996
 20
-2.93663002996
 30
0.0
  0
VERTEX
  8
0
 10
4.26587671571
 20
-2.92470541636
 30
0.0
  0
VERTEX
  8
0
 10
4.22077414656
 20
-2.90331784351
 30
0.0
  0
VERTEX
  8
0
 10
4.18060106757
 20
-2.87366901227
 30
0.0
  0
VERTEX
  8
0
 10
4.1747706422
 20
-2.86834862385
 30
0.0
  0
SEQEND
  8
0
  0
POLYLINE
  8
0
 62
0
 70
0
 66
1
 10
0.0
 20
0.0
 30
0.0
  0
VERTEX
  8
0
 10
6.17201834862
 20
-2.65
 30
0.0
  0
VERTEX
  8
0
 10
6.12490811528
 20
-2.66675078364
 30
0.0
  0
VERTEX
  8
0
 10
6.07758031013
 20
-2.6828766336
 30
0.0
  0
VERTEX
  8
0
 10
6.03004703036
 20
-2.69838639942
 30
0.0
  0
VERTEX
  8
0
 10
5.98232002574
 20
-2.71328941558
 30
0.0
  0
VERTEX
  8
0
 10
5.93441068089
 20
-2.72759545874
 30
0.0
  0
VERTEX
  8
0
 10
5.88633000098
 20
-2.7413147057
 30
0.0
  0
VERTEX
  8
0
 10
5.83808860046
 20
-2.75445769242
 30
0.0
  0
VERTEX
  8
0
 10
5.7896966947
 20
-2.76703527443
 30
0.0
  0
VERTEX
  8
0
 10
5.74116409442
 20
-2.77905858881
 30
0.0
  0
VERTEX
  8
0
 10
5.69250020259
 20
-2.79053901788
 30
0.0
  0
VERTEX
  8
0
 10
5.64371401364
 20
-2.80148815492
 30
0.0
  0
VERTEX
  8
0
 10
5.59481411474
 20
-2.81191777171
 30
0.0
  0
VERTEX
  8
0
 10
5.54580868892
 20
-2.82183978829
 30
0.0
  0
VERTEX
  8
0
 10
5.49670551985
 20
-2.83126624485
 30
0.0
  0
VERTEX
  8
0
 10
5.44751199808
 20
-2.84020927569
 30
0.0
  0
VERTEX
  8
0
 10
5.39823512845
 20
-2.84868108538
 30
0.0
  0
VERTEX
  8
0
 10
5.34888153861
 20
-2.85669392701
 30
0.0
  0
VERTEX
  8
0
 10
5.29945748841
 20
-2.86426008256
 30
0.0
  0
VERTEX
  8
0
 10
5.24996888002
 20
-2.87139184528
 30
0.0
  0
VERTEX
  8
0
 10
5.20042126862
 20
-2.87810150401
 30
0.0
  0
VERTEX
  8
0
 10
5.15081987349
 20
-2.88440132944
 30
0.0
  0
VERTEX
  8
0
 10
5.10116958953
 20
-2.89030356213
 30
0.0
  0
VERTEX
  8
0
 10
5.05147499891
 20
-2.89582040224
 30
0.0
  0
VERTEX
  8
0
 10
5.00174038283
 20
-2.900964001
 30
0.0
  0
VERTEX
  8
0
 10
4.95196973344
 20
-2.90574645363
 30
0.0
  0
VERTEX
  8
0
 10
4.9021667656
 20
-2.91017979383
 30
0.0
  0
VERTEX
  8
0
 10
4.8523349286
 20
-2.91427598956
 30
0.0
  0
VERTEX
  8
0
 10
4.80247741778
 20
-2.9180469402
 30
0.0
  0
VERTEX
  8
0
 10
4.75259718588
 20
-2.92150447495
 30
0.0
  0
VERTEX
  8
0
 10
4.70269695425
 20
-2.92466035234
 30
0.0
  0
VERTEX
  8
0
 10
4.65277922375
 20
-2.92752626081
 30
0.0
  0
VERTEX
  8
0
 10
4.60284628544
 20
-2.93011382043
 30
0.0
  0
VERTEX
  8
0
 10
4.55290023096
 20
-2.93243458544
 30
0.0
  0
VERTEX
  8
0
 10
4.50294296256
 20
-2.93450004785
 30
0.0
  0
VERTEX
  8
0
 10
4.45297620299
 20
-2.93632164175
 30
0.0
  0
VERTEX
  8
0
 10
4.40300150491
 20
-2.93791074863
 30
0.0
  0
VERTEX
  8
0
 10
4.36422018349
 20
-2.93899082569
 30
0.0
  0
SEQEND
  8
0
  0
POLYLINE
  8
0
 62
0
 70
0
 66
1
 10
0.0
 20
0.0
 30
0.0
  0
VERTEX
  8
0
 10
7.13853211009
 20
-1.33669724771
 30
0.0
  0
VERTEX
  8
0
 10
7.13495976336
 20
-1.3865676802
 30
0.0
  0
VERTEX
  8
0
 10
7.12991522437
 20
-1.43631068904
 30
0.0
  0
VERTEX
  8
0
 10
7.12337335598
 20
-1.48587893324
 30
0.0
  0
VERTEX
  8
0
 10
7.11531124101
 20
-1.53522264378
 30
0.0
  0
VERTEX
  8
0
 10
7.10570849425
 20
-1.58428973443
 30
0.0
  0
VERTEX
  8
0
 10
7.09454757609
 20
-1.63302595122
 30
0.0
  0
VERTEX
  8
0
 10
7.08181410279
 20
-1.68137506249
 30
0.0
  0
VERTEX
  8
0
 10
7.06749714682
 20
-1.72927909061
 30
0.0
  0
VERTEX
  8
0
 10
7.05158952036
 20
-1.77667858552
 30
0.0
  0
VERTEX
  8
0
 10
7.03408803466
 20
-1.82351293878
 30
0.0
  0
VERTEX
  8
0
 10
7.01499372783
 20
-1.86972073579
 30
0.0
  0
VERTEX
  8
0
 10
6.9943120537
 20
-1.91524014208
 30
0.0
  0
VERTEX
  8
0
 10
6.97205302501
 20
-1.96000931853
 30
0.0
  0
VERTEX
  8
0
 10
6.94823130488
 20
-2.00396685872
 30
0.0
  0
VERTEX
  8
0
 10
6.92286624166
 20
-2.04705224049
 30
0.0
  0
VERTEX
  8
0
 10
6.89598184376
 20
-2.08920628311
 30
0.0
  0
VERTEX
  8
0
 10
6.8676066927
 20
-2.13037160024
 30
0.0
  0
VERTEX
  8
0
 10
6.83777379444
 20
-2.17049303937
 30
0.0
  0
VERTEX
  8
0
 10
6.80652037094
 20
-2.20951809774
 30
0.0
  0
VERTEX
  8
0
 10
6.77388759596
 20
-2.247397306
 30
0.0
  0
VERTEX
  8
0
 10
6.73992028037
 20
-2.28408457137
 30
0.0
  0
VERTEX
  8
0
 10
6.70466651447
 20
-2.31953747339
 30
0.0
  0
VERTEX
  8
0
 10
6.66817727514
 20
-2.35371750723
 30
0.0
  0
VERTEX
  8
0
 10
6.63050600722
 20
-2.38659027072
 30
0.0
  0
VERTEX
  8
0
 10
6.59170818832
 20
-2.4181255936
 30
0.0
  0
VERTEX
  8
0
 10
6.55184088666
 20
-2.44829760883
 30
0.0
  0
VERTEX
  8
0
 10
6.51096232098
 20
-2.4770847678
 30
0.0
  0
VERTEX
  8
0
 10
6.46913143078
 20
-2.50446980259
 30
0.0
  0
VERTEX
  8
0
 10
6.42640746446
 20
-2.53043963958
 30
0.0
  0
VERTEX
  8
0
 10
6.38284959151
 20
-2.55498526995
 30
0.0
  0
VERTEX
  8
0
 10
6.33851654377
 20
-2.57810158287
 30
0.0
  0
VERTEX
  8
0
 10
6.2934662895
 20
-2.59978716789
 30
0.0
  0
VERTEX
  8
0
 10
6.24775574273
 20
-2.62004409278
 30
0.0
  0
VERTEX
  8
0
 10
6.20144050908
 20
-2.63887766333
 30
0.0
  0
VERTEX
  8
0
 10
6.17201834862
 20
-2.65
 30
0.0
  0
SEQEND
  8
0
  0
POLYLINE
  8
0
 62
0
 70
0
 66
1
 10
0.0
 20
0.0
 30
0.0
  0
VERTEX
  8
0
 10
6.33256880734
 20
0.0889908256881
 30
0.0
  0
VERTEX
  8
0
 10
6.37682499532
 20
0.0657274011662
 30
0.0
  0
VERTEX
  8
0
 10
6.4203274015
 20
0.0410833124411
 30
0.0
  0
VERTEX
  8
0
 10
6.46302005474
 20
0.0150617570682
 30
0.0
  0
VERTEX
  8
0
 10
6.50484637416
 20
-0.0123305182218
 30
0.0
  0
VERTEX
  8
0
 10
6.54574946907
 20
-0.0410830590885
 30
0.0
  0
VERTEX
  8
0
 10
6.58567246354
 20
-0.0711815750361
 30
0.0
  0
VERTEX
  8
0
 10
6.6245588423
 20
-0.102607845183
 30
0.0
  0
VERTEX
  8
0
 10
6.66235281319
 20
-0.135339662563
 30
0.0
  0
VERTEX
  8
0
 10
6.69899968108
 20
-0.169350820466
 30
0.0
  0
VERTEX
  8
0
 10
6.73444622707
 20
-0.204611143517
 30
0.0
  0
VERTEX
  8
0
 10
6.76864108646
 20
-0.241086565146
 30
0.0
  0
VERTEX
  8
0
 10
6.80153511873
 20
-0.278739252014
 30
0.0
  0
VERTEX
  8
0
 10
6.83308176233
 20
-0.317527774715
 30
0.0
  0
VERTEX
  8
0
 10
6.86323736775
 20
-0.357407322855
 30
0.0
  0
VERTEX
  8
0
 10
6.8919615022
 20
-0.398329961402
 30
0.0
  0
VERTEX
  8
0
 10
6.91921722032
 20
-0.440244924042
 30
0.0
  0
VERTEX
  8
0
 10
6.94497129579
 20
-0.483098938354
 30
0.0
  0
VERTEX
  8
0
 10
6.96919441013
 20
-0.526836576753
 30
0.0
  0
VERTEX
  8
0
 10
6.9918612958
 20
-0.571400626639
 30
0.0
  0
VERTEX
  8
0
 10
7.01295083216
 20
-0.616732472811
 30
0.0
  0
VERTEX
  8
0
 10
7.03244609387
 20
-0.662772485159
 30
0.0
  0
VERTEX
  8
0
 10
7.05033435278
 20
-0.70946040478
 30
0.0
  0
VERTEX
  8
0
 10
7.06660703509
 20
-0.756735722077
 30
0.0
  0
VERTEX
  8
0
 10
7.0812596369
 20
-0.804538040946
 30
0.0
  0
VERTEX
  8
0
 10
7.09429160185
 20
-0.852807423888
 30
0.0
  0
VERTEX
  8
0
 10
7.10570616503
 20
-0.901484713711
 30
0.0
  0
VERTEX
  8
0
 10
7.11551016822
 20
-0.950511828379
 30
0.0
  0
VERTEX
  8
0
 10
7.1237138512
 20
-0.999832026451
 30
0.0
  0
VERTEX
  8
0
 10
7.13033062436
 20
-1.04939014149
 30
0.0
  0
VERTEX
  8
0
 10
7.13537682748
 20
-1.09913278456
 30
0.0
  0
VERTEX
  8
0
 10
7.13887147941
 20
-1.14900851491
 30
0.0
  0
VERTEX
  8
0
 10
7.14083602326
 20
-1.19896797915
 30
0.0
  0
VERTEX
  8
0
 10
7.14129407069
 20
-1.24896402055
 30
0.0
  0
VERTEX
  8
0
 10
7.14027114925
 20
-1.29895175957
 30
0.0
  0
VERTEX
  8
0
 10
7.13853211009
 20
-1.33669724771
 30
0.0
  0
SEQEND
  8
0
  0
POLYLINE
  8
0
 62
0
 70
0
 66
1
 10
0.0
 20
0.0
 30
0.0
  0
VERTEX
  8
0
 10
6.82706422018
 20
1.42798165138
 30
0.0
  0
VERTEX
  8
0
 10
6.83555466741
 20
1.37871025875
 30
0.0
  0
VERTEX
  8
0
 10
6.8423455759
 20
1.32917610105
 30
0.0
  0
VERTEX
  8
0
 10
6.84740003432
 20
1.27943483539
 30
0.0
  0
VERTEX
  8
0
 10
6.85068507399
 20
1.22954553817
 30
0.0
  0
VERTEX
  8
0
 10
6.85217216716
 20
1.17957039348
 30
0.0
  0
VERTEX
  8
0
 10
6.85183768808
 20
1.12957430864
 30
0.0
  0
VERTEX
  8
0
 10
6.84966332224
 20
1.07962446163
 30
0.0
  0
VERTEX
  8
0
 10
6.84563640979
 20
1.0297897878
 30
0.0
  0
VERTEX
  8
0
 10
6.83975021078
 20
0.980140416502
 30
0.0
  0
VERTEX
  8
0
 10
6.83200408072
 20
0.930747070687
 30
0.0
  0
VERTEX
  8
0
 10
6.82240355068
 20
0.881680444651
 30
0.0
  0
VERTEX
  8
0
 10
6.81096030732
 20
0.833010576374
 30
0.0
  0
VERTEX
  8
0
 10
6.79769207342
 20
0.784806231277
 30
0.0
  0
VERTEX
  8
0
 10
6.78262239392
 20
0.737134313383
 30
0.0
  0
VERTEX
  8
0
 10
6.7657803341
 20
0.690059318917
 30
0.0
  0
VERTEX
  8
0
 10
6.74720010055
 20
0.643642845187
 30
0.0
  0
VERTEX
  8
0
 10
6.72692059792
 20
0.597943164916
 30
0.0
  0
VERTEX
  8
0
 10
6.70498493673
 20
0.553014872744
 30
0.0
  0
VERTEX
  8
0
 10
6.68143990721
 20
0.508908607934
 30
0.0
  0
VERTEX
  8
0
 10
6.65633543404
 20
0.465670854122
 30
0.0
  0
VERTEX
  8
0
 10
6.62972402662
 20
0.423343814114
 30
0.0
  0
VERTEX
  8
0
 10
6.60166023764
 20
0.381965355495
 30
0.0
  0
VERTEX
  8
0
 10
6.57220014107
 20
0.341569020866
 30
0.0
  0
VERTEX
  8
0
 10
6.5414008388
 20
0.302184095257
 30
0.0
  0
VERTEX
  8
0
 10
6.5093200027
 20
0.263835722438
 30
0.0
  0
VERTEX
  8
0
 10
6.47601545716
 20
0.226545061605
 30
0.0
  0
VERTEX
  8
0
 10
6.44154480475
 20
0.190329476118
 30
0.0
  0
VERTEX
  8
0
 10
6.40596509656
 20
0.155202746048
 30
0.0
  0
VERTEX
  8
0
 10
6.36933254717
 20
0.121175297035
 30
0.0
  0
VERTEX
  8
0
 10
6.33256880734
 20
0.0889908256881
 30
0.0
  0
SEQEND
  8
0
  0
POLYLINE
  8
0
 62
0
 70
0
 66
1
 10
0.0
 20
0.0
 30
0.0
  0
VERTEX
  8
0
 10
5.87981651376
 20
2.52935779817
 30
0.0
  0
VERTEX
  8
0
 10
5.92657807426
 20
2.51166164188
 30
0.0
  0
VERTEX
  8
0
 10
5.972760782
 20
2.49250572947
 30
0.0
  0
VERTEX
  8
0
 10
6.01830981699
 20
2.47188847812
 30
0.0
  0
VERTEX
  8
0
 10
6.06316949162
 20
2.4498115759
 30
0.0
  0
VERTEX
  8
0
 10
6.10728349375
 20
2.42628011893
 30
0.0
  0
VERTEX
  8
0
 10
6.15059514735
 20
2.40130272458
 30
0.0
  0
VERTEX
  8
0
 10
6.19304768832
 20
2.37489161769
 30
0.0
  0
VERTEX
  8
0
 10
6.23458455193
 20
2.34706268761
 30
0.0
  0
VERTEX
  8
0
 10
6.27514966866
 20
2.31783551429
 30
0.0
  0
VERTEX
  8
0
 10
6.31468776436
 20
2.28723336211
 30
0.0
  0
VERTEX
  8
0
 10
6.35314466096
 20
2.25528314087
 30
0.0
  0
VERTEX
  8
0
 10
6.39046757358
 20
2.22201533392
 30
0.0
  0
VERTEX
  8
0
 10
6.42660540019
 20
2.18746389415
 30
0.0
  0
VERTEX
  8
0
 10
6.4615089999
 20
2.151666109
 30
0.0
  0
VERTEX
  8
0
 10
6.49513145643
 20
2.11466243639
 30
0.0
  0
VERTEX
  8
0
 10
6.52742832345
 20
2.07649631384
 30
0.0
  0
VERTEX
  8
0
 10
6.55835784915
 20
2.03721394354
 30
0.0
  0
VERTEX
  8
0
 10
6.58788117739
 20
1.99686405638
 30
0.0
  0
VERTEX
  8
0
 10
6.61596252378
 20
1.95549765831
 30
0.0
  0
VERTEX
  8
0
 10
6.64256932519
 20
1.91316776241
 30
0.0
  0
VERTEX
  8
0
 10
6.66767236172
 20
1.86992911028
 30
0.0
  0
VERTEX
  8
0
 10
6.69124585066
 20
1.82583788616
 30
0.0
  0
VERTEX
  8
0
 10
6.71326751246
 20
1.78095142723
 30
0.0
  0
VERTEX
  8
0
 10
6.73371860902
 20
1.73532793345
 30
0.0
  0
VERTEX
  8
0
 10
6.75258395487
 20
1.68902617988
 30
0.0
  0
VERTEX
  8
0
 10
6.76985190259
 20
1.64210523457
 30
0.0
  0
VERTEX
  8
0
 10
6.78551430329
 20
1.59462418442
 30
0.0
  0
VERTEX
  8
0
 10
6.79956644409
 20
1.54664187156
 30
0.0
  0
VERTEX
  8
0
 10
6.81200696404
 20
1.49821664227
 30
0.0
  0
VERTEX
  8
0
 10
6.82283775022
 20
1.44940611018
 30
0.0
  0
VERTEX
  8
0
 10
6.82706422018
 20
1.42798165138
 30
0.0
  0
SEQEND
  8
0
  0
POLYLINE
  8
0
 62
0
 70
0
 66
1
 10
0.0
 20
0.0
 30
0.0
  0
VERTEX
  8
0
 10
4.37064220183
 20
2.8119266055
 30
0.0
  0
VERTEX
  8
0
 10
4.42055441286
 20
2.80896630963
 30
0.0
  0
VERTEX
  8
0
 10
4.4704471821
 20
2.80569473525
 30
0.0
  0
VERTEX
  8
0
 10
4.52031781889
 20
2.80210159694
 30
0.0
  0
VERTEX
  8
0
 10
4.57016342209
 20
2.7981765098
 30
0.0
  0
VERTEX
  8
0
 10
4.61998086973
 20
2.79390898579
 30
0.0
  0
VERTEX
  8
0
 10
4.6697668083
 20
2.789288431
 30
0.0
  0
VERTEX
  8
0
 10
4.71951764159
 20
2.78430414384
 30
0.0
  0
VERTEX
  8
0
 10
4.76922951917
 20
2.77894531417
 30
0.0
  0
VERTEX
  8
0
 10
4.81889832443
 20
2.77320102345
 30
0.0
  0
VERTEX
  8
0
 10
4.86851966237
 20
2.76706024612
 30
0.0
  0
VERTEX
  8
0
 10
4.91808884692
 20
2.76051185201
 30
0.0
  0
VERTEX
  8
0
 10
4.96760088815
 20
2.75354461018
 30
0.0
  0
VERTEX
  8
0
 10
5.01705047914
 20
2.74614719406
 30
0.0
  0
VERTEX
  8
0
 10
5.06643198266
 20
2.73830818807
 30
0.0
  0
VERTEX
  8
0
 10
5.11573941784
 20
2.73001609586
 30
0.0
  0
VERTEX
  8
0
 10
5.16496644676
 20
2.72125935015
 30
0.0
  0
VERTEX
  8
0
 10
5.21410636112
 20
2.71202632446
 30
0.0
  0
VERTEX
  8
0
 10
5.26315206911
 20
2.70230534665
 30
0.0
  0
VERTEX
  8
0
 10
5.31209608259
 20
2.69208471457
 30
0.0
  0
VERTEX
  8
0
 10
5.36093050474
 20
2.68135271368
 30
0.0
  0
VERTEX
  8
0
 10
5.40964701829
 20
2.67009763708
 30
0.0
  0
VERTEX
  8
0
 10
5.45823687461
 20
2.65830780767
 30
0.0
  0
VERTEX
  8
0
 10
5.50669088369
 20
2.64597160284
 30
0.0
  0
VERTEX
  8
0
 10
5.55499940544
 20
2.63307748154
 30
0.0
  0
VERTEX
  8
0
 10
5.60315234233
 20
2.61961401392
 30
0.0
  0
VERTEX
  8
0
 10
5.65113913376
 20
2.60556991351
 30
0.0
  0
VERTEX
  8
0
 10
5.69894875236
 20
2.59093407191
 30
0.0
  0
VERTEX
  8
0
 10
5.74656970251
 20
2.57569559604
 30
0.0
  0
VERTEX
  8
0
 10
5.79399002135
 20
2.5598438479
 30
0.0
  0
VERTEX
  8
0
 10
5.84119728268
 20
2.54336848663
 30
0.0
  0
VERTEX
  8
0
 10
5.87981651376
 20
2.52935779817
 30
0.0
  0
SEQEND
  8
0
  0
POLYLINE
  8
0
 62
0
 70
0
 66
1
 10
0.0
 20
0.0
 30
0.0
  0
VERTEX
  8
0
 10
4.1747706422
 20
2.74128440367
 30
0.0
  0
VERTEX
  8
0
 10
4.21392794526
 20
2.7722732588
 30
0.0
  0
VERTEX
  8
0
 10
4.25813708367
 20
2.79545694682
 30
0.0
  0
VERTEX
  8
0
 10
4.30611255237
 20
2.80921554954
 30
0.0
  0
VERTEX
  8
0
 10
4.35589757107
 20
2.81278659879
 30
0.0
  0
VERTEX
  8
0
 10
4.37064220183
 20
2.8119266055
 30
0.0
  0
SEQEND
  8
0
  0
POLYLINE
  8
0
 62
0
 70
0
 66
1
 10
0.0
 20
0.0
 30
0.0
  0
VERTEX
  8
0
 10
4.09449541284
 20
2.55183486239
 30
0.0
  0
VERTEX
  8
0
 10
4.09899333728
 20
2.60156267971
 30
0.0
  0
VERTEX
  8
0
 10
4.11266438316
 20
2.64957781889
 30
0.0
  0
VERTEX
  8
0
 10
4.13538076208
 20
2.69402798554
 30
0.0
  0
VERTEX
  8
0
 10
4.1664405392
 20
2.73310472948
 30
0.0
  0
VERTEX
  8
0
 10
4.1747706422
 20
2.74128440367
 30
0.0
  0
SEQEND
  8
0
  0
POLYLINE
  8
0
 62
0
 70
0
 66
1
 10
0.0
 20
0.0
 30
0.0
  0
VERTEX
  8
0
 10
4.33532110092
 20
1.88073394495
 30
0.0
  0
VERTEX
  8
0
 10
4.28606366997
 20
1.88900701618
 30
0.0
  0
VERTEX
  8
0
 10
4.23892078326
 20
1.90546345777
 30
0.0
  0
VERTEX
  8
0
 10
4.19573233825
 20
1.93049479828
 30
0.0
  0
VERTEX
  8
0
 10
4.15854781883
 20
1.96378323592
 30
0.0
  0
VERTEX
  8
0
 10
4.12918460246
 20
2.00413792961
 30
0.0
  0
VERTEX
  8
0
 10
4.10874450479
 20
2.04967646954
 30
0.0
  0
VERTEX
  8
0
 10
4.09740347676
 20
2.09830144541
 30
0.0
  0
VERTEX
  8
0
 10
4.09449541284
 20
2.14082568807
 30
0.0
  0
SEQEND
  8
0
  0
POLYLINE
  8
0
 62
0
 70
0
 66
1
 10
0.0
 20
0.0
 30
0.0
  0
VERTEX
  8
0
 10
5.2376146789
 20
1.73944954128
 30
0.0
  0
VERTEX
  8
0
 10
5.18918312066
 20
1.75187316753
 30
0.0
  0
VERTEX
  8
0
 10
5.14059135526
 20
1.76365472089
 30
0.0
  0
VERTEX
  8
0
 10
5.09185259709
 20
1.7748126935
 30
0.0
  0
VERTEX
  8
0
 10
5.04297923481
 20
1.78536558381
 30
0.0
  0
VERTEX
  8
0
 10
4.99398286117
 20
1.79533184865
 30
0.0
  0
VERTEX
  8
0
 10
4.94487430447
 20
1.80472986204
 30
0.0
  0
VERTEX
  8
0
 10
4.8956636613
 20
1.81357788034
 30
0.0
  0
VERTEX
  8
0
 10
4.84636032978
 20
1.82189401335
 30
0.0
  0
VERTEX
  8
0
 10
4.79697304312
 20
1.82969620084
 30
0.0
  0
VERTEX
  8
0
 10
4.74750990295
 20
1.83700219408
 30
0.0
  0
VERTEX
  8
0
 10
4.69797841229
 20
1.84382954203
 30
0.0
  0
VERTEX
  8
0
 10
4.64838550779
 20
1.85019558176
 30
0.0
  0
VERTEX
  8
0
 10
4.59873759104
 20
1.85611743262
 30
0.0
  0
VERTEX
  8
0
 10
4.54904055901
 20
1.86161199399
 30
0.0
  0
VERTEX
  8
0
 10
4.49929983325
 20
1.86669594615
 30
0.0
  0
VERTEX
  8
0
 10
4.44952038794
 20
1.87138575412
 30
0.0
  0
VERTEX
  8
0
 10
4.39970677671
 20
1.87569767402
 30
0.0
  0
VERTEX
  8
0
 10
4.34986315822
 20
1.87964776199
 30
0.0
  0
VERTEX
  8
0
 10
4.33532110092
 20
1.88073394495
 30
0.0
  0
SEQEND
  8
0
  0
POLYLINE
  8
0
 62
0
 70
0
 66
1
 10
0.0
 20
0.0
 30
0.0
  0
VERTEX
  8
0
 10
5.69036697248
 20
1.17752293578
 30
0.0
  0
VERTEX
  8
0
 10
5.68840401679
 20
1.2274713003
 30
0.0
  0
VERTEX
  8
0
 10
5.6823971868
 20
1.27709468371
 30
0.0
  0
VERTEX
  8
0
 10
5.67220823555
 20
1.32602961435
 30
0.0
  0
VERTEX
  8
0
 10
5.65776210311
 20
1.37387989803
 30
0.0
  0
VERTEX
  8
0
 10
5.63905882217
 20
1.42023129393
 30
0.0
  0
VERTEX
  8
0
 10
5.61618038847
 20
1.46466999471
 30
0.0
  0
VERTEX
  8
0
 10
5.58929094273
 20
1.50680276018
 30
0.0
  0
VERTEX
  8
0
 10
5.55862980763
 20
1.5462759556
 30
0.0
  0
VERTEX
  8
0
 10
5.52449834309
 20
1.58279086794
 30
0.0
  0
VERTEX
  8
0
 10
5.48724273407
 20
1.6161135003
 30
0.0
  0
VERTEX
  8
0
 10
5.44723533516
 20
1.64607826043
 30
0.0
  0
VERTEX
  8
0
 10
5.40485699573
 20
1.67258612019
 30
0.0
  0
VERTEX
  8
0
 10
5.36048208988
 20
1.69559859544
 30
0.0
  0
VERTEX
  8
0
 10
5.31446711011
 20
1.71512917202
 30
0.0
  0
VERTEX
  8
0
 10
5.26714292874
 20
1.73123367401
 30
0.0
  0
VERTEX
  8
0
 10
5.2376146789
 20
1.73944954128
 30
0.0
  0
SEQEND
  8
0
  0
POLYLINE
  8
0
 62
0
 70
0
 66
1
 10
0.0
 20
0.0
 30
0.0
  0
VERTEX
  8
0
 10
5.2376146789
 20
0.615596330275
 30
0.0
  0
VERTEX
  8
0
 10
5.28558191646
 20
0.629671426245
 30
0.0
  0
VERTEX
  8
0
 10
5.3324078489
 20
0.647169850048
 30
0.0
  0
VERTEX
  8
0
 10
5.37777836285
 20
0.668152570145
 30
0.0
  0
VERTEX
  8
0
 10
5.42135468062
 20
0.692642511607
 30
0.0
  0
VERTEX
  8
0
 10
5.46277933728
 20
0.720616570553
 30
0.0
  0
VERTEX
  8
0
 10
5.50168487038
 20
0.751998321441
 30
0.0
  0
VERTEX
  8
0
 10
5.53770525842
 20
0.786652373452
 30
0.0
  0
VERTEX
  8
0
 10
5.57048973512
 20
0.824381463562
 30
0.0
  0
VERTEX
  8
0
 10
5.59971808758
 20
0.864927322904
 30
0.0
  0
VERTEX
  8
0
 10
5.62511602303
 20
0.907976039898
 30
0.0
  0
VERTEX
  8
0
 10
5.64646882288
 20
0.953168052361
 30
0.0
  0
VERTEX
  8
0
 10
5.66363146929
 20
1.00011212112
 30
0.0
  0
VERTEX
  8
0
 10
5.6765338253
 20
1.04840187099
 30
0.0
  0
VERTEX
  8
0
 10
5.68518022463
 20
1.09763297441
 30
0.0
  0
VERTEX
  8
0
 10
5.68964377183
 20
1.14741897708
 30
0.0
  0
VERTEX
  8
0
 10
5.69036697248
 20
1.17752293578
 30
0.0
  0
SEQEND
  8
0
  0
POLYLINE
  8
0
 62
0
 70
0
 66
1
 10
0.0
 20
0.0
 30
0.0
  0
VERTEX
  8
0
 10
4.05596330275
 20
0.461467889908
 30
0.0
  0
VERTEX
  8
0
 10
4.10593205644
 20
0.463233032783
 30
0.0
  0
VERTEX
  8
0
 10
4.15588871032
 20
0.465312494327
 30
0.0
  0
VERTEX
  8
0
 10
4.20583069011
 20
0.467718611485
 30
0.0
  0
VERTEX
  8
0
 10
4.25575516986
 20
0.470463852789
 30
0.0
  0
VERTEX
  8
0
 10
4.30565905778
 20
0.473560826085
 30
0.0
  0
VERTEX
  8
0
 10
4.35553898141
 20
0.477022285069
 30
0.0
  0
VERTEX
  8
0
 10
4.40539127204
 20
0.480861134526
 30
0.0
  0
VERTEX
  8
0
 10
4.4552119484
 20
0.485090434256
 30
0.0
  0
VERTEX
  8
0
 10
4.50499669971
 20
0.48972340141
 30
0.0
  0
VERTEX
  8
0
 10
4.554740868
 20
0.494773411378
 30
0.0
  0
VERTEX
  8
0
 10
4.60443942981
 20
0.50025399683
 30
0.0
  0
VERTEX
  8
0
 10
4.6540869773
 20
0.5061788449
 30
0.0
  0
VERTEX
  8
0
 10
4.70367769879
 20
0.512561792462
 30
0.0
  0
VERTEX
  8
0
 10
4.7532053589
 20
0.519416818958
 30
0.0
  0
VERTEX
  8
0
 10
4.8026632783
 20
0.526758037081
 30
0.0
  0
VERTEX
  8
0
 10
4.85204431326
 20
0.534599680733
 30
0.0
  0
VERTEX
  8
0
 10
4.90134083508
 20
0.542956090182
 30
0.0
  0
VERTEX
  8
0
 10
4.95054470968
 20
0.551841694377
 30
0.0
  0
VERTEX
  8
0
 10
4.99964727741
 20
0.561270989832
 30
0.0
  0
VERTEX
  8
0
 10
5.04863933347
 20
0.571258516298
 30
0.0
  0
VERTEX
  8
0
 10
5.0975111091
 20
0.581818828721
 30
0.0
  0
VERTEX
  8
0
 10
5.14625225388
 20
0.592966465382
 30
0.0
  0
VERTEX
  8
0
 10
5.19485181956
 20
0.604715912128
 30
0.0
  0
VERTEX
  8
0
 10
5.2376146789
 20
0.615596330275
 30
0.0
  0
SEQEND
  8
0
  0
POLYLINE
  8
0
 62
0
 70
0
 66
1
 10
0.0
 20
0.0
 30
0.0
  0
VERTEX
  8
0
 10
3.51330275229
 20
0.198165137615
 30
0.0
  0
VERTEX
  8
0
 10
3.51722980251
 20
0.247956547104
 30
0.0
  0
VERTEX
  8
0
 10
3.52959190446
 20
0.296333151533
 30
0.0
  0
VERTEX
  8
0
 10
3.55090947299
 20
0.341469325056
 30
0.0
  0
VERTEX
  8
0
 10
3.58097850425
 20
0.381302540042
 30
0.0
  0
VERTEX
  8
0
 10
3.61871164048
 20
0.413968222864
 30
0.0
  0
VERTEX
  8
0
 10
3.66231974521
 20
0.438259129478
 30
0.0
  0
VERTEX
  8
0
 10
3.70976195845
 20
0.453826157978
 30
0.0
  0
VERTEX
  8
0
 10
3.75918295845
 20
0.461045466124
 30
0.0
  0
VERTEX
  8
0
 10
3.76697247706
 20
0.461467889908
 30
0.0
  0
SEQEND
  8
0
  0
POLYLINE
  8
0
 62
0
 70
0
 66
1
 10
0.0
 20
0.0
 30
0.0
  0
VERTEX
  8
0
 10
-6.79403669725
 20
1.43119266055
 30
0.0
  0
VERTEX
  8
0
 10
-6.78384255179
 20
1.48014009252
 30
0.0
  0
VERTEX
  8
0
 10
-6.77202631189
 20
1.52872140439
 30
0.0
  0
VERTEX
  8
0
 10
-6.75858656448
 20
1.57687881831
 30
0.0
  0
VERTEX
  8
0
 10
-6.74352510969
 20
1.62455388638
 30
0.0
  0
VERTEX
  8
0
 10
-6.7268470475
 20
1.67168772004
 30
0.0
  0
VERTEX
  8
0
 10
-6.70856084575
 20
1.71822123131
 30
0.0
  0
VERTEX
  8
0
 10
-6.68867838837
 20
1.7640953839
 30
0.0
  0
VERTEX
  8
0
 10
-6.66721500244
 20
1.80925145266
 30
0.0
  0
VERTEX
  8
0
 10
-6.64418946333
 20
1.8536312892
 30
0.0
  0
VERTEX
  8
0
 10
-6.61962397674
 20
1.89717759166
 30
0.0
  0
VERTEX
  8
0
 10
-6.59354413719
 20
1.93983417621
 30
0.0
  0
VERTEX
  8
0
 10
-6.56597886235
 20
1.98154624784
 30
0.0
  0
VERTEX
  8
0
 10
-6.53696030293
 20
2.0222606678
 30
0.0
  0
VERTEX
  8
0
 10
-6.50652372824
 20
2.06192621489
 30
0.0
  0
VERTEX
  8
0
 10
-6.47470738756
 20
2.10049383779
 30
0.0
  0
VERTEX
  8
0
 10
-6.44155234818
 20
2.13791689544
 30
0.0
  0
VERTEX
  8
0
 10
-6.40710231079
 20
2.17415138267
 30
0.0
  0
VERTEX
  8
0
 10
-6.37140340386
 20
2.20915613795
 30
0.0
  0
VERTEX
  8
0
 10
-6.33450395863
 20
2.24289303082
 30
0.0
  0
VERTEX
  8
0
 10
-6.29645426683
 20
2.27532712612
 30
0.0
  0
VERTEX
  8
0
 10
-6.25730632376
 20
2.30642682302
 30
0.0
  0
VERTEX
  8
0
 10
-6.21711355947
 20
2.33616396664
 30
0.0
  0
VERTEX
  8
0
 10
-6.17593056126
 20
2.36451393101
 30
0.0
  0
VERTEX
  8
0
 10
-6.13381279083
 20
2.39145567212
 30
0.0
  0
VERTEX
  8
0
 10
-6.09081629959
 20
2.41697175068
 30
0.0
  0
VERTEX
  8
0
 10
-6.04699744576
 20
2.44104832468
 30
0.0
  0
VERTEX
  8
0
 10
-6.0024126167
 20
2.46367511225
 30
0.0
  0
VERTEX
  8
0
 10
-5.95711795991
 20
2.48484532609
 30
0.0
  0
VERTEX
  8
0
 10
-5.9111691259
 20
2.50455558114
 30
0.0
  0
VERTEX
  8
0
 10
-5.86462102559
 20
2.52280577742
 30
0.0
  0
VERTEX
  8
0
 10
-5.84678899083
 20
2.52935779817
 30
0.0
  0
SEQEND
  8
0
  0
POLYLINE
  8
0
 62
0
 70
0
 66
1
 10
0.0
 20
0.0
 30
0.0
  0
VERTEX
  8
0
 10
-6.2995412844
 20
0.098623853211
 30
0.0
  0
VERTEX
  8
0
 10
-6.33701142441
 20
0.131726969852
 30
0.0
  0
VERTEX
  8
0
 10
-6.37350288234
 20
0.165905810912
 30
0.0
  0
VERTEX
  8
0
 10
-6.40896130215
 20
0.201155092497
 30
0.0
  0
VERTEX
  8
0
 10
-6.44333097749
 20
0.237466637524
 30
0.0
  0
VERTEX
  8
0
 10
-6.47655505467
 20
0.274829117405
 30
0.0
  0
VERTEX
  8
0
 10
-6.5085757803
 20
0.31322779621
 30
0.0
  0
VERTEX
  8
0
 10
-6.53933479633
 20
0.352644283425
 30
0.0
  0
VERTEX
  8
0
 10
-6.56877348471
 20
0.393056302501
 30
0.0
  0
VERTEX
  8
0
 10
-6.59683336228
 20
0.434437483434
 30
0.0
  0
VERTEX
  8
0
 10
-6.62345652519
 20
0.476757188464
 30
0.0
  0
VERTEX
  8
0
 10
-6.64858613991
 20
0.519980380608
 30
0.0
  0
VERTEX
  8
0
 10
-6.67216697573
 20
0.564067545017
 30
0.0
  0
VERTEX
  8
0
 10
-6.69414597128
 20
0.608974672858
 30
0.0
  0
VERTEX
  8
0
 10
-6.71447282471
 20
0.654653316624
 30
0.0
  0
VERTEX
  8
0
 10
-6.73310059516
 20
0.701050724329
 30
0.0
  0
VERTEX
  8
0
 10
-6.74998630018
 20
0.74811005787
 30
0.0
  0
VERTEX
  8
0
 10
-6.76509149253
 20
0.795770698223
 30
0.0
  0
VERTEX
  8
0
 10
-6.77838279799
 20
0.843968636669
 30
0.0
  0
VERTEX
  8
0
 10
-6.78983239629
 20
0.892636947437
 30
0.0
  0
VERTEX
  8
0
 10
-6.79941842908
 20
0.941706333208
 30
0.0
  0
VERTEX
  8
0
 10
-6.80712531695
 20
0.991105731977
 30
0.0
  0
VERTEX
  8
0
 10
-6.81294397666
 20
1.04076296923
 30
0.0
  0
VERTEX
  8
0
 10
-6.81687192653
 20
1.09060543831
 30
0.0
  0
VERTEX
  8
0
 10
-6.81891327717
 20
1.14056078913
 30
0.0
  0
VERTEX
  8
0
 10
-6.81907860889
 20
1.19055760547
 30
0.0
  0
VERTEX
  8
0
 10
-6.81738474109
 20
1.24052605164
 30
0.0
  0
VERTEX
  8
0
 10
-6.81385440215
 20
1.29039847157
 30
0.0
  0
VERTEX
  8
0
 10
-6.80851581395
 20
1.34010992523
 30
0.0
  0
VERTEX
  8
0
 10
-6.80140220492
 20
1.3895986513
 30
0.0
  0
VERTEX
  8
0
 10
-6.79403669725
 20
1.43119266055
 30
0.0
  0
SEQEND
  8
0
  0
POLYLINE
  8
0
 62
0
 70
0
 66
1
 10
0.0
 20
0.0
 30
0.0
  0
VERTEX
  8
0
 10
-7.10550458716
 20
-1.33027522936
 30
0.0
  0
VERTEX
  8
0
 10
-7.10762170315
 20
-1.28032178384
 30
0.0
  0
VERTEX
  8
0
 10
-7.10829303507
 20
-1.23032806725
 30
0.0
  0
VERTEX
  8
0
 10
-7.10749115209
 20
-1.18033633985
 30
0.0
  0
VERTEX
  8
0
 10
-7.10519025543
 20
-1.13039121876
 30
0.0
  0
VERTEX
  8
0
 10
-7.10136643111
 20
-1.08053962848
 30
0.0
  0
VERTEX
  8
0
 10
-7.09599790961
 20
-1.03083072424
 30
0.0
  0
VERTEX
  8
0
 10
-7.08906532942
 20
-0.981315785961
 30
0.0
  0
VERTEX
  8
0
 10
-7.08055200106
 20
-0.932048080888
 30
0.0
  0
VERTEX
  8
0
 10
-7.07044416717
 20
-0.883082693593
 30
0.0
  0
VERTEX
  8
0
 10
-7.05873125423
 20
-0.83447632251
 30
0.0
  0
VERTEX
  8
0
 10
-7.04540611066
 20
-0.786287042935
 30
0.0
  0
VERTEX
  8
0
 10
-7.03046522618
 20
-0.738574037212
 30
0.0
  0
VERTEX
  8
0
 10
-7.01390892676
 20
-0.691397293749
 30
0.0
  0
VERTEX
  8
0
 10
-6.99574153992
 20
-0.644817277495
 30
0.0
  0
VERTEX
  8
0
 10
-6.97597152508
 20
-0.59889457548
 30
0.0
  0
VERTEX
  8
0
 10
-6.95461156426
 20
-0.553689522009
 30
0.0
  0
VERTEX
  8
0
 10
-6.93167860907
 20
-0.509261809028
 30
0.0
  0
VERTEX
  8
0
 10
-6.90719388068
 20
-0.465670087958
 30
0.0
  0
VERTEX
  8
0
 10
-6.88118282075
 20
-0.422971569923
 30
0.0
  0
VERTEX
  8
0
 10
-6.85367499224
 20
-0.381221631727
 30
0.0
  0
VERTEX
  8
0
 10
-6.82470393054
 20
-0.340473435075
 30
0.0
  0
VERTEX
  8
0
 10
-6.79430694662
 20
-0.300777566454
 30
0.0
  0
VERTEX
  8
0
 10
-6.76252488516
 20
-0.262181704673
 30
0.0
  0
VERTEX
  8
0
 10
-6.72940184209
 20
-0.224730322438
 30
0.0
  0
VERTEX
  8
0
 10
-6.69498484685
 20
-0.188464427407
 30
0.0
  0
VERTEX
  8
0
 10
-6.6593235157
 20
-0.153421347088
 30
0.0
  0
VERTEX
  8
0
 10
-6.62246968302
 20
-0.119634560693
 30
0.0
  0
VERTEX
  8
0
 10
-6.58447701796
 20
-0.0871335797236
 30
0.0
  0
VERTEX
  8
0
 10
-6.5454006339
 20
-0.055943877718
 30
0.0
  0
VERTEX
  8
0
 10
-6.50529669801
 20
-0.0260868682961
 30
0.0
  0
VERTEX
  8
0
 10
-6.46422204777
 20
0.00242007056965
 30
0.0
  0
VERTEX
  8
0
 10
-6.42223382068
 20
0.029563529165
 30
0.0
  0
VERTEX
  8
0
 10
-6.37938910272
 20
0.0553339594971
 30
0.0
  0
VERTEX
  8
0
 10
-6.33574460013
 20
0.0797255344507
 30
0.0
  0
VERTEX
  8
0
 10
-6.2995412844
 20
0.098623853211
 30
0.0
  0
SEQEND
  8
0
  0
POLYLINE
  8
0
 62
0
 70
0
 66
1
 10
0.0
 20
0.0
 30
0.0
  0
VERTEX
  8
0
 10
-6.13899082569
 20
-2.65
 30
0.0
  0
VERTEX
  8
0
 10
-6.18565860182
 20
-2.63205766629
 30
0.0
  0
VERTEX
  8
0
 10
-6.23175560469
 20
-2.6126961678
 30
0.0
  0
VERTEX
  8
0
 10
-6.27722681059
 20
-2.59190762777
 30
0.0
  0
VERTEX
  8
0
 10
-6.32201568995
 20
-2.56968729921
 30
0.0
  0
VERTEX
  8
0
 10
-6.36606444762
 20
-2.54603383078
 30
0.0
  0
VERTEX
  8
0
 10
-6.40931430291
 20
-2.52094951779
 30
0.0
  0
VERTEX
  8
0
 10
-6.45170580926
 20
-2.49444053186
 30
0.0
  0
VERTEX
  8
0
 10
-6.49317921142
 20
-2.466517122
 30
0.0
  0
VERTEX
  8
0
 10
-6.53367483711
 20
-2.43719377985
 30
0.0
  0
VERTEX
  8
0
 10
-6.5731335183
 20
-2.40648936217
 30
0.0
  0
VERTEX
  8
0
 10
-6.61149703597
 20
-2.37442716387
 30
0.0
  0
VERTEX
  8
0
 10
-6.64870858087
 20
-2.34103493611
 30
0.0
  0
VERTEX
  8
0
 10
-6.68471322116
 20
-2.30634484495
 30
0.0
  0
VERTEX
  8
0
 10
-6.7194583674
 20
-2.27039336783
 30
0.0
  0
VERTEX
  8
0
 10
-6.7528942243
 20
-2.2332211267
 30
0.0
  0
VERTEX
  8
0
 10
-6.78497421851
 20
-2.194872659
 30
0.0
  0
VERTEX
  8
0
 10
-6.81565539228
 20
-2.15539612939
 30
0.0
  0
VERTEX
  8
0
 10
-6.84489875318
 20
-2.11484298751
 30
0.0
  0
VERTEX
  8
0
 10
-6.87266957151
 20
-2.0732675786
 30
0.0
  0
VERTEX
  8
0
 10
-6.89893761865
 20
-2.03072671587
 30
0.0
  0
VERTEX
  8
0
 10
-6.92367734138
 20
-1.98727922415
 30
0.0
  0
VERTEX
  8
0
 10
-6.94686796949
 20
-1.9429854656
 30
0.0
  0
VERTEX
  8
0
 10
-6.96849355614
 20
-1.89790685834
 30
0.0
  0
VERTEX
  8
0
 10
-6.98854295247
 20
-1.85210539854
 30
0.0
  0
VERTEX
  8
0
 10
-7.00700972018
 20
-1.8056431962
 30
0.0
  0
VERTEX
  8
0
 10
-7.02389198714
 20
-1.75858203334
 30
0.0
  0
VERTEX
  8
0
 10
-7.03919225286
 20
-1.71098295244
 30
0.0
  0
VERTEX
  8
0
 10
-7.0529171512
 20
-1.66290588116
 30
0.0
  0
VERTEX
  8
0
 10
-7.06507717854
 20
-1.61440929775
 30
0.0
  0
VERTEX
  8
0
 10
-7.07568639571
 20
-1.56554994019
 30
0.0
  0
VERTEX
  8
0
 10
-7.08476211177
 20
-1.51638256017
 30
0.0
  0
VERTEX
  8
0
 10
-7.09232455747
 20
-1.46695972203
 30
0.0
  0
VERTEX
  8
0
 10
-7.09839655528
 20
-1.4173316453
 30
0.0
  0
VERTEX
  8
0
 10
-7.10300319235
 20
-1.36754608864
 30
0.0
  0
VERTEX
  8
0
 10
-7.10550458716
 20
-1.33027522936
 30
0.0
  0
SEQEND
  8
0
  0
POLYLINE
  8
0
 62
0
 70
0
 66
1
 10
0.0
 20
0.0
 30
0.0
  0
VERTEX
  8
0
 10
-4.33119266055
 20
-2.93899082569
 30
0.0
  0
VERTEX
  8
0
 10
-4.38117276442
 20
-2.93758181807
 30
0.0
  0
VERTEX
  8
0
 10
-4.43114609957
 20
-2.93595042828
 30
0.0
  0
VERTEX
  8
0
 10
-4.48111124635
 20
-2.9340851366
 30
0.0
  0
VERTEX
  8
0
 10
-4.53106662003
 20
-2.93197436219
 30
0.0
  0
VERTEX
  8
0
 10
-4.58101046111
 20
-2.92960645973
 30
0.0
  0
VERTEX
  8
0
 10
-4.63094082541
 20
-2.92696971663
 30
0.0
  0
VERTEX
  8
0
 10
-4.68085557387
 20
-2.92405235125
 30
0.0
  0
VERTEX
  8
0
 10
-4.73075236213
 20
-2.92084251183
 30
0.0
  0
VERTEX
  8
0
 10
-4.78062862985
 20
-2.91732827655
 30
0.0
  0
VERTEX
  8
0
 10
-4.83048158986
 20
-2.91349765444
 30
0.0
  0
VERTEX
  8
0
 10
-4.88030821701
 20
-2.90933858755
 30
0.0
  0
VERTEX
  8
0
 10
-4.93010523703
 20
-2.9048389541
 30
0.0
  0
VERTEX
  8
0
 10
-4.97986911514
 20
-2.89998657301
 30
0.0
  0
VERTEX
  8
0
 10
-5.02959604462
 20
-2.89476920966
 30
0.0
  0
VERTEX
  8
0
 10
-5.07928193545
 20
-2.88917458309
 30
0.0
  0
VERTEX
  8
0
 10
-5.12892240289
 20
-2.88319037465
 30
0.0
  0
VERTEX
  8
0
 10
-5.1785127563
 20
-2.87680423822
 30
0.0
  0
VERTEX
  8
0
 10
-5.22804798814
 20
-2.87000381203
 30
0.0
  0
VERTEX
  8
0
 10
-5.27752276324
 20
-2.86277673223
 30
0.0
  0
VERTEX
  8
0
 10
-5.32693140867
 20
-2.85511064821
 30
0.0
  0
VERTEX
  8
0
 10
-5.37626790397
 20
-2.84699323977
 30
0.0
  0
VERTEX
  8
0
 10
-5.42552587221
 20
-2.83841223628
 30
0.0
  0
VERTEX
  8
0
 10
-5.47469857187
 20
-2.82935543765
 30
0.0
  0
VERTEX
  8
0
 10
-5.52377888969
 20
-2.81981073734
 30
0.0
  0
VERTEX
  8
0
 10
-5.57275933471
 20
-2.80976614746
 30
0.0
  0
VERTEX
  8
0
 10
-5.62163203366
 20
-2.79920982571
 30
0.0
  0
VERTEX
  8
0
 10
-5.67038872793
 20
-2.78813010442
 30
0.0
  0
VERTEX
  8
0
 10
-5.71902077216
 20
-2.77651552145
 30
0.0
  0
VERTEX
  8
0
 10
-5.76751913491
 20
-2.76435485292
 30
0.0
  0
VERTEX
  8
0
 10
-5.81587440135
 20
-2.75163714775
 30
0.0
  0
VERTEX
  8
0
 10
-5.86407677829
 20
-2.73835176374
 30
0.0
  0
VERTEX
  8
0
 10
-5.9121161018
 20
-2.72448840507
 30
0.0
  0
VERTEX
  8
0
 10
-5.95998184742
 20
-2.71003716112
 30
0.0
  0
VERTEX
  8
0
 10
-6.00766314332
 20
-2.69498854607
 30
0.0
  0
VERTEX
  8
0
 10
-6.05514878641
 20
-2.67933353929
 30
0.0
  0
VERTEX
  8
0
 10
-6.1024272616
 20
-2.66306362616
 30
0.0
  0
VERTEX
  8
0
 10
-6.13899082569
 20
-2.65
 30
0.0
  0
SEQEND
  8
0
  0
POLYLINE
  8
0
 62
0
 70
0
 66
1
 10
0.0
 20
0.0
 30
0.0
  0
VERTEX
  8
0
 10
-4.14174311927
 20
-2.86834862385
 30
0.0
  0
VERTEX
  8
0
 10
-4.18104749048
 20
-2.89914399681
 30
0.0
  0
VERTEX
  8
0
 10
-4.22545703594
 20
-2.9219386719
 30
0.0
  0
VERTEX
  8
0
 10
-4.27352425936
 20
-2.93539491154
 30
0.0
  0
VERTEX
  8
0
 10
-4.32330308148
 20
-2.9392247883
 30
0.0
  0
VERTEX
  8
0
 10
-4.33119266055
 20
-2.93899082569
 30
0.0
  0
SEQEND
  8
0
  0
POLYLINE
  8
0
 62
0
 70
0
 66
1
 10
0.0
 20
0.0
 30
0.0
  0
VERTEX
  8
0
 10
-4.06146788991
 20
-2.67889908257
 30
0.0
  0
VERTEX
  8
0
 10
-4.0660374598
 20
-2.72861716706
 30
0.0
  0
VERTEX
  8
0
 10
-4.08003998297
 20
-2.77653225501
 30
0.0
  0
VERTEX
  8
0
 10
-4.10308598535
 20
-2.82081784189
 30
0.0
  0
VERTEX
  8
0
 10
-4.13384411547
 20
-2.86015754552
 30
0.0
  0
VERTEX
  8
0
 10
-4.14174311927
 20
-2.86834862385
 30
0.0
  0
SEQEND
  8
0
  0
POLYLINE
  8
0
 62
0
 70
0
 66
1
 10
0.0
 20
0.0
 30
0.0
  0
VERTEX
  8
0
 10
-4.30871559633
 20
-2.00779816514
 30
0.0
  0
VERTEX
  8
0
 10
-4.25918609634
 20
-2.01418304075
 30
0.0
  0
VERTEX
  8
0
 10
-4.21160418318
 20
-2.0293028129
 30
0.0
  0
VERTEX
  8
0
 10
-4.16786722515
 20
-2.05335727216
 30
0.0
  0
VERTEX
  8
0
 10
-4.12997602656
 20
-2.0858405171
 30
0.0
  0
VERTEX
  8
0
 10
-4.09966358837
 20
-2.12549036409
 30
0.0
  0
VERTEX
  8
0
 10
-4.0780405227
 20
-2.17048070256
 30
0.0
  0
VERTEX
  8
0
 10
-4.06543252614
 20
-2.21879136984
 30
0.0
  0
VERTEX
  8
0
 10
-4.06146788991
 20
-2.26788990826
 30
0.0
  0
SEQEND
  8
0
  0
POLYLINE
  8
0
 62
0
 70
0
 66
1
 10
0.0
 20
0.0
 30
0.0
  0
VERTEX
  8
0
 10
-5.5128440367
 20
-1.8247706422
 30
0.0
  0
VERTEX
  8
0
 10
-5.46460113044
 20
-1.83790810693
 30
0.0
  0
VERTEX
  8
0
 10
-5.41620799706
 20
-1.8504809651
 30
0.0
  0
VERTEX
  8
0
 10
-5.36767407883
 20
-1.86249895325
 30
0.0
  0
VERTEX
  8
0
 10
-5.31900849223
 20
-1.87397218594
 30
0.0
  0
VERTEX
  8
0
 10
-5.27022001809
 20
-1.88491112107
 30
0.0
  0
VERTEX
  8
0
 10
-5.22131709422
 20
-1.89532652584
 30
0.0
  0
VERTEX
  8
0
 10
-5.17230781012
 20
-1.90522944395
 30
0.0
  0
VERTEX
  8
0
 10
-5.12319990394
 20
-1.91463116406
 30
0.0
  0
VERTEX
  8
0
 10
-5.07400076118
 20
-1.92354318966
 30
0.0
  0
VERTEX
  8
0
 10
-5.02471741536
 20
-1.93197721041
 30
0.0
  0
VERTEX
  8
0
 10
-4.97535655007
 20
-1.93994507527
 30
0.0
  0
VERTEX
  8
0
 10
-4.92592450265
 20
-1.94745876709
 30
0.0
  0
VERTEX
  8
0
 10
-4.87642726901
 20
-1.95453037912
 30
0.0
  0
VERTEX
  8
0
 10
-4.82687050964
 20
-1.9611720932
 30
0.0
  0
VERTEX
  8
0
 10
-4.77725955659
 20
-1.96739615964
 30
0.0
  0
VERTEX
  8
0
 10
-4.72759942122
 20
-1.97321487893
 30
0.0
  0
VERTEX
  8
0
 10
-4.6778948028
 20
-1.97864058515
 30
0.0
  0
VERTEX
  8
0
 10
-4.62815009749
 20
-1.98368563095
 30
0.0
  0
VERTEX
  8
0
 10
-4.578369408
 20
-1.98836237433
 30
0.0
  0
VERTEX
  8
0
 10
-4.52855655343
 20
-1.99268316684
 30
0.0
  0
VERTEX
  8
0
 10
-4.47871507957
 20
-1.99666034337
 30
0.0
  0
VERTEX
  8
0
 10
-4.42884826923
 20
-2.00030621338
 30
0.0
  0
VERTEX
  8
0
 10
-4.37895915279
 20
-2.0036330535
 30
0.0
  0
VERTEX
  8
0
 10
-4.32905051879
 20
-2.00665310147
 30
0.0
  0
VERTEX
  8
0
 10
-4.30871559633
 20
-2.00779816514
 30
0.0
  0
SEQEND
  8
0
  0
POLYLINE
  8
0
 62
0
 70
0
 66
1
 10
0.0
 20
0.0
 30
0.0
  0
VERTEX
  8
0
 10
-5.94633027523
 20
-1.24036697248
 30
0.0
  0
VERTEX
  8
0
 10
-5.94459816575
 20
-1.29032677802
 30
0.0
  0
VERTEX
  8
0
 10
-5.93929478646
 20
-1.34003344565
 30
0.0
  0
VERTEX
  8
0
 10
-5.9302781914
 20
-1.38920125477
 30
0.0
  0
VERTEX
  8
0
 10
-5.91743900391
 20
-1.43751090633
 30
0.0
  0
VERTEX
  8
0
 10
-5.90071044012
 20
-1.48461422188
 30
0.0
  0
VERTEX
  8
0
 10
-5.88007796945
 20
-1.53014200205
 30
0.0
  0
VERTEX
  8
0
 10
-5.85558743293
 20
-1.57371513135
 30
0.0
  0
VERTEX
  8
0
 10
-5.82735029419
 20
-1.6149585011
 30
0.0
  0
VERTEX
  8
0
 10
-5.79554480888
 20
-1.65351671353
 30
0.0
  0
VERTEX
  8
0
 10
-5.76041233208
 20
-1.68906998212
 30
0.0
  0
VERTEX
  8
0
 10
-5.72224870289
 20
-1.72134834826
 30
0.0
  0
VERTEX
  8
0
 10
-5.68139148727
 20
-1.75014243894
 30
0.0
  0
VERTEX
  8
0
 10
-5.63820458398
 20
-1.77530951828
 30
0.0
  0
VERTEX
  8
0
 10
-5.59306208223
 20
-1.79677439678
 30
0.0
  0
VERTEX
  8
0
 10
-5.54633320595
 20
-1.81452561798
 30
0.0
  0
VERTEX
  8
0
 10
-5.5128440367
 20
-1.8247706422
 30
0.0
  0
SEQEND
  8
0
  0
POLYLINE
  8
0
 62
0
 70
0
 66
1
 10
0.0
 20
0.0
 30
0.0
  0
VERTEX
  8
0
 10
-5.5128440367
 20
-0.655963302752
 30
0.0
  0
VERTEX
  8
0
 10
-5.56047320193
 20
-0.671136803056
 30
0.0
  0
VERTEX
  8
0
 10
-5.60676487572
 20
-0.689997919517
 30
0.0
  0
VERTEX
  8
0
 10
-5.65136091145
 20
-0.712575560485
 30
0.0
  0
VERTEX
  8
0
 10
-5.69388917599
 20
-0.738839824326
 30
0.0
  0
VERTEX
  8
0
 10
-5.73397697126
 20
-0.768695493499
 30
0.0
  0
VERTEX
  8
0
 10
-5.77126658797
 20
-0.801979546651
 30
0.0
  0
VERTEX
  8
0
 10
-5.80543142729
 20
-0.838463600894
 30
0.0
  0
VERTEX
  8
0
 10
-5.83619079404
 20
-0.877861458564
 30
0.0
  0
VERTEX
  8
0
 10
-5.86332154326
 20
-0.919841063036
 30
0.0
  0
VERTEX
  8
0
 10
-5.88666526507
 20
-0.964039419166
 30
0.0
  0
VERTEX
  8
0
 10
-5.9061304777
 20
-1.01007862547
 30
0.0
  0
VERTEX
  8
0
 10
-5.92169012776
 20
-1.05758118929
 30
0.0
  0
VERTEX
  8
0
 10
-5.93337534212
 20
-1.10618318641
 30
0.0
  0
VERTEX
  8
0
 10
-5.94126671129
 20
-1.15554441222
 30
0.0
  0
VERTEX
  8
0
 10
-5.94548440797
 20
-1.20535526574
 30
0.0
  0
VERTEX
  8
0
 10
-5.94633027523
 20
-1.24036697248
 30
0.0
  0
SEQEND
  8
0
  0
POLYLINE
  8
0
 62
0
 70
0
 66
1
 10
0.0
 20
0.0
 30
0.0
  0
VERTEX
  8
0
 10
-4.30871559633
 20
-0.472935779817
 30
0.0
  0
VERTEX
  8
0
 10
-4.35863143493
 20
-0.47583435605
 30
0.0
  0
VERTEX
  8
0
 10
-4.40852882497
 20
-0.47903475179
 30
0.0
  0
VERTEX
  8
0
 10
-4.4584050734
 20
-0.482549187464
 30
0.0
  0
VERTEX
  8
0
 10
-4.50825724962
 20
-0.486389924524
 30
0.0
  0
VERTEX
  8
0
 10
-4.55808217493
 20
-0.490569259873
 30
0.0
  0
VERTEX
  8
0
 10
-4.60787641192
 20
-0.495099519028
 30
0.0
  0
VERTEX
  8
0
 10
-4.65763625406
 20
-0.4999930479
 30
0.0
  0
VERTEX
  8
0
 10
-4.70735771541
 20
-0.505262203185
 30
0.0
  0
VERTEX
  8
0
 10
-4.75703652049
 20
-0.510919341243
 30
0.0
  0
VERTEX
  8
0
 10
-4.80666809464
 20
-0.516976805411
 30
0.0
  0
VERTEX
  8
0
 10
-4.85624755469
 20
-0.523446911783
 30
0.0
  0
VERTEX
  8
0
 10
-4.90576970021
 20
-0.530341933228
 30
0.0
  0
VERTEX
  8
0
 10
-4.95522900538
 20
-0.53767408178
 30
0.0
  0
VERTEX
  8
0
 10
-5.0046196117
 20
-0.545455489329
 30
0.0
  0
VERTEX
  8
0
 10
-5.05393532158
 20
-0.553698186436
 30
0.0
  0
VERTEX
  8
0
 10
-5.10316959297
 20
-0.562414079548
 30
0.0
  0
VERTEX
  8
0
 10
-5.15231553523
 20
-0.571614926395
 30
0.0
  0
VERTEX
  8
0
 10
-5.20136590642
 20
-0.581312309642
 30
0.0
  0
VERTEX
  8
0
 10
-5.25031311198
 20
-0.591517609024
 30
0.0
  0
VERTEX
  8
0
 10
-5.29914920527
 20
-0.602241971756
 30
0.0
  0
VERTEX
  8
0
 10
-5.34786588986
 20
-0.613496281556
 30
0.0
  0
VERTEX
  8
0
 10
-5.39645452388
 20
-0.625291126357
 30
0.0
  0
VERTEX
  8
0
 10
-5.44490612651
 20
-0.637636764737
 30
0.0
  0
VERTEX
  8
0
 10
-5.49321138685
 20
-0.650543091475
 30
0.0
  0
VERTEX
  8
0
 10
-5.5128440367
 20
-0.655963302752
 30
0.0
  0
SEQEND
  8
0
  0
POLYLINE
  8
0
 62
0
 70
0
 66
1
 10
0.0
 20
0.0
 30
0.0
  0
VERTEX
  8
0
 10
-4.06146788991
 20
-0.212844036697
 30
0.0
  0
VERTEX
  8
0
 10
-4.0655455665
 20
-0.262619396135
 30
0.0
  0
VERTEX
  8
0
 10
-4.07827612692
 20
-0.310897723127
 30
0.0
  0
VERTEX
  8
0
 10
-4.10002244884
 20
-0.355828460251
 30
0.0
  0
VERTEX
  8
0
 10
-4.13044814008
 20
-0.39539139727
 30
0.0
  0
VERTEX
  8
0
 10
-4.16843236144
 20
-0.427765884436
 30
0.0
  0
VERTEX
  8
0
 10
-4.21223577737
 20
-0.451699373642
 30
0.0
  0
VERTEX
  8
0
 10
-4.2598566672
 20
-0.466696504785
 30
0.0
  0
VERTEX
  8
0
 10
-4.30871559633
 20
-0.472935779817
 30
0.0
  0
SEQEND
  8
0
  0
POLYLINE
  8
0
 62
0
 70
0
 66
1
 10
0.0
 20
0.0
 30
0.0
  0
VERTEX
  8
0
 10
-4.30229357798
 20
0.483944954128
 30
0.0
  0
VERTEX
  8
0
 10
-4.25294192331
 20
0.476319125208
 30
0.0
  0
VERTEX
  8
0
 10
-4.20579397974
 20
0.459900345942
 30
0.0
  0
VERTEX
  8
0
 10
-4.16276119814
 20
0.434608272695
 30
0.0
  0
VERTEX
  8
0
 10
-4.12579746871
 20
0.401071941901
 30
0.0
  0
VERTEX
  8
0
 10
-4.09654276527
 20
0.360633109313
 30
0.0
  0
VERTEX
  8
0
 10
-4.0760131603
 20
0.315131335134
 30
0.0
  0
VERTEX
  8
0
 10
-4.06447696004
 20
0.266552198442
 30
0.0
  0
VERTEX
  8
0
 10
-4.06146788991
 20
0.223853211009
 30
0.0
  0
SEQEND
  8
0
  0
POLYLINE
  8
0
 62
0
 70
0
 66
1
 10
0.0
 20
0.0
 30
0.0
  0
VERTEX
  8
0
 10
-5.20458715596
 20
0.625229357798
 30
0.0
  0
VERTEX
  8
0
 10
-5.15604302988
 20
0.613252664621
 30
0.0
  0
VERTEX
  8
0
 10
-5.10736798883
 20
0.601819603038
 30
0.0
  0
VERTEX
  8
0
 10
-5.05857079249
 20
0.590919637616
 30
0.0
  0
VERTEX
  8
0
 10
-5.00965973734
 20
0.580542482921
 30
0.0
  0
VERTEX
  8
0
 10
-4.96064268135
 20
0.570678109694
 30
0.0
  0
VERTEX
  8
0
 10
-4.91152706776
 20
0.561316749473
 30
0.0
  0
VERTEX
  8
0
 10
-4.86231994788
 20
0.552448897868
 30
0.0
  0
VERTEX
  8
0
 10
-4.81302800298
 20
0.54406531665
 30
0.0
  0
VERTEX
  8
0
 10
-4.76365756521
 20
0.536157034831
 30
0.0
  0
VERTEX
  8
0
 10
-4.71421463756
 20
0.528715348893
 30
0.0
  0
VERTEX
  8
0
 10
-4.6647049129
 20
0.521731822274
 30
0.0
  0
VERTEX
  8
0
 10
-4.6151337921
 20
0.515198284255
 30
0.0
  0
VERTEX
  8
0
 10
-4.56550640126
 20
0.509106828354
 30
0.0
  0
VERTEX
  8
0
 10
-4.51582760812
 20
0.503449810326
 30
0.0
  0
VERTEX
  8
0
 10
-4.4661020376
 20
0.498219845852
 30
0.0
  0
VERTEX
  8
0
 10
-4.41633408658
 20
0.493409808008
 30
0.0
  0
VERTEX
  8
0
 10
-4.36652793796
 20
0.48901282457
 30
0.0
  0
VERTEX
  8
0
 10
-4.31668757398
 20
0.485022275262
 30
0.0
  0
VERTEX
  8
0
 10
-4.30229357798
 20
0.483944954128
 30
0.0
  0
SEQEND
  8
0
  0
POLYLINE
  8
0
 62
0
 70
0
 66
1
 10
0.0
 20
0.0
 30
0.0
  0
VERTEX
  8
0
 10
-5.65733944954
 20
1.18394495413
 30
0.0
  0
VERTEX
  8
0
 10
-5.65536640688
 20
1.13399712343
 30
0.0
  0
VERTEX
  8
0
 10
-5.64932766992
 20
1.08437777873
 30
0.0
  0
VERTEX
  8
0
 10
-5.63908195532
 20
1.03545490947
 30
0.0
  0
VERTEX
  8
0
 10
-5.62455092004
 20
0.987630601279
 30
0.0
  0
VERTEX
  8
0
 10
-5.60573199473
 20
0.941326356391
 30
0.0
  0
VERTEX
  8
0
 10
-5.58270636772
 20
0.896964119521
 30
0.0
  0
VERTEX
  8
0
 10
-5.55564015768
 20
0.854945107592
 30
0.0
  0
VERTEX
  8
0
 10
-5.52477797267
 20
0.815629339944
 30
0.0
  0
VERTEX
  8
0
 10
-5.49042958481
 20
0.779318826305
 30
0.0
  0
VERTEX
  8
0
 10
-5.45295182472
 20
0.746246607141
 30
0.0
  0
VERTEX
  8
0
 10
-5.41272853948
 20
0.716572533422
 30
0.0
  0
VERTEX
  8
0
 10
-5.37015138677
 20
0.690385311858
 30
0.0
  0
VERTEX
  8
0
 10
-5.32560352804
 20
0.66770936106
 30
0.0
  0
VERTEX
  8
0
 10
-5.27944730296
 20
0.648514615634
 30
0.0
  0
VERTEX
  8
0
 10
-5.23201606434
 20
0.632727512777
 30
0.0
  0
VERTEX
  8
0
 10
-5.20458715596
 20
0.625229357798
 30
0.0
  0
SEQEND
  8
0
  0
POLYLINE
  8
0
 62
0
 70
0
 66
1
 10
0.0
 20
0.0
 30
0.0
  0
VERTEX
  8
0
 10
-5.20458715596
 20
1.74266055046
 30
0.0
  0
VERTEX
  8
0
 10
-5.2526075199
 20
1.72876579304
 30
0.0
  0
VERTEX
  8
0
 10
-5.29952769864
 20
1.71152047222
 30
0.0
  0
VERTEX
  8
0
 10
-5.34503302001
 20
1.69083115947
 30
0.0
  0
VERTEX
  8
0
 10
-5.38877688254
 20
1.66664168948
 30
0.0
  0
VERTEX
  8
0
 10
-5.43038672704
 20
1.63894417867
 30
0.0
  0
VERTEX
  8
0
 10
-5.46947397032
 20
1.60778969696
 30
0.0
  0
VERTEX
  8
0
 10
-5.50564811756
 20
1.57329703234
 30
0.0
  0
VERTEX
  8
0
 10
-5.53853451102
 20
1.53565769011
 30
0.0
  0
VERTEX
  8
0
 10
-5.56779420161
 20
1.49513536947
 30
0.0
  0
VERTEX
  8
0
 10
-5.59314351816
 20
1.45205882017
 30
0.0
  0
VERTEX
  8
0
 10
-5.61437043538
 20
1.40680816663
 30
0.0
  0
VERTEX
  8
0
 10
-5.63134511808
 20
1.3597961875
 30
0.0
  0
VERTEX
  8
0
 10
-5.64402307562
 20
1.31144716482
 30
0.0
  0
VERTEX
  8
0
 10
-5.65244087214
 20
1.26217633876
 30
0.0
  0
VERTEX
  8
0
 10
-5.65670576572
 20
1.21237259294
 30
0.0
  0
VERTEX
  8
0
 10
-5.65733944954
 20
1.18394495413
 30
0.0
  0
SEQEND
  8
0
  0
POLYLINE
  8
0
 62
0
 70
0
 66
1
 10
0.0
 20
0.0
 30
0.0
  0
VERTEX
  8
0
 10
-4.30229357798
 20
1.88073394495
 30
0.0
  0
VERTEX
  8
0
 10
-4.35214525947
 20
1.87688690484
 30
0.0
  0
VERTEX
  8
0
 10
-4.40196834189
 20
1.87268576815
 30
0.0
  0
VERTEX
  8
0
 10
-4.45175910587
 20
1.86811760707
 30
0.0
  0
VERTEX
  8
0
 10
-4.50151351735
 20
1.8631692794
 30
0.0
  0
VERTEX
  8
0
 10
-4.55122720785
 20
1.85782741924
 30
0.0
  0
VERTEX
  8
0
 10
-4.60089545358
 20
1.85207842884
 30
0.0
  0
VERTEX
  8
0
 10
-4.65051315338
 20
1.84590847194
 30
0.0
  0
VERTEX
  8
0
 10
-4.7000748054
 20
1.8393034688
 30
0.0
  0
VERTEX
  8
0
 10
-4.74957448269
 20
1.83224909285
 30
0.0
  0
VERTEX
  8
0
 10
-4.79900580751
 20
1.82473076943
 30
0.0
  0
VERTEX
  8
0
 10
-4.84836192452
 20
1.8167336767
 30
0.0
  0
VERTEX
  8
0
 10
-4.8976354729
 20
1.80824274898
 30
0.0
  0
VERTEX
  8
0
 10
-4.94681855741
 20
1.79924268293
 30
0.0
  0
VERTEX
  8
0
 10
-4.99590271858
 20
1.78971794662
 30
0.0
  0
VERTEX
  8
0
 10
-5.04487890206
 20
1.77965279213
 30
0.0
  0
VERTEX
  8
0
 10
-5.09373742747
 20
1.7690312718
 30
0.0
  0
VERTEX
  8
0
 10
-5.14246795685
 20
1.7578372586
 30
0.0
  0
VERTEX
  8
0
 10
-5.19105946303
 20
1.74605447102
 30
0.0
  0
VERTEX
  8
0
 10
-5.20458715596
 20
1.74266055046
 30
0.0
  0
SEQEND
  8
0
  0
POLYLINE
  8
0
 62
0
 70
0
 66
1
 10
0.0
 20
0.0
 30
0.0
  0
VERTEX
  8
0
 10
-4.06146788991
 20
2.14082568807
 30
0.0
  0
VERTEX
  8
0
 10
-4.06560583052
 20
2.09105717423
 30
0.0
  0
VERTEX
  8
0
 10
-4.0785462761
 20
2.04283747873
 30
0.0
  0
VERTEX
  8
0
 10
-4.10062983388
 20
1.99807396522
 30
0.0
  0
VERTEX
  8
0
 10
-4.13140353801
 20
1.95878079805
 30
0.0
  0
VERTEX
  8
0
 10
-4.16960091863
 20
1.92665224495
 30
0.0
  0
VERTEX
  8
0
 10
-4.21341620312
 20
1.90272677702
 30
0.0
  0
VERTEX
  8
0
 10
-4.26090989965
 20
1.88730712666
 30
0.0
  0
VERTEX
  8
0
 10
-4.30229357798
 20
1.88073394495
 30
0.0
  0
SEQEND
  8
0
  0
POLYLINE
  8
0
 62
0
 70
0
 66
1
 10
0.0
 20
0.0
 30
0.0
  0
VERTEX
  8
0
 10
-4.14174311927
 20
2.74128440367
 30
0.0
  0
VERTEX
  8
0
 10
-4.10889724235
 20
2.70369614782
 30
0.0
  0
VERTEX
  8
0
 10
-4.08414824775
 20
2.66034562349
 30
0.0
  0
VERTEX
  8
0
 10
-4.06833304789
 20
2.61299492551
 30
0.0
  0
VERTEX
  8
0
 10
-4.06170987237
 20
2.5635072173
 30
0.0
  0
VERTEX
  8
0
 10
-4.06146788991
 20
2.55183486239
 30
0.0
  0
SEQEND
  8
0
  0
POLYLINE
  8
0
 62
0
 70
0
 66
1
 10
0.0
 20
0.0
 30
0.0
  0
VERTEX
  8
0
 10
-4.3376146789
 20
2.8119266055
 30
0.0
  0
VERTEX
  8
0
 10
-4.28770165895
 20
2.81133419907
 30
0.0
  0
VERTEX
  8
0
 10
-4.23896989511
 20
2.80055859718
 30
0.0
  0
VERTEX
  8
0
 10
-4.19347717222
 20
2.7800173743
 30
0.0
  0
VERTEX
  8
0
 10
-4.15274314667
 20
2.75114131001
 30
0.0
  0
VERTEX
  8
0
 10
-4.14174311927
 20
2.74128440367
 30
0.0
  0
SEQEND
  8
0
  0
POLYLINE
  8
0
 62
0
 70
0
 66
1
 10
0.0
 20
0.0
 30
0.0
  0
VERTEX
  8
0
 10
-5.84678899083
 20
2.52935779817
 30
0.0
  0
VERTEX
  8
0
 10
-5.79976640884
 20
2.54635304981
 30
0.0
  0
VERTEX
  8
0
 10
-5.75252021729
 20
2.56271644513
 30
0.0
  0
VERTEX
  8
0
 10
-5.70506321815
 20
2.57845804787
 30
0.0
  0
VERTEX
  8
0
 10
-5.65740775541
 20
2.59358825512
 30
0.0
  0
VERTEX
  8
0
 10
-5.60956570878
 20
2.60811775339
 30
0.0
  0
VERTEX
  8
0
 10
-5.56154849038
 20
2.62205747701
 30
0.0
  0
VERTEX
  8
0
 10
-5.51336704414
 20
2.63541856878
 30
0.0
  0
VERTEX
  8
0
 10
-5.46503184776
 20
2.64821234324
 30
0.0
  0
VERTEX
  8
0
 10
-5.41655291671
 20
2.66045025234
 30
0.0
  0
VERTEX
  8
0
 10
-5.36793981024
 20
2.67214385379
 30
0.0
  0
VERTEX
  8
0
 10
-5.31920163893
 20
2.68330478181
 30
0.0
  0
VERTEX
  8
0
 10
-5.27034707374
 20
2.69394472056
 30
0.0
  0
VERTEX
  8
0
 10
-5.2213843561
 20
2.70407537987
 30
0.0
  0
VERTEX
  8
0
 10
-5.17232130909
 20
2.71370847346
 30
0.0
  0
VERTEX
  8
0
 10
-5.12316534921
 20
2.72285569935
 30
0.0
  0
VERTEX
  8
0
 10
-5.07392349895
 20
2.73152872263
 30
0.0
  0
VERTEX
  8
0
 10
-5.02460239956
 20
2.73973916016
 30
0.0
  0
VERTEX
  8
0
 10
-4.97520832431
 20
2.74749856737
 30
0.0
  0
VERTEX
  8
0
 10
-4.92574719181
 20
2.75481842689
 30
0.0
  0
VERTEX
  8
0
 10
-4.87622457937
 20
2.76171013897
 30
0.0
  0
VERTEX
  8
0
 10
-4.82664573644
 20
2.76818501358
 30
0.0
  0
VERTEX
  8
0
 10
-4.77701559778
 20
2.77425426402
 30
0.0
  0
VERTEX
  8
0
 10
-4.72733879661
 20
2.77992900202
 30
0.0
  0
VERTEX
  8
0
 10
-4.67761967738
 20
2.78522023422
 30
0.0
  0
VERTEX
  8
0
 10
-4.62786230832
 20
2.79013885989
 30
0.0
  0
VERTEX
  8
0
 10
-4.57807049367
 20
2.79469566978
 30
0.0
  0
VERTEX
  8
0
 10
-4.52824778551
 20
2.7989013462
 30
0.0
  0
VERTEX
  8
0
 10
-4.47839749525
 20
2.802766464
 30
0.0
  0
VERTEX
  8
0
 10
-4.4285227047
 20
2.8063014926
 30
0.0
  0
VERTEX
  8
0
 10
-4.37862627672
 20
2.80951679891
 30
0.0
  0
VERTEX
  8
0
 10
-4.3376146789
 20
2.8119266055
 30
0.0
  0
SEQEND
  8
0
  0
POLYLINE
  8
0
 62
0
 70
0
 66
1
 10
0.0
 20
0.0
 30
0.0
  0
VERTEX
  8
0
 10
-3.40321100917
 20
-2.86834862385
 30
0.0
  0
VERTEX
  8
0
 10
-3.43519725921
 20
-2.83001022367
 30
0.0
  0
VERTEX
  8
0
 10
-3.45925498769
 20
-2.78627231899
 30
0.0
  0
VERTEX
  8
0
 10
-3.47422304963
 20
-2.73864863033
 30
0.0
  0
VERTEX
  8
0
 10
-3.48011112587
 20
-2.68906128264
 30
0.0
  0
VERTEX
  8
0
 10
-3.48027522936
 20
-2.67889908257
 30
0.0
  0
SEQEND
  8
0
  0
POLYLINE
  8
0
 62
0
 70
0
 66
1
 10
0.0
 20
0.0
 30
0.0
  0
VERTEX
  8
0
 10
-3.21376146789
 20
-2.93899082569
 30
0.0
  0
VERTEX
  8
0
 10
-3.26361795254
 20
-2.93643878611
 30
0.0
  0
VERTEX
  8
0
 10
-3.3120357481
 20
-2.92428218395
 30
0.0
  0
VERTEX
  8
0
 10
-3.35719606938
 20
-2.90300321222
 30
0.0
  0
VERTEX
  8
0
 10
-3.39750632804
 20
-2.87354623839
 30
0.0
  0
VERTEX
  8
0
 10
-3.40321100917
 20
-2.86834862385
 30
0.0
  0
SEQEND
  8
0
  0
POLYLINE
  8
0
 62
0
 70
0
 66
1
 10
0.0
 20
0.0
 30
0.0
  0
VERTEX
  8
0
 10
-1.40596330275
 20
-2.65
 30
0.0
  0
VERTEX
  8
0
 10
-1.45304519081
 20
-2.66683025225
 30
0.0
  0
VERTEX
  8
0
 10
-1.50034924574
 20
-2.68302560339
 30
0.0
  0
VERTEX
  8
0
 10
-1.54786287523
 20
-2.69859542874
 30
0.0
  0
VERTEX
  8
0
 10
-1.59557386606
 20
-2.71354959992
 30
0.0
  0
VERTEX
  8
0
 10
-1.6434704019
 20
-2.72789843808
 30
0.0
  0
VERTEX
  8
0
 10
-1.69154107767
 20
-2.74165266799
 30
0.0
  0
VERTEX
  8
0
 10
-1.73977491029
 20
-2.75482337361
 30
0.0
  0
VERTEX
  8
0
 10
-1.78816134641
 20
-2.76742195525
 30
0.0
  0
VERTEX
  8
0
 10
-1.83669026709
 20
-2.77946008862
 30
0.0
  0
VERTEX
  8
0
 10
-1.88535198981
 20
-2.79094968598
 30
0.0
  0
VERTEX
  8
0
 10
-1.93413726806
 20
-2.80190285942
 30
0.0
  0
VERTEX
  8
0
 10
-1.98303728871
 20
-2.81233188649
 30
0.0
  0
VERTEX
  8
0
 10
-2.03204366748
 20
-2.82224917817
 30
0.0
  0
VERTEX
  8
0
 10
-2.08114844263
 20
-2.83166724927
 30
0.0
  0
VERTEX
  8
0
 10
-2.13034406729
 20
-2.84059869117
 30
0.0
  0
VERTEX
  8
0
 10
-2.17962340048
 20
-2.84905614697
 30
0.0
  0
VERTEX
  8
0
 10
-2.22897969704
 20
-2.85705228895
 30
0.0
  0
VERTEX
  8
0
 10
-2.2784065968
 20
-2.86459979831
 30
0.0
  0
VERTEX
  8
0
 10
-2.32789811298
 20
-2.87171134711
 30
0.0
  0
VERTEX
  8
0
 10
-2.37744862009
 20
-2.87839958232
 30
0.0
  0
VERTEX
  8
0
 10
-2.42705284144
 20
-2.88467711185
 30
0.0
  0
VERTEX
  8
0
 10
-2.47670583635
 20
-2.89055649259
 30
0.0
  0
VERTEX
  8
0
 10
-2.52640298731
 20
-2.89605022016
 30
0.0
  0
VERTEX
  8
0
 10
-2.57613998693
 20
-2.90117072043
 30
0.0
  0
VERTEX
  8
0
 10
-2.62591282504
 20
-2.90593034272
 30
0.0
  0
VERTEX
  8
0
 10
-2.67571777583
 20
-2.9103413544
 30
0.0
  0
VERTEX
  8
0
 10
-2.72555138518
 20
-2.91441593702
 30
0.0
  0
VERTEX
  8
0
 10
-2.77541045815
 20
-2.91816618369
 30
0.0
  0
VERTEX
  8
0
 10
-2.82529204682
 20
-2.92160409779
 30
0.0
  0
VERTEX
  8
0
 10
-2.87519343828
 20
-2.92474159277
 30
0.0
  0
VERTEX
  8
0
 10
-2.92511214304
 20
-2.92759049302
 30
0.0
  0
VERTEX
  8
0
 10
-2.97504588372
 20
-2.93016253582
 30
0.0
  0
VERTEX
  8
0
 10
-3.02499258409
 20
-2.93246937417
 30
0.0
  0
VERTEX
  8
0
 10
-3.0749503584
 20
-2.93452258057
 30
0.0
  0
VERTEX
  8
0
 10
-3.12491750119
 20
-2.93633365151
 30
0.0
  0
VERTEX
  8
0
 10
-3.17489247727
 20
-2.9379140129
 30
0.0
  0
VERTEX
  8
0
 10
-3.21376146789
 20
-2.93899082569
 30
0.0
  0
SEQEND
  8
0
  0
POLYLINE
  8
0
 62
0
 70
0
 66
1
 10
0.0
 20
0.0
 30
0.0
  0
VERTEX
  8
0
 10
-0.43623853211
 20
-1.33027522936
 30
0.0
  0
VERTEX
  8
0
 10
-0.440010167107
 20
-1.38013111294
 30
0.0
  0
VERTEX
  8
0
 10
-0.445201633633
 20
-1.42985912846
 30
0.0
  0
VERTEX
  8
0
 10
-0.451839944647
 20
-1.47941467354
 30
0.0
  0
VERTEX
  8
0
 10
-0.459950309908
 20
-1.52875059843
 30
0.0
  0
VERTEX
  8
0
 10
-0.469555817014
 20
-1.57781726733
 30
0.0
  0
VERTEX
  8
0
 10
-0.480677100785
 20
-1.62656265774
 30
0.0
  0
VERTEX
  8
0
 10
-0.493332005411
 20
-1.67493250151
 30
0.0
  0
VERTEX
  8
0
 10
-0.507535245367
 20
-1.72287047062
 30
0.0
  0
VERTEX
  8
0
 10
-0.523298072036
 20
-1.77031840985
 30
0.0
  0
VERTEX
  8
0
 10
-0.540627953912
 20
-1.8172166174
 30
0.0
  0
VERTEX
  8
0
 10
-0.559528278943
 20
-1.86350417308
 30
0.0
  0
VERTEX
  8
0
 10
-0.579998088059
 20
-1.90911931196
 30
0.0
  0
VERTEX
  8
0
 10
-0.602031848999
 20
-1.95399983991
 30
0.0
  0
VERTEX
  8
0
 10
-0.625619279277
 20
-1.99808358517
 30
0.0
  0
VERTEX
  8
0
 10
-0.650745226351
 20
-2.04130887867
 30
0.0
  0
VERTEX
  8
0
 10
-0.677389611824
 20
-2.08361505376
 30
0.0
  0
VERTEX
  8
0
 10
-0.705527444853
 20
-2.12494295487
 30
0.0
  0
VERTEX
  8
0
 10
-0.735128907839
 20
-2.1652354435
 30
0.0
  0
VERTEX
  8
0
 10
-0.766159515157
 20
-2.20443788915
 30
0.0
  0
VERTEX
  8
0
 10
-0.798580343106
 20
-2.24249863326
 30
0.0
  0
VERTEX
  8
0
 10
-0.832348326783
 20
-2.27936941444
 30
0.0
  0
VERTEX
  8
0
 10
-0.867416617158
 20
-2.31500574464
 30
0.0
  0
VERTEX
  8
0
 10
-0.903734989579
 20
-2.34936722746
 30
0.0
  0
VERTEX
  8
0
 10
-0.941250293257
 20
-2.3824178121
 30
0.0
  0
VERTEX
  8
0
 10
-0.979906930206
 20
-2.41412597852
 30
0.0
  0
VERTEX
  8
0
 10
-1.01964735153
 20
-2.4444648522
 30
0.0
  0
VERTEX
  8
0
 10
-1.060412559
 20
-2.47341224889
 30
0.0
  0
VERTEX
  8
0
 10
-1.10214260053
 20
-2.50095065249
 30
0.0
  0
VERTEX
  8
0
 10
-1.14477704899
 20
-2.52706713071
 30
0.0
  0
VERTEX
  8
0
 10
-1.18825545555
 20
-2.55175319505
 30
0.0
  0
VERTEX
  8
0
 10
-1.23251776999
 20
-2.5750046125
 30
0.0
  0
VERTEX
  8
0
 10
-1.27750472256
 20
-2.59682117739
 30
0.0
  0
VERTEX
  8
0
 10
-1.32315816341
 20
-2.61720645171
 30
0.0
  0
VERTEX
  8
0
 10
-1.36942135755
 20
-2.63616748249
 30
0.0
  0
VERTEX
  8
0
 10
-1.40596330275
 20
-2.65
 30
0.0
  0
SEQEND
  8
0
  0
POLYLINE
  8
0
 62
0
 70
0
 66
1
 10
0.0
 20
0.0
 30
0.0
  0
VERTEX
  8
0
 10
-1.24220183486
 20
0.098623853211
 30
0.0
  0
VERTEX
  8
0
 10
-1.19794567512
 20
0.0753603759646
 30
0.0
  0
VERTEX
  8
0
 10
-1.15444347524
 20
0.0507159259196
 30
0.0
  0
VERTEX
  8
0
 10
-1.11175140605
 20
0.0246934168493
 30
0.0
  0
VERTEX
  8
0
 10
-1.06992626665
 20
-0.00270065428109
 30
0.0
  0
VERTEX
  8
0
 10
-1.02902517778
 20
-0.031456041621
 30
0.0
  0
VERTEX
  8
0
 10
-0.989105248887
 20
-0.0615586153545
 30
0.0
  0
VERTEX
  8
0
 10
-0.950223222817
 20
-0.0929902620067
 30
0.0
  0
VERTEX
  8
0
 10
-0.912435102673
 20
-0.125728824679
 30
0.0
  0
VERTEX
  8
0
 10
-0.875795766574
 20
-0.159748087043
 30
0.0
  0
VERTEX
  8
0
 10
-0.840358576653
 20
-0.195017804022
 30
0.0
  0
VERTEX
  8
0
 10
-0.806174989281
 20
-0.23150378102
 30
0.0
  0
VERTEX
  8
0
 10
-0.773294173848
 20
-0.269168002336
 30
0.0
  0
VERTEX
  8
0
 10
-0.741762647559
 20
-0.307968808089
 30
0.0
  0
VERTEX
  8
0
 10
-0.71162393354
 20
-0.34786111762
 30
0.0
  0
VERTEX
  8
0
 10
-0.682918249109
 20
-0.388796696029
 30
0.0
  0
VERTEX
  8
0
 10
-0.655682230363
 20
-0.430724459278
 30
0.0
  0
VERTEX
  8
0
 10
-0.629948698309
 20
-0.473590812211
 30
0.0
  0
VERTEX
  8
0
 10
-0.605746470584
 20
-0.517340013002
 30
0.0
  0
VERTEX
  8
0
 10
-0.583100221601
 20
-0.561914556918
 30
0.0
  0
VERTEX
  8
0
 10
-0.562030392567
 20
-0.607255571958
 30
0.0
  0
VERTEX
  8
0
 10
-0.542553151487
 20
-0.653303218871
 30
0.0
  0
VERTEX
  8
0
 10
-0.524680401968
 20
-0.699997088259
 30
0.0
  0
VERTEX
  8
0
 10
-0.508419838469
 20
-0.747276587951
 30
0.0
  0
VERTEX
  8
0
 10
-0.493775044593
 20
-0.795081314457
 30
0.0
  0
VERTEX
  8
0
 10
-0.480745630212
 20
-0.843351403183
 30
0.0
  0
VERTEX
  8
0
 10
-0.469327402583
 20
-0.892027852965
 30
0.0
  0
VERTEX
  8
0
 10
-0.459512566203
 20
-0.941052821506
 30
0.0
  0
VERTEX
  8
0
 10
-0.451289945972
 20
-0.990369889272
 30
0.0
  0
VERTEX
  8
0
 10
-0.444645228214
 20
-1.03992429039
 30
0.0
  0
VERTEX
  8
0
 10
-0.439561214288
 20
-1.08966310995
 30
0.0
  0
VERTEX
  8
0
 10
-0.436018081756
 20
-1.13953544794
 30
0.0
  0
VERTEX
  8
0
 10
-0.433993648573
 20
-1.18949255076
 30
0.0
  0
VERTEX
  8
0
 10
-0.433463636286
 20
-1.2394879117
 30
0.0
  0
VERTEX
  8
0
 10
-0.434401928492
 20
-1.28947734249
 30
0.0
  0
VERTEX
  8
0
 10
-0.43623853211
 20
-1.33027522936
 30
0.0
  0
SEQEND
  8
0
  0
POLYLINE
  8
0
 62
0
 70
0
 66
1
 10
0.0
 20
0.0
 30
0.0
  0
VERTEX
  8
0
 10
-0.747706422018
 20
1.43119266055
 30
0.0
  0
VERTEX
  8
0
 10
-0.739122398323
 20
1.38193761567
 30
0.0
  0
VERTEX
  8
0
 10
-0.732281814387
 20
1.33241042588
 30
0.0
  0
VERTEX
  8
0
 10
-0.727221713098
 20
1.28266986598
 30
0.0
  0
VERTEX
  8
0
 10
-0.723974581
 20
1.23277821748
 30
0.0
  0
VERTEX
  8
0
 10
-0.722567817479
 20
1.18280087411
 30
0.0
  0
VERTEX
  8
0
 10
-0.72302325931
 20
1.13280586698
 30
0.0
  0
VERTEX
  8
0
 10
-0.725356777493
 20
1.08286331761
 30
0.0
  0
VERTEX
  8
0
 10
-0.72957796148
 20
1.03304483054
 30
0.0
  0
VERTEX
  8
0
 10
-0.735689904091
 20
0.983422840565
 30
0.0
  0
VERTEX
  8
0
 10
-0.74368909672
 20
0.934069932408
 30
0.0
  0
VERTEX
  8
0
 10
-0.753565438065
 20
0.88505815197
 30
0.0
  0
VERTEX
  8
0
 10
-0.765302358267
 20
0.836458329342
 30
0.0
  0
VERTEX
  8
0
 10
-0.778877051023
 20
0.788339432369
 30
0.0
  0
VERTEX
  8
0
 10
-0.794260805837
 20
0.740767968376
 30
0.0
  0
VERTEX
  8
0
 10
-0.811419427831
 20
0.693807449077
 30
0.0
  0
VERTEX
  8
0
 10
-0.830313729544
 20
0.647517930334
 30
0.0
  0
VERTEX
  8
0
 10
-0.850900075898
 20
0.601955634095
 30
0.0
  0
VERTEX
  8
0
 10
-0.873130965241
 20
0.557172656712
 30
0.0
  0
VERTEX
  8
0
 10
-0.896955628389
 20
0.513216763812
 30
0.0
  0
VERTEX
  8
0
 10
-0.922320629133
 20
0.470131268714
 30
0.0
  0
VERTEX
  8
0
 10
-0.949170451657
 20
0.427954988754
 30
0.0
  0
VERTEX
  8
0
 10
-0.977448062421
 20
0.38672227177
 30
0.0
  0
VERTEX
  8
0
 10
-1.0070954367
 20
0.346463083613
 30
0.0
  0
VERTEX
  8
0
 10
-1.0380540425
 20
0.307203146826
 30
0.0
  0
VERTEX
  8
0
 10
-1.07026527754
 20
0.268964120774
 30
0.0
  0
VERTEX
  8
0
 10
-1.10367085627
 20
0.231763813329
 30
0.0
  0
VERTEX
  8
0
 10
-1.13821314674
 20
0.195616415276
 30
0.0
  0
VERTEX
  8
0
 10
-1.1738354582
 20
0.160532749347
 30
0.0
  0
VERTEX
  8
0
 10
-1.21048228127
 20
0.12652052651
 30
0.0
  0
VERTEX
  8
0
 10
-1.24220183486
 20
0.098623853211
 30
0.0
  0
SEQEND
  8
0
  0
POLYLINE
  8
0
 62
0
 70
0
 66
1
 10
0.0
 20
0.0
 30
0.0
  0
VERTEX
  8
0
 10
-1.69495412844
 20
2.52935779817
 30
0.0
  0
VERTEX
  8
0
 10
-1.6482294515
 20
2.51156451339
 30
0.0
  0
VERTEX
  8
0
 10
-1.60208764027
 20
2.49231030712
 30
0.0
  0
VERTEX
  8
0
 10
-1.55658241502
 20
2.4715965283
 30
0.0
  0
VERTEX
  8
0
 10
-1.51176814657
 20
2.44942757138
 30
0.0
  0
VERTEX
  8
0
 10
-1.46769964879
 20
2.42581096326
 30
0.0
  0
VERTEX
  8
0
 10
-1.42443196118
 20
2.40075743082
 30
0.0
  0
VERTEX
  8
0
 10
-1.38202012338
 20
2.37428094778
 30
0.0
  0
VERTEX
  8
0
 10
-1.34051894392
 20
2.34639876034
 30
0.0
  0
VERTEX
  8
0
 10
-1.29998276516
 20
2.31713139098
 30
0.0
  0
VERTEX
  8
0
 10
-1.26046522675
 20
2.28650262044
 30
0.0
  0
VERTEX
  8
0
 10
-1.22201902957
 20
2.25453944799
 30
0.0
  0
VERTEX
  8
0
 10
-1.18469570212
 20
2.2212720304
 30
0.0
  0
VERTEX
  8
0
 10
-1.14854537151
 20
2.18673360035
 30
0.0
  0
VERTEX
  8
0
 10
-1.11361654039
 20
2.15096036501
 30
0.0
  0
VERTEX
  8
0
 10
-1.07995587192
 20
2.11399138594
 30
0.0
  0
VERTEX
  8
0
 10
-1.04760798379
 20
2.07586844127
 30
0.0
  0
VERTEX
  8
0
 10
-1.016615253
 20
2.0366358714
 30
0.0
  0
VERTEX
  8
0
 10
-0.987017632463
 20
1.99634040957
 30
0.0
  0
VERTEX
  8
0
 10
-0.958852480569
 20
1.95503099836
 30
0.0
  0
VERTEX
  8
0
 10
-0.932154404858
 20
1.9127585936
 30
0.0
  0
VERTEX
  8
0
 10
-0.906955120741
 20
1.86957595692
 30
0.0
  0
VERTEX
  8
0
 10
-0.883283326252
 20
1.82553743833
 30
0.0
  0
VERTEX
  8
0
 10
-0.86116459377
 20
1.78069875022
 30
0.0
  0
VERTEX
  8
0
 10
-0.840621279599
 20
1.73511673422
 30
0.0
  0
VERTEX
  8
0
 10
-0.821672452201
 20
1.6888491225
 30
0.0
  0
VERTEX
  8
0
 10
-0.804333839897
 20
1.64195429511
 30
0.0
  0
VERTEX
  8
0
 10
-0.788617798664
 20
1.59449103502
 30
0.0
  0
VERTEX
  8
0
 10
-0.774533300559
 20
1.54651828288
 30
0.0
  0
VERTEX
  8
0
 10
-0.762085943135
 20
1.49809489316
 30
0.0
  0
VERTEX
  8
0
 10
-0.751277980297
 20
1.44927939395
 30
0.0
  0
VERTEX
  8
0
 10
-0.747706422018
 20
1.43119266055
 30
0.0
  0
SEQEND
  8
0
  0
POLYLINE
  8
0
 62
0
 70
0
 66
1
 10
0.0
 20
0.0
 30
0.0
  0
VERTEX
  8
0
 10
-3.20412844037
 20
2.8119266055
 30
0.0
  0
VERTEX
  8
0
 10
-3.15421626604
 20
2.80896570188
 30
0.0
  0
VERTEX
  8
0
 10
-3.10432362742
 20
2.80569214813
 30
0.0
  0
VERTEX
  8
0
 10
-3.05445324852
 20
2.802095445
 30
0.0
  0
VERTEX
  8
0
 10
-3.0046080667
 20
2.79816502372
 30
0.0
  0
VERTEX
  8
0
 10
-2.95479124213
 20
2.79389024609
 30
0.0
  0
VERTEX
  8
0
 10
-2.90500616749
 20
2.78926040559
 30
0.0
  0
VERTEX
  8
0
 10
-2.85525647786
 20
2.78426472941
 30
0.0
  0
VERTEX
  8
0
 10
-2.80554606075
 20
2.77889238163
 30
0.0
  0
VERTEX
  8
0
 10
-2.75587906625
 20
2.77313246746
 30
0.0
  0
VERTEX
  8
0
 10
-2.70625991728
 20
2.76697403876
 30
0.0
  0
VERTEX
  8
0
 10
-2.65669331981
 20
2.76040610075
 30
0.0
  0
VERTEX
  8
0
 10
-2.60718427307
 20
2.75341762011
 30
0.0
  0
VERTEX
  8
0
 10
-2.55773807963
 20
2.74599753446
 30
0.0
  0
VERTEX
  8
0
 10
-2.50836035528
 20
2.73813476331
 30
0.0
  0
VERTEX
  8
0
 10
-2.45905703859
 20
2.72981822059
 30
0.0
  0
VERTEX
  8
0
 10
-2.40983440019
 20
2.72103682872
 30
0.0
  0
VERTEX
  8
0
 10
-2.36069905137
 20
2.71177953443
 30
0.0
  0
VERTEX
  8
0
 10
-2.31165795225
 20
2.70203532622
 30
0.0
  0
VERTEX
  8
0
 10
-2.26271841902
 20
2.69179325361
 30
0.0
  0
VERTEX
  8
0
 10
-2.21388813038
 20
2.68104244824
 30
0.0
  0
VERTEX
  8
0
 10
-2.16517513294
 20
2.66977214672
 30
0.0
  0
VERTEX
  8
0
 10
-2.11658784529
 20
2.65797171531
 30
0.0
  0
VERTEX
  8
0
 10
-2.06813506078
 20
2.6456306765
 30
0.0
  0
VERTEX
  8
0
 10
-2.01982594873
 20
2.63273873722
 30
0.0
  0
VERTEX
  8
0
 10
-1.97167005381
 20
2.61928581895
 30
0.0
  0
VERTEX
  8
0
 10
-1.92367729357
 20
2.60526208933
 30
0.0
  0
VERTEX
  8
0
 10
-1.87585795379
 20
2.59065799541
 30
0.0
  0
VERTEX
  8
0
 10
-1.82822268159
 20
2.57546429821
 30
0.0
  0
VERTEX
  8
0
 10
-1.78078247596
 20
2.55967210863
 30
0.0
  0
VERTEX
  8
0
 10
-1.73354867578
 20
2.54327292431
 30
0.0
  0
VERTEX
  8
0
 10
-1.69495412844
 20
2.52935779817
 30
0.0
  0
SEQEND
  8
0
  0
POLYLINE
  8
0
 62
0
 70
0
 66
1
 10
0.0
 20
0.0
 30
0.0
  0
VERTEX
  8
0
 10
-3.4
 20
2.74128440367
 30
0.0
  0
VERTEX
  8
0
 10
-3.36084269694
 20
2.7722732588
 30
0.0
  0
VERTEX
  8
0
 10
-3.31663355854
 20
2.79545694682
 30
0.0
  0
VERTEX
  8
0
 10
-3.26865808983
 20
2.80921554954
 30
0.0
  0
VERTEX
  8
0
 10
-3.21887307114
 20
2.81278659879
 30
0.0
  0
VERTEX
  8
0
 10
-3.20412844037
 20
2.8119266055
 30
0.0
  0
SEQEND
  8
0
  0
POLYLINE
  8
0
 62
0
 70
0
 66
1
 10
0.0
 20
0.0
 30
0.0
  0
VERTEX
  8
0
 10
-3.48027522936
 20
2.55183486239
 30
0.0
  0
VERTEX
  8
0
 10
-3.47577730492
 20
2.60156267971
 30
0.0
  0
VERTEX
  8
0
 10
-3.46210625904
 20
2.64957781889
 30
0.0
  0
VERTEX
  8
0
 10
-3.43938988012
 20
2.69402798554
 30
0.0
  0
VERTEX
  8
0
 10
-3.408330103
 20
2.73310472948
 30
0.0
  0
VERTEX
  8
0
 10
-3.4
 20
2.74128440367
 30
0.0
  0
SEQEND
  8
0
  0
POLYLINE
  8
0
 62
0
 70
0
 66
1
 10
0.0
 20
0.0
 30
0.0
  0
VERTEX
  8
0
 10
-3.23944954128
 20
1.88073394495
 30
0.0
  0
VERTEX
  8
0
 10
-3.28870697223
 20
1.88900701618
 30
0.0
  0
VERTEX
  8
0
 10
-3.33584985894
 20
1.90546345777
 30
0.0
  0
VERTEX
  8
0
 10
-3.37903830396
 20
1.93049479828
 30
0.0
  0
VERTEX
  8
0
 10
-3.41622282337
 20
1.96378323592
 30
0.0
  0
VERTEX
  8
0
 10
-3.44558603974
 20
2.00413792961
 30
0.0
  0
VERTEX
  8
0
 10
-3.46602613741
 20
2.04967646954
 30
0.0
  0
VERTEX
  8
0
 10
-3.47736716544
 20
2.09830144541
 30
0.0
  0
VERTEX
  8
0
 10
-3.48027522936
 20
2.14082568807
 30
0.0
  0
SEQEND
  8
0
  0
POLYLINE
  8
0
 62
0
 70
0
 66
1
 10
0.0
 20
0.0
 30
0.0
  0
VERTEX
  8
0
 10
-2.3371559633
 20
1.74266055046
 30
0.0
  0
VERTEX
  8
0
 10
-2.38573279478
 20
1.75450382824
 30
0.0
  0
VERTEX
  8
0
 10
-2.43444278657
 20
1.76578698676
 30
0.0
  0
VERTEX
  8
0
 10
-2.48327681429
 20
1.77652066645
 30
0.0
  0
VERTEX
  8
0
 10
-2.53222610177
 20
1.78671588935
 30
0.0
  0
VERTEX
  8
0
 10
-2.58128222971
 20
1.79638402177
 30
0.0
  0
VERTEX
  8
0
 10
-2.63043714199
 20
1.80553673813
 30
0.0
  0
VERTEX
  8
0
 10
-2.6796831495
 20
1.81418598605
 30
0.0
  0
VERTEX
  8
0
 10
-2.72901293187
 20
1.82234395287
 30
0.0
  0
VERTEX
  8
0
 10
-2.77841953721
 20
1.83002303384
 30
0.0
  0
VERTEX
  8
0
 10
-2.82789637996
 20
1.83723580198
 30
0.0
  0
VERTEX
  8
0
 10
-2.87743723725
 20
1.84399497977
 30
0.0
  0
VERTEX
  8
0
 10
-2.92703624361
 20
1.85031341275
 30
0.0
  0
VERTEX
  8
0
 10
-2.97668788459
 20
1.85620404495
 30
0.0
  0
VERTEX
  8
0
 10
-3.02638698915
 20
1.86167989632
 30
0.0
  0
VERTEX
  8
0
 10
-3.0761287211
 20
1.86675404197
 30
0.0
  0
VERTEX
  8
0
 10
-3.12590856981
 20
1.87143959344
 30
0.0
  0
VERTEX
  8
0
 10
-3.17572234014
 20
1.87574968164
 30
0.0
  0
VERTEX
  8
0
 10
-3.22556614192
 20
1.87969744175
 30
0.0
  0
VERTEX
  8
0
 10
-3.23944954128
 20
1.88073394495
 30
0.0
  0
SEQEND
  8
0
  0
POLYLINE
  8
0
 62
0
 70
0
 66
1
 10
0.0
 20
0.0
 30
0.0
  0
VERTEX
  8
0
 10
-1.88440366972
 20
1.18394495413
 30
0.0
  0
VERTEX
  8
0
 10
-1.88641111998
 20
1.23389096276
 30
0.0
  0
VERTEX
  8
0
 10
-1.89254506926
 20
1.28349823815
 30
0.0
  0
VERTEX
  8
0
 10
-1.90293071795
 20
1.33239130522
 30
0.0
  0
VERTEX
  8
0
 10
-1.91762614737
 20
1.38016520651
 30
0.0
  0
VERTEX
  8
0
 10
-1.93661195217
 20
1.42640129631
 30
0.0
  0
VERTEX
  8
0
 10
-1.95978642965
 20
1.47068615326
 30
0.0
  0
VERTEX
  8
0
 10
-1.98696754944
 20
1.51263128757
 30
0.0
  0
VERTEX
  8
0
 10
-2.01790166772
 20
1.55189097936
 30
0.0
  0
VERTEX
  8
0
 10
-2.05227765286
 20
1.58817594581
 30
0.0
  0
VERTEX
  8
0
 10
-2.08974419318
 20
1.62126147075
 30
0.0
  0
VERTEX
  8
0
 10
-2.1299278083
 20
1.6509897846
 30
0.0
  0
VERTEX
  8
0
 10
-2.17244944666
 20
1.67726746898
 30
0.0
  0
VERTEX
  8
0
 10
-2.21693827289
 20
1.70005924043
 30
0.0
  0
VERTEX
  8
0
 10
-2.26304203354
 20
1.7193796087
 30
0.0
  0
VERTEX
  8
0
 10
-2.31043402593
 20
1.73528372546
 30
0.0
  0
VERTEX
  8
0
 10
-2.3371559633
 20
1.74266055046
 30
0.0
  0
SEQEND
  8
0
  0
POLYLINE
  8
0
 62
0
 70
0
 66
1
 10
0.0
 20
0.0
 30
0.0
  0
VERTEX
  8
0
 10
-2.3371559633
 20
0.625229357798
 30
0.0
  0
VERTEX
  8
0
 10
-2.28917973307
 20
0.63927502221
 30
0.0
  0
VERTEX
  8
0
 10
-2.2423231725
 20
0.656692167783
 30
0.0
  0
VERTEX
  8
0
 10
-2.19689692817
 20
0.677554569215
 30
0.0
  0
VERTEX
  8
0
 10
-2.15323974427
 20
0.701900408451
 30
0.0
  0
VERTEX
  8
0
 10
-2.11171320966
 20
0.729723119484
 30
0.0
  0
VERTEX
  8
0
 10
-2.07269330989
 20
0.760962455033
 30
0.0
  0
VERTEX
  8
0
 10
-2.03655850722
 20
0.795496913062
 30
0.0
  0
VERTEX
  8
0
 10
-2.00367458068
 20
0.833138948222
 30
0.0
  0
VERTEX
  8
0
 10
-1.97437717862
 20
0.873634449753
 30
0.0
  0
VERTEX
  8
0
 10
-1.94895382598
 20
0.916667638315
 30
0.0
  0
VERTEX
  8
0
 10
-1.92762772702
 20
0.961871757786
 30
0.0
  0
VERTEX
  8
0
 10
-1.91054581515
 20
1.00884483513
 30
0.0
  0
VERTEX
  8
0
 10
-1.89777295162
 20
1.05716867346
 30
0.0
  0
VERTEX
  8
0
 10
-1.88929305326
 20
1.10642852955
 30
0.0
  0
VERTEX
  8
0
 10
-1.88501659234
 20
1.15623088099
 30
0.0
  0
VERTEX
  8
0
 10
-1.88440366972
 20
1.18394495413
 30
0.0
  0
SEQEND
  8
0
  0
POLYLINE
  8
0
 62
0
 70
0
 66
1
 10
0.0
 20
0.0
 30
0.0
  0
VERTEX
  8
0
 10
-3.23944954128
 20
0.483944954128
 30
0.0
  0
VERTEX
  8
0
 10
-3.18960018758
 20
0.487821566632
 30
0.0
  0
VERTEX
  8
0
 10
-3.13978435938
 20
0.492107469339
 30
0.0
  0
VERTEX
  8
0
 10
-3.09000608945
 20
0.496809494903
 30
0.0
  0
VERTEX
  8
0
 10
-3.04026958854
 20
0.501934450524
 30
0.0
  0
VERTEX
  8
0
 10
-2.99057924798
 20
0.507489108966
 30
0.0
  0
VERTEX
  8
0
 10
-2.94093964194
 20
0.513480199023
 30
0.0
  0
VERTEX
  8
0
 10
-2.89135552928
 20
0.519914395426
 30
0.0
  0
VERTEX
  8
0
 10
-2.841831855
 20
0.526798308214
 30
0.0
  0
VERTEX
  8
0
 10
-2.79237375132
 20
0.534138471565
 30
0.0
  0
VERTEX
  8
0
 10
-2.74298653811
 20
0.541941332099
 30
0.0
  0
VERTEX
  8
0
 10
-2.69367572295
 20
0.550213236687
 30
0.0
  0
VERTEX
  8
0
 10
-2.64444700047
 20
0.558960419766
 30
0.0
  0
VERTEX
  8
0
 10
-2.59530625114
 20
0.568188990202
 30
0.0
  0
VERTEX
  8
0
 10
-2.54625953939
 20
0.577904917735
 30
0.0
  0
VERTEX
  8
0
 10
-2.49731311098
 20
0.588114019043
 30
0.0
  0
VERTEX
  8
0
 10
-2.44847338964
 20
0.598821943477
 30
0.0
  0
VERTEX
  8
0
 10
-2.39974697297
 20
0.610034158504
 30
0.0
  0
VERTEX
  8
0
 10
-2.3511406274
 20
0.621755934955
 30
0.0
  0
VERTEX
  8
0
 10
-2.3371559633
 20
0.625229357798
 30
0.0
  0
SEQEND
  8
0
  0
POLYLINE
  8
0
 62
0
 70
0
 66
1
 10
0.0
 20
0.0
 30
0.0
  0
VERTEX
  8
0
 10
-3.48027522936
 20
0.223853211009
 30
0.0
  0
VERTEX
  8
0
 10
-3.47627502732
 20
0.273636963924
 30
0.0
  0
VERTEX
  8
0
 10
-3.46374525014
 20
0.321969375303
 30
0.0
  0
VERTEX
  8
0
 10
-3.44223317953
 20
0.367012723451
 30
0.0
  0
VERTEX
  8
0
 10
-3.41197101233
 20
0.406698547751
 30
0.0
  0
VERTEX
  8
0
 10
-3.37403526689
 20
0.439125857587
 30
0.0
  0
VERTEX
  8
0
 10
-3.33020926791
 20
0.463015082475
 30
0.0
  0
VERTEX
  8
0
 10
-3.28256890021
 20
0.477953570021
 30
0.0
  0
VERTEX
  8
0
 10
-3.23944954128
 20
0.483944954128
 30
0.0
  0
SEQEND
  8
0
  0
POLYLINE
  8
0
 62
0
 70
0
 66
1
 10
0.0
 20
0.0
 30
0.0
  0
VERTEX
  8
0
 10
-3.23302752294
 20
-0.472935779817
 30
0.0
  0
VERTEX
  8
0
 10
-3.28258389694
 20
-0.466734909762
 30
0.0
  0
VERTEX
  8
0
 10
-3.33026913483
 20
-0.451941070684
 30
0.0
  0
VERTEX
  8
0
 10
-3.37415236421
 20
-0.428158763589
 30
0.0
  0
VERTEX
  8
0
 10
-3.41212796053
 20
-0.395780018618
 30
0.0
  0
VERTEX
  8
0
 10
-3.44238365481
 20
-0.356090741511
 30
0.0
  0
VERTEX
  8
0
 10
-3.46384168286
 20
-0.311022259591
 30
0.0
  0
VERTEX
  8
0
 10
-3.47630415309
 20
-0.262672208147
 30
0.0
  0
VERTEX
  8
0
 10
-3.48027522677
 20
-0.212885251058
 30
0.0
  0
VERTEX
  8
0
 10
-3.48027522936
 20
-0.212844036697
 30
0.0
  0
SEQEND
  8
0
  0
POLYLINE
  8
0
 62
0
 70
0
 66
1
 10
0.0
 20
0.0
 30
0.0
  0
VERTEX
  8
0
 10
-2.02889908257
 20
-0.655963302752
 30
0.0
  0
VERTEX
  8
0
 10
-2.07714198882
 20
-0.642825838026
 30
0.0
  0
VERTEX
  8
0
 10
-2.12553512221
 20
-0.63025297985
 30
0.0
  0
VERTEX
  8
0
 10
-2.17406904043
 20
-0.618234991709
 30
0.0
  0
VERTEX
  8
0
 10
-2.22273462704
 20
-0.606761759011
 30
0.0
  0
VERTEX
  8
0
 10
-2.27152310118
 20
-0.595822823885
 30
0.0
  0
VERTEX
  8
0
 10
-2.32042602505
 20
-0.585407419114
 30
0.0
  0
VERTEX
  8
0
 10
-2.36943530914
 20
-0.575504501009
 30
0.0
  0
VERTEX
  8
0
 10
-2.41854321533
 20
-0.566102780893
 30
0.0
  0
VERTEX
  8
0
 10
-2.46774235808
 20
-0.557190755296
 30
0.0
  0
VERTEX
  8
0
 10
-2.51702570391
 20
-0.548756734545
 30
0.0
  0
VERTEX
  8
0
 10
-2.5663865692
 20
-0.540788869688
 30
0.0
  0
VERTEX
  8
0
 10
-2.61581861662
 20
-0.533275177868
 30
0.0
  0
VERTEX
  8
0
 10
-2.66531585026
 20
-0.526203565837
 30
0.0
  0
VERTEX
  8
0
 10
-2.71487260962
 20
-0.519561851754
 30
0.0
  0
VERTEX
  8
0
 10
-2.76448356268
 20
-0.513337785318
 30
0.0
  0
VERTEX
  8
0
 10
-2.81414369804
 20
-0.507519066022
 30
0.0
  0
VERTEX
  8
0
 10
-2.86384831647
 20
-0.502093359805
 30
0.0
  0
VERTEX
  8
0
 10
-2.91359302177
 20
-0.497048314003
 30
0.0
  0
VERTEX
  8
0
 10
-2.96337371127
 20
-0.492371570621
 30
0.0
  0
VERTEX
  8
0
 10
-3.01318656583
 20
-0.488050778113
 30
0.0
  0
VERTEX
  8
0
 10
-3.06302803969
 20
-0.484073601586
 30
0.0
  0
VERTEX
  8
0
 10
-3.11289485004
 20
-0.480427731578
 30
0.0
  0
VERTEX
  8
0
 10
-3.16278396648
 20
-0.477100891454
 30
0.0
  0
VERTEX
  8
0
 10
-3.21269260048
 20
-0.474080843487
 30
0.0
  0
VERTEX
  8
0
 10
-3.23302752294
 20
-0.472935779817
 30
0.0
  0
SEQEND
  8
0
  0
POLYLINE
  8
0
 62
0
 70
0
 66
1
 10
0.0
 20
0.0
 30
0.0
  0
VERTEX
  8
0
 10
-1.59541284404
 20
-1.24036697248
 30
0.0
  0
VERTEX
  8
0
 10
-1.59714495352
 20
-1.19040716693
 30
0.0
  0
VERTEX
  8
0
 10
-1.60244833281
 20
-1.1407004993
 30
0.0
  0
VERTEX
  8
0
 10
-1.61146492787
 20
-1.09153269019
 30
0.0
  0
VERTEX
  8
0
 10
-1.62430411536
 20
-1.04322303862
 30
0.0
  0
VERTEX
  8
0
 10
-1.64103267914
 20
-0.996119723072
 30
0.0
  0
VERTEX
  8
0
 10
-1.66166514982
 20
-0.950591942906
 30
0.0
  0
VERTEX
  8
0
 10
-1.68615568633
 20
-0.907018813603
 30
0.0
  0
VERTEX
  8
0
 10
-1.71439282507
 20
-0.865775443851
 30
0.0
  0
VERTEX
  8
0
 10
-1.74619831039
 20
-0.827217231428
 30
0.0
  0
VERTEX
  8
0
 10
-1.78133078719
 20
-0.79166396283
 30
0.0
  0
VERTEX
  8
0
 10
-1.81949441637
 20
-0.759385596698
 30
0.0
  0
VERTEX
  8
0
 10
-1.860351632
 20
-0.73059150601
 30
0.0
  0
VERTEX
  8
0
 10
-1.90353853528
 20
-0.705424426673
 30
0.0
  0
VERTEX
  8
0
 10
-1.94868103704
 20
-0.683959548177
 30
0.0
  0
VERTEX
  8
0
 10
-1.99540991332
 20
-0.666208326979
 30
0.0
  0
VERTEX
  8
0
 10
-2.02889908257
 20
-0.655963302752
 30
0.0
  0
SEQEND
  8
0
  0
POLYLINE
  8
0
 62
0
 70
0
 66
1
 10
0.0
 20
0.0
 30
0.0
  0
VERTEX
  8
0
 10
-2.02889908257
 20
-1.8247706422
 30
0.0
  0
VERTEX
  8
0
 10
-1.98126991734
 20
-1.8095971419
 30
0.0
  0
VERTEX
  8
0
 10
-1.93497824355
 20
-1.79073602544
 30
0.0
  0
VERTEX
  8
0
 10
-1.89038220782
 20
-1.76815838447
 30
0.0
  0
VERTEX
  8
0
 10
-1.84785394327
 20
-1.74189412063
 30
0.0
  0
VERTEX
  8
0
 10
-1.80776614801
 20
-1.71203845146
 30
0.0
  0
VERTEX
  8
0
 10
-1.7704765313
 20
-1.6787543983
 30
0.0
  0
VERTEX
  8
0
 10
-1.73631169197
 20
-1.64227034406
 30
0.0
  0
VERTEX
  8
0
 10
-1.70555232523
 20
-1.60287248639
 30
0.0
  0
VERTEX
  8
0
 10
-1.678421576
 20
-1.56089288192
 30
0.0
  0
VERTEX
  8
0
 10
-1.65507785419
 20
-1.51669452579
 30
0.0
  0
VERTEX
  8
0
 10
-1.63561264156
 20
-1.47065531949
 30
0.0
  0
VERTEX
  8
0
 10
-1.6200529915
 20
-1.42315275566
 30
0.0
  0
VERTEX
  8
0
 10
-1.60836777715
 20
-1.37455075855
 30
0.0
  0
VERTEX
  8
0
 10
-1.60047640798
 20
-1.32518953273
 30
0.0
  0
VERTEX
  8
0
 10
-1.5962587113
 20
-1.27537867921
 30
0.0
  0
VERTEX
  8
0
 10
-1.59541284404
 20
-1.24036697248
 30
0.0
  0
SEQEND
  8
0
  0
POLYLINE
  8
0
 62
0
 70
0
 66
1
 10
0.0
 20
0.0
 30
0.0
  0
VERTEX
  8
0
 10
-3.23302752294
 20
-2.00779816514
 30
0.0
  0
VERTEX
  8
0
 10
-3.18311168433
 20
-2.0048995889
 30
0.0
  0
VERTEX
  8
0
 10
-3.13321429429
 20
-2.00169919316
 30
0.0
  0
VERTEX
  8
0
 10
-3.08333804586
 20
-1.99818475749
 30
0.0
  0
VERTEX
  8
0
 10
-3.03348586964
 20
-1.99434402043
 30
0.0
  0
VERTEX
  8
0
 10
-2.98366094434
 20
-1.99016468508
 30
0.0
  0
VERTEX
  8
0
 10
-2.93386670735
 20
-1.98563442593
 30
0.0
  0
VERTEX
  8
0
 10
-2.8841068652
 20
-1.98074089705
 30
0.0
  0
VERTEX
  8
0
 10
-2.83438540386
 20
-1.97547174177
 30
0.0
  0
VERTEX
  8
0
 10
-2.78470659878
 20
-1.96981460371
 30
0.0
  0
VERTEX
  8
0
 10
-2.73507502463
 20
-1.96375713954
 30
0.0
  0
VERTEX
  8
0
 10
-2.68549556458
 20
-1.95728703317
 30
0.0
  0
VERTEX
  8
0
 10
-2.63597341906
 20
-1.95039201173
 30
0.0
  0
VERTEX
  8
0
 10
-2.58651411389
 20
-1.94305986317
 30
0.0
  0
VERTEX
  8
0
 10
-2.53712350757
 20
-1.93527845563
 30
0.0
  0
VERTEX
  8
0
 10
-2.48780779769
 20
-1.92703575852
 30
0.0
  0
VERTEX
  8
0
 10
-2.4385735263
 20
-1.91831986541
 30
0.0
  0
VERTEX
  8
0
 10
-2.38942758403
 20
-1.90911901856
 30
0.0
  0
VERTEX
  8
0
 10
-2.34037721285
 20
-1.89942163531
 30
0.0
  0
VERTEX
  8
0
 10
-2.29143000728
 20
-1.88921633593
 30
0.0
  0
VERTEX
  8
0
 10
-2.24259391399
 20
-1.8784919732
 30
0.0
  0
VERTEX
  8
0
 10
-2.1938772294
 20
-1.8672376634
 30
0.0
  0
VERTEX
  8
0
 10
-2.14528859539
 20
-1.8554428186
 30
0.0
  0
VERTEX
  8
0
 10
-2.09683699276
 20
-1.84309718022
 30
0.0
  0
VERTEX
  8
0
 10
-2.04853173242
 20
-1.83019085348
 30
0.0
  0
VERTEX
  8
0
 10
-2.02889908257
 20
-1.8247706422
 30
0.0
  0
SEQEND
  8
0
  0
POLYLINE
  8
0
 62
0
 70
0
 66
1
 10
0.0
 20
0.0
 30
0.0
  0
VERTEX
  8
0
 10
-3.48027522936
 20
-2.26788990826
 30
0.0
  0
VERTEX
  8
0
 10
-3.47631081841
 20
-2.21810240863
 30
0.0
  0
VERTEX
  8
0
 10
-3.46385563079
 20
-2.16975046782
 30
0.0
  0
VERTEX
  8
0
 10
-3.44240505169
 20
-2.1246784284
 30
0.0
  0
VERTEX
  8
0
 10
-3.41215628668
 20
-2.08498386383
 30
0.0
  0
VERTEX
  8
0
 10
-3.37418638332
 20
-2.05259844774
 30
0.0
  0
VERTEX
  8
0
 10
-3.33030716096
 20
-2.02880876885
 30
0.0
  0
VERTEX
  8
0
 10
-3.28262421272
 20
-2.01400759449
 30
0.0
  0
VERTEX
  8
0
 10
-3.23306869828
 20
-2.00779995801
 30
0.0
  0
VERTEX
  8
0
 10
-3.23302752294
 20
-2.00779816514
 30
0.0
  0
SEQEND
  8
0
  0
POLYLINE
  8
0
 62
0
 70
0
 66
1
 10
0.0
 20
0.0
 30
0.0
  0
VERTEX
  8
0
 10
1.40688073394
 20
-1.24678899083
 30
0.0
  0
VERTEX
  8
0
 10
1.45662777071
 20
-1.2511162196
 30
0.0
  0
VERTEX
  8
0
 10
1.50471068632
 20
-1.26454188268
 30
0.0
  0
VERTEX
  8
0
 10
1.5491980414
 20
-1.28717767424
 30
0.0
  0
VERTEX
  8
0
 10
1.5882391805
 20
-1.31828094636
 30
0.0
  0
VERTEX
  8
0
 10
1.62048300783
 20
-1.35639659577
 30
0.0
  0
VERTEX
  8
0
 10
1.64527731215
 20
-1.39974302142
 30
0.0
  0
VERTEX
  8
0
 10
1.65733944954
 20
-1.42981651376
 30
0.0
  0
SEQEND
  8
0
  0
POLYLINE
  8
0
 62
0
 70
0
 66
1
 10
0.0
 20
0.0
 30
0.0
  0
VERTEX
  8
0
 10
0.552752293578
 20
-1.34633027523
 30
0.0
  0
VERTEX
  8
0
 10
0.587164353892
 20
-1.31014413744
 30
0.0
  0
VERTEX
  8
0
 10
0.627642795996
 20
-1.28092743789
 30
0.0
  0
VERTEX
  8
0
 10
0.673103446981
 20
-1.26031679006
 30
0.0
  0
VERTEX
  8
0
 10
0.721754531815
 20
-1.24912817094
 30
0.0
  0
VERTEX
  8
0
 10
0.758256880734
 20
-1.24678899083
 30
0.0
  0
SEQEND
  8
0
  0
POLYLINE
  8
0
 62
0
 70
0
 66
1
 10
0.0
 20
0.0
 30
0.0
  0
VERTEX
  8
0
 10
0.501376146789
 20
-1.57110091743
 30
0.0
  0
VERTEX
  8
0
 10
0.495565539198
 20
-1.52149615633
 30
0.0
  0
VERTEX
  8
0
 10
0.498304523669
 20
-1.47163786179
 30
0.0
  0
VERTEX
  8
0
 10
0.510157136734
 20
-1.42314057655
 30
0.0
  0
VERTEX
  8
0
 10
0.531086140223
 20
-1.37781821943
 30
0.0
  0
VERTEX
  8
0
 10
0.552752293578
 20
-1.34633027523
 30
0.0
  0
SEQEND
  8
0
  0
POLYLINE
  8
0
 62
0
 70
0
 66
1
 10
0.0
 20
0.0
 30
0.0
  0
VERTEX
  8
0
 10
1.43577981651
 20
-2.65
 30
0.0
  0
VERTEX
  8
0
 10
1.38907595436
 20
-2.63215225066
 30
0.0
  0
VERTEX
  8
0
 10
1.34296319957
 20
-2.61282869854
 30
0.0
  0
VERTEX
  8
0
 10
1.29749902631
 20
-2.59202514336
 30
0.0
  0
VERTEX
  8
0
 10
1.25274196218
 20
-2.56974112248
 30
0.0
  0
VERTEX
  8
0
 10
1.20875125954
 20
-2.54598014136
 30
0.0
  0
VERTEX
  8
0
 10
1.16558653083
 20
-2.52074987133
 30
0.0
  0
VERTEX
  8
0
 10
1.12330735219
 20
-2.49406230757
 30
0.0
  0
VERTEX
  8
0
 10
1.08197284076
 20
-2.46593388057
 30
0.0
  0
VERTEX
  8
0
 10
1.04164121296
 20
-2.43638551526
 30
0.0
  0
VERTEX
  8
0
 10
1.00236933161
 20
-2.40544263307
 30
0.0
  0
VERTEX
  8
0
 10
0.964212251329
 20
-2.37313509368
 30
0.0
  0
VERTEX
  8
0
 10
0.92722277186
 20
-2.33949707496
 30
0.0
  0
VERTEX
  8
0
 10
0.891451009423
 20
-2.30456689152
 30
0.0
  0
VERTEX
  8
0
 10
0.856943995986
 20
-2.2683867541
 30
0.0
  0
VERTEX
  8
0
 10
0.823745315704
 20
-2.23100247428
 30
0.0
  0
VERTEX
  8
0
 10
0.791894786715
 20
-2.19246312055
 30
0.0
  0
VERTEX
  8
0
 10
0.761428195079
 20
-2.15282063331
 30
0.0
  0
VERTEX
  8
0
 10
0.732377085963
 20
-2.11212940786
 30
0.0
  0
VERTEX
  8
0
 10
0.704768615267
 20
-2.07044585482
 30
0.0
  0
VERTEX
  8
0
 10
0.678625462871
 20
-2.02782794813
 30
0.0
  0
VERTEX
  8
0
 10
0.653965806844
 20
-1.9843347706
 30
0.0
  0
VERTEX
  8
0
 10
0.630803356052
 20
-1.94002606627
 30
0.0
  0
VERTEX
  8
0
 10
0.609147437113
 20
-1.89496180848
 30
0.0
  0
VERTEX
  8
0
 10
0.58900313033
 20
-1.84920179089
 30
0.0
  0
VERTEX
  8
0
 10
0.570371448294
 20
-1.80280524775
 30
0.0
  0
VERTEX
  8
0
 10
0.553249550255
 20
-1.7558305083
 30
0.0
  0
VERTEX
  8
0
 10
0.537630985066
 20
-1.70833468838
 30
0.0
  0
VERTEX
  8
0
 10
0.523505955529
 20
-1.66037342155
 30
0.0
  0
VERTEX
  8
0
 10
0.510861597066
 20
-1.61200063022
 30
0.0
  0
VERTEX
  8
0
 10
0.501376146789
 20
-1.57110091743
 30
0.0
  0
SEQEND
  8
0
  0
POLYLINE
  8
0
 62
0
 70
0
 66
1
 10
0.0
 20
0.0
 30
0.0
  0
VERTEX
  8
0
 10
3.24357798165
 20
-2.93899082569
 30
0.0
  0
VERTEX
  8
0
 10
3.19359809079
 20
-2.93757430011
 30
0.0
  0
VERTEX
  8
0
 10
3.14362504496
 20
-2.9359340862
 30
0.0
  0
VERTEX
  8
0
 10
3.09366027123
 20
-2.93405883927
 30
0.0
  0
VERTEX
  8
0
 10
3.04370535959
 20
-2.93193716656
 30
0.0
  0
VERTEX
  8
0
 10
2.99376207215
 20
-2.9295576214
 30
0.0
  0
VERTEX
  8
0
 10
2.94383235275
 20
-2.9269086982
 30
0.0
  0
VERTEX
  8
0
 10
2.89391833683
 20
-2.92397882823
 30
0.0
  0
VERTEX
  8
0
 10
2.84402236153
 20
-2.9207563763
 30
0.0
  0
VERTEX
  8
0
 10
2.79414697619
 20
-2.91722963837
 30
0.0
  0
VERTEX
  8
0
 10
2.74429495305
 20
-2.9133868401
 30
0.0
  0
VERTEX
  8
0
 10
2.69446929823
 20
-2.90921613649
 30
0.0
  0
VERTEX
  8
0
 10
2.64467326297
 20
-2.9047056126
 30
0.0
  0
VERTEX
  8
0
 10
2.59491035507
 20
-2.89984328544
 30
0.0
  0
VERTEX
  8
0
 10
2.54518435048
 20
-2.89461710713
 30
0.0
  0
VERTEX
  8
0
 10
2.49549930509
 20
-2.88901496933
 30
0.0
  0
VERTEX
  8
0
 10
2.44585956654
 20
-2.88302470921
 30
0.0
  0
VERTEX
  8
0
 10
2.39626978602
 20
-2.87663411673
 30
0.0
  0
VERTEX
  8
0
 10
2.3467349301
 20
-2.86983094367
 30
0.0
  0
VERTEX
  8
0
 10
2.29726029237
 20
-2.86260291417
 30
0.0
  0
VERTEX
  8
0
 10
2.24785150479
 20
-2.85493773713
 30
0.0
  0
VERTEX
  8
0
 10
2.19851454875
 20
-2.8468231204
 30
0.0
  0
VERTEX
  8
0
 10
2.14925576568
 20
-2.83824678684
 30
0.0
  0
VERTEX
  8
0
 10
2.10008186696
 20
-2.82919649245
 30
0.0
  0
VERTEX
  8
0
 10
2.05099994316
 20
-2.81966004645
 30
0.0
  0
VERTEX
  8
0
 10
2.00201747228
 20
-2.80962533346
 30
0.0
  0
VERTEX
  8
0
 10
1.95314232702
 20
-2.79908033791
 30
0.0
  0
VERTEX
  8
0
 10
1.90438278059
 20
-2.78801317043
 30
0.0
  0
VERTEX
  8
0
 10
1.85574751119
 20
-2.77641209656
 30
0.0
  0
VERTEX
  8
0
 10
1.80724560477
 20
-2.76426556743
 30
0.0
  0
VERTEX
  8
0
 10
1.7588865558
 20
-2.75156225257
 30
0.0
  0
VERTEX
  8
0
 10
1.71068026603
 20
-2.73829107479
 30
0.0
  0
VERTEX
  8
0
 10
1.66263704085
 20
-2.72444124678
 30
0.0
  0
VERTEX
  8
0
 10
1.61476758306
 20
-2.71000230957
 30
0.0
  0
VERTEX
  8
0
 10
1.56708298395
 20
-2.69496417241
 30
0.0
  0
VERTEX
  8
0
 10
1.51959471133
 20
-2.67931715404
 30
0.0
  0
VERTEX
  8
0
 10
1.47231459444
 20
-2.66305202496
 30
0.0
  0
VERTEX
  8
0
 10
1.43577981651
 20
-2.65
 30
0.0
  0
SEQEND
  8
0
  0
POLYLINE
  8
0
 62
0
 70
0
 66
1
 10
0.0
 20
0.0
 30
0.0
  0
VERTEX
  8
0
 10
3.43302752294
 20
-2.86834862385
 30
0.0
  0
VERTEX
  8
0
 10
3.39372315172
 20
-2.89914399681
 30
0.0
  0
VERTEX
  8
0
 10
3.34931360626
 20
-2.9219386719
 30
0.0
  0
VERTEX
  8
0
 10
3.30124638285
 20
-2.93539491154
 30
0.0
  0
VERTEX
  8
0
 10
3.25146756072
 20
-2.9392247883
 30
0.0
  0
VERTEX
  8
0
 10
3.24357798165
 20
-2.93899082569
 30
0.0
  0
SEQEND
  8
0
  0
POLYLINE
  8
0
 62
0
 70
0
 66
1
 10
0.0
 20
0.0
 30
0.0
  0
VERTEX
  8
0
 10
3.51330275229
 20
-2.67889908257
 30
0.0
  0
VERTEX
  8
0
 10
3.5087331824
 20
-2.72861716706
 30
0.0
  0
VERTEX
  8
0
 10
3.49473065923
 20
-2.77653225501
 30
0.0
  0
VERTEX
  8
0
 10
3.47168465685
 20
-2.82081784189
 30
0.0
  0
VERTEX
  8
0
 10
3.44092652674
 20
-2.86015754552
 30
0.0
  0
VERTEX
  8
0
 10
3.43302752294
 20
-2.86834862385
 30
0.0
  0
SEQEND
  8
0
  0
POLYLINE
  8
0
 62
0
 70
0
 66
1
 10
0.0
 20
0.0
 30
0.0
  0
VERTEX
  8
0
 10
3.26605504587
 20
-2.00779816514
 30
0.0
  0
VERTEX
  8
0
 10
3.31561141988
 20
-2.01399903519
 30
0.0
  0
VERTEX
  8
0
 10
3.36329665777
 20
-2.02879287427
 30
0.0
  0
VERTEX
  8
0
 10
3.40717988715
 20
-2.05257518137
 30
0.0
  0
VERTEX
  8
0
 10
3.44515548347
 20
-2.08495392634
 30
0.0
  0
VERTEX
  8
0
 10
3.47541117775
 20
-2.12464320344
 30
0.0
  0
VERTEX
  8
0
 10
3.49686920579
 20
-2.16971168536
 30
0.0
  0
VERTEX
  8
0
 10
3.50933167602
 20
-2.21806173681
 30
0.0
  0
VERTEX
  8
0
 10
3.5133027497
 20
-2.2678486939
 30
0.0
  0
VERTEX
  8
0
 10
3.51330275229
 20
-2.26788990826
 30
0.0
  0
SEQEND
  8
0
  0
POLYLINE
  8
0
 62
0
 70
0
 66
1
 10
0.0
 20
0.0
 30
0.0
  0
VERTEX
  8
0
 10
2.0619266055
 20
-1.8247706422
 30
0.0
  0
VERTEX
  8
0
 10
2.11016951176
 20
-1.83790810693
 30
0.0
  0
VERTEX
  8
0
 10
2.15856264514
 20
-1.8504809651
 30
0.0
  0
VERTEX
  8
0
 10
2.20709656337
 20
-1.86249895325
 30
0.0
  0
VERTEX
  8
0
 10
2.25576214997
 20
-1.87397218594
 30
0.0
  0
VERTEX
  8
0
 10
2.30455062411
 20
-1.88491112107
 30
0.0
  0
VERTEX
  8
0
 10
2.35345354798
 20
-1.89532652584
 30
0.0
  0
VERTEX
  8
0
 10
2.40246283208
 20
-1.90522944395
 30
0.0
  0
VERTEX
  8
0
 10
2.45157073827
 20
-1.91463116406
 30
0.0
  0
VERTEX
  8
0
 10
2.50076988102
 20
-1.92354318966
 30
0.0
  0
VERTEX
  8
0
 10
2.55005322684
 20
-1.93197721041
 30
0.0
  0
VERTEX
  8
0
 10
2.59941409213
 20
-1.93994507527
 30
0.0
  0
VERTEX
  8
0
 10
2.64884613955
 20
-1.94745876709
 30
0.0
  0
VERTEX
  8
0
 10
2.69834337319
 20
-1.95453037912
 30
0.0
  0
VERTEX
  8
0
 10
2.74790013256
 20
-1.9611720932
 30
0.0
  0
VERTEX
  8
0
 10
2.79751108562
 20
-1.96739615964
 30
0.0
  0
VERTEX
  8
0
 10
2.84717122098
 20
-1.97321487893
 30
0.0
  0
VERTEX
  8
0
 10
2.8968758394
 20
-1.97864058515
 30
0.0
  0
VERTEX
  8
0
 10
2.94662054471
 20
-1.98368563095
 30
0.0
  0
VERTEX
  8
0
 10
2.99640123421
 20
-1.98836237433
 30
0.0
  0
VERTEX
  8
0
 10
3.04621408877
 20
-1.99268316684
 30
0.0
  0
VERTEX
  8
0
 10
3.09605556263
 20
-1.99666034337
 30
0.0
  0
VERTEX
  8
0
 10
3.14592237297
 20
-2.00030621338
 30
0.0
  0
VERTEX
  8
0
 10
3.19581148941
 20
-2.0036330535
 30
0.0
  0
VERTEX
  8
0
 10
3.24572012342
 20
-2.00665310147
 30
0.0
  0
VERTEX
  8
0
 10
3.26605504587
 20
-2.00779816514
 30
0.0
  0
SEQEND
  8
0
  0
POLYLINE
  8
0
 62
0
 70
0
 66
1
 10
0.0
 20
0.0
 30
0.0
  0
VERTEX
  8
0
 10
1.65733944954
 20
-1.42981651376
 30
0.0
  0
VERTEX
  8
0
 10
1.67381595641
 20
-1.47701049064
 30
0.0
  0
VERTEX
  8
0
 10
1.69396779781
 20
-1.52275491954
 30
0.0
  0
VERTEX
  8
0
 10
1.71779367088
 20
-1.56669675601
 30
0.0
  0
VERTEX
  8
0
 10
1.74524014244
 20
-1.60847192968
 30
0.0
  0
VERTEX
  8
0
 10
1.77619648595
 20
-1.64771614938
 30
0.0
  0
VERTEX
  8
0
 10
1.81049213049
 20
-1.68407767367
 30
0.0
  0
VERTEX
  8
0
 10
1.84789753059
 20
-1.71723120882
 30
0.0
  0
VERTEX
  8
0
 10
1.88812896633
 20
-1.74689171862
 30
0.0
  0
VERTEX
  8
0
 10
1.93085729524
 20
-1.77282669691
 30
0.0
  0
VERTEX
  8
0
 10
1.9757200794
 20
-1.79486547407
 30
0.0
  0
VERTEX
  8
0
 10
2.02233594512
 20
-1.81290445177
 30
0.0
  0
VERTEX
  8
0
 10
2.0619266055
 20
-1.8247706422
 30
0.0
  0
SEQEND
  8
0
  0
POLYLINE
  8
0
 62
0
 70
0
 66
1
 10
0.0
 20
0.0
 30
0.0
  0
VERTEX
  8
0
 10
0.790366972477
 20
1.48256880734
 30
0.0
  0
VERTEX
  8
0
 10
0.802456576885
 20
1.53108287805
 30
0.0
  0
VERTEX
  8
0
 10
0.816145841718
 20
1.57917002325
 30
0.0
  0
VERTEX
  8
0
 10
0.831433383904
 20
1.62677313989
 30
0.0
  0
VERTEX
  8
0
 10
0.848314661013
 20
1.67383463753
 30
0.0
  0
VERTEX
  8
0
 10
0.866781908617
 20
1.72029666007
 30
0.0
  0
VERTEX
  8
0
 10
0.886824095569
 20
1.766101316
 30
0.0
  0
VERTEX
  8
0
 10
0.908426897951
 20
1.8111909156
 30
0.0
  0
VERTEX
  8
0
 10
0.931572692327
 20
1.85550821348
 30
0.0
  0
VERTEX
  8
0
 10
0.956240568806
 20
1.89899665474
 30
0.0
  0
VERTEX
  8
0
 10
0.982406364304
 20
1.94160062305
 30
0.0
  0
VERTEX
  8
0
 10
1.01004271629
 20
1.98326568875
 30
0.0
  0
VERTEX
  8
0
 10
1.03911913715
 20
2.02393885504
 30
0.0
  0
VERTEX
  8
0
 10
1.06960210923
 20
2.06356880027
 30
0.0
  0
VERTEX
  8
0
 10
1.10145520032
 20
2.10210611422
 30
0.0
  0
VERTEX
  8
0
 10
1.13463919942
 20
2.13950352607
 30
0.0
  0
VERTEX
  8
0
 10
1.16911227213
 20
2.17571612198
 30
0.0
  0
VERTEX
  8
0
 10
1.20483013495
 20
2.21070154982
 30
0.0
  0
VERTEX
  8
0
 10
1.24174624753
 20
2.24442020884
 30
0.0
  0
VERTEX
  8
0
 10
1.27981202151
 20
2.27683542194
 30
0.0
  0
VERTEX
  8
0
 10
1.31897704432
 20
2.30791358842
 30
0.0
  0
VERTEX
  8
0
 10
1.35918931621
 20
2.33762431512
 30
0.0
  0
VERTEX
  8
0
 10
1.4003954981
 20
2.36594052421
 30
0.0
  0
VERTEX
  8
0
 10
1.44254116795
 20
2.39283853603
 30
0.0
  0
VERTEX
  8
0
 10
1.4855710828
 20
2.41829812584
 30
0.0
  0
VERTEX
  8
0
 10
1.52942944376
 20
2.44230255365
 30
0.0
  0
VERTEX
  8
0
 10
1.57406016075
 20
2.46483856688
 30
0.0
  0
VERTEX
  8
0
 10
1.61940711406
 20
2.48589637587
 30
0.0
  0
VERTEX
  8
0
 10
1.66541440962
 20
2.50546960299
 30
0.0
  0
VERTEX
  8
0
 10
1.71202662516
 20
2.52355520594
 30
0.0
  0
VERTEX
  8
0
 10
1.72798165138
 20
2.52935779817
 30
0.0
  0
SEQEND
  8
0
  0
POLYLINE
  8
0
 62
0
 70
0
 66
1
 10
0.0
 20
0.0
 30
0.0
  0
VERTEX
  8
0
 10
0.841743119266
 20
1.27064220183
 30
0.0
  0
VERTEX
  8
0
 10
0.814362961602
 20
1.31239917779
 30
0.0
  0
VERTEX
  8
0
 10
0.795280124546
 20
1.35852759844
 30
0.0
  0
VERTEX
  8
0
 10
0.785793513059
 20
1.40753093499
 30
0.0
  0
VERTEX
  8
0
 10
0.786362007072
 20
1.45744505566
 30
0.0
  0
VERTEX
  8
0
 10
0.790366972477
 20
1.48256880734
 30
0.0
  0
SEQEND
  8
0
  0
POLYLINE
  8
0
 62
0
 70
0
 66
1
 10
0.0
 20
0.0
 30
0.0
  0
VERTEX
  8
0
 10
1.04724770642
 20
1.17752293578
 30
0.0
  0
VERTEX
  8
0
 10
0.997528895883
 20
1.18210368871
 30
0.0
  0
VERTEX
  8
0
 10
0.94949246534
 20
1.1957215733
 30
0.0
  0
VERTEX
  8
0
 10
0.904734829177
 20
1.21785483147
 30
0.0
  0
VERTEX
  8
0
 10
0.864671645068
 20
1.24765870408
 30
0.0
  0
VERTEX
  8
0
 10
0.841743119266
 20
1.27064220183
 30
0.0
  0
SEQEND
  8
0
  0
POLYLINE
  8
0
 62
0
 70
0
 66
1
 10
0.0
 20
0.0
 30
0.0
  0
VERTEX
  8
0
 10
1.94633027523
 20
1.35412844037
 30
0.0
  0
VERTEX
  8
0
 10
1.92663712303
 20
1.30824992637
 30
0.0
  0
VERTEX
  8
0
 10
1.8984512682
 20
1.26705282746
 30
0.0
  0
VERTEX
  8
0
 10
1.86252678196
 20
1.23240226198
 30
0.0
  0
VERTEX
  8
0
 10
1.82032141454
 20
1.20575219857
 30
0.0
  0
VERTEX
  8
0
 10
1.77370582406
 20
1.18788196082
 30
0.0
  0
VERTEX
  8
0
 10
1.72459177299
 20
1.17886598785
 30
0.0
  0
VERTEX
  8
0
 10
1.69587155963
 20
1.17752293578
 30
0.0
  0
SEQEND
  8
0
  0
POLYLINE
  8
0
 62
0
 70
0
 66
1
 10
0.0
 20
0.0
 30
0.0
  0
VERTEX
  8
0
 10
2.37018348624
 20
1.73944954128
 30
0.0
  0
VERTEX
  8
0
 10
2.32217676942
 20
1.72551515775
 30
0.0
  0
VERTEX
  8
0
 10
2.27538407513
 20
1.70793205813
 30
0.0
  0
VERTEX
  8
0
 10
2.23013950076
 20
1.6866820094
 30
0.0
  0
VERTEX
  8
0
 10
2.18679009994
 20
1.66179450087
 30
0.0
  0
VERTEX
  8
0
 10
2.14568656637
 20
1.63335170942
 30
0.0
  0
VERTEX
  8
0
 10
2.10717221321
 20
1.60149128178
 30
0.0
  0
VERTEX
  8
0
 10
2.07157089918
 20
1.56640629472
 30
0.0
  0
VERTEX
  8
0
 10
2.03917482428
 20
1.52834197589
 30
0.0
  0
VERTEX
  8
0
 10
2.01023329359
 20
1.48758911433
 30
0.0
  0
VERTEX
  8
0
 10
1.98494356342
 20
1.44447451159
 30
0.0
  0
VERTEX
  8
0
 10
1.96344470271
 20
1.3993492409
 30
0.0
  0
VERTEX
  8
0
 10
1.94633027523
 20
1.35412844037
 30
0.0
  0
SEQEND
  8
0
  0
POLYLINE
  8
0
 62
0
 70
0
 66
1
 10
0.0
 20
0.0
 30
0.0
  0
VERTEX
  8
0
 10
3.27247706422
 20
1.88073394495
 30
0.0
  0
VERTEX
  8
0
 10
3.22262542345
 20
1.87688638899
 30
0.0
  0
VERTEX
  8
0
 10
3.17280264793
 20
1.87268164776
 30
0.0
  0
VERTEX
  8
0
 10
3.12301278575
 20
1.86810372146
 30
0.0
  0
VERTEX
  8
0
 10
3.07326027277
 20
1.86313641332
 30
0.0
  0
VERTEX
  8
0
 10
3.0235499578
 20
1.85776332001
 30
0.0
  0
VERTEX
  8
0
 10
2.97388712907
 20
1.85196782456
 30
0.0
  0
VERTEX
  8
0
 10
2.92427754193
 20
1.8457330917
 30
0.0
  0
VERTEX
  8
0
 10
2.8747274477
 20
1.83904206615
 30
0.0
  0
VERTEX
  8
0
 10
2.82524362379
 20
1.83187747392
 30
0.0
  0
VERTEX
  8
0
 10
2.77583340472
 20
1.82422182701
 30
0.0
  0
VERTEX
  8
0
 10
2.72650471419
 20
1.81605743193
 30
0.0
  0
VERTEX
  8
0
 10
2.67726609776
 20
1.8073664022
 30
0.0
  0
VERTEX
  8
0
 10
2.62812675618
 20
1.79813067541
 30
0.0
  0
VERTEX
  8
0
 10
2.57909657885
 20
1.78833203521
 30
0.0
  0
VERTEX
  8
0
 10
2.53018617727
 20
1.77795213856
 30
0.0
  0
VERTEX
  8
0
 10
2.48140691792
 20
1.76697254884
 30
0.0
  0
VERTEX
  8
0
 10
2.43277095416
 20
1.75537477507
 30
0.0
  0
VERTEX
  8
0
 10
2.38429125661
 20
1.74314031791
 30
0.0
  0
VERTEX
  8
0
 10
2.37018348624
 20
1.73944954128
 30
0.0
  0
SEQEND
  8
0
  0
POLYLINE
  8
0
 62
0
 70
0
 66
1
 10
0.0
 20
0.0
 30
0.0
  0
VERTEX
  8
0
 10
3.51330275229
 20
2.14082568807
 30
0.0
  0
VERTEX
  8
0
 10
3.50928303275
 20
2.0910443181
 30
0.0
  0
VERTEX
  8
0
 10
3.49662790761
 20
2.0427470632
 30
0.0
  0
VERTEX
  8
0
 10
3.47484463276
 20
1.997837488
 30
0.0
  0
VERTEX
  8
0
 10
3.44424254743
 20
1.95841460525
 30
0.0
  0
VERTEX
  8
0
 10
3.40605111548
 20
1.92628483357
 30
0.0
  0
VERTEX
  8
0
 10
3.36215468237
 20
1.90251278162
 30
0.0
  0
VERTEX
  8
0
 10
3.31459495893
 20
1.88729561131
 30
0.0
  0
VERTEX
  8
0
 10
3.27247706422
 20
1.88073394495
 30
0.0
  0
SEQEND
  8
0
  0
POLYLINE
  8
0
 62
0
 70
0
 66
1
 10
0.0
 20
0.0
 30
0.0
  0
VERTEX
  8
0
 10
3.43302752294
 20
2.74128440367
 30
0.0
  0
VERTEX
  8
0
 10
3.46587339986
 20
2.70369614782
 30
0.0
  0
VERTEX
  8
0
 10
3.49062239446
 20
2.66034562349
 30
0.0
  0
VERTEX
  8
0
 10
3.50643759432
 20
2.61299492551
 30
0.0
  0
VERTEX
  8
0
 10
3.51306076984
 20
2.5635072173
 30
0.0
  0
VERTEX
  8
0
 10
3.51330275229
 20
2.55183486239
 30
0.0
  0
SEQEND
  8
0
  0
POLYLINE
  8
0
 62
0
 70
0
 66
1
 10
0.0
 20
0.0
 30
0.0
  0
VERTEX
  8
0
 10
3.2371559633
 20
2.8119266055
 30
0.0
  0
VERTEX
  8
0
 10
3.28706898325
 20
2.81133419907
 30
0.0
  0
VERTEX
  8
0
 10
3.33580074709
 20
2.80055859718
 30
0.0
  0
VERTEX
  8
0
 10
3.38129346998
 20
2.7800173743
 30
0.0
  0
VERTEX
  8
0
 10
3.42202749553
 20
2.75114131001
 30
0.0
  0
VERTEX
  8
0
 10
3.43302752294
 20
2.74128440367
 30
0.0
  0
SEQEND
  8
0
  0
POLYLINE
  8
0
 62
0
 70
0
 66
1
 10
0.0
 20
0.0
 30
0.0
  0
VERTEX
  8
0
 10
1.72798165138
 20
2.52935779817
 30
0.0
  0
VERTEX
  8
0
 10
1.77500423337
 20
2.54635304981
 30
0.0
  0
VERTEX
  8
0
 10
1.82225042491
 20
2.56271644513
 30
0.0
  0
VERTEX
  8
0
 10
1.86970742405
 20
2.57845804787
 30
0.0
  0
VERTEX
  8
0
 10
1.9173628868
 20
2.59358825512
 30
0.0
  0
VERTEX
  8
0
 10
1.96520493342
 20
2.60811775339
 30
0.0
  0
VERTEX
  8
0
 10
2.01322215183
 20
2.62205747701
 30
0.0
  0
VERTEX
  8
0
 10
2.06140359806
 20
2.63541856878
 30
0.0
  0
VERTEX
  8
0
 10
2.10973879444
 20
2.64821234324
 30
0.0
  0
VERTEX
  8
0
 10
2.15821772549
 20
2.66045025234
 30
0.0
  0
VERTEX
  8
0
 10
2.20683083196
 20
2.67214385379
 30
0.0
  0
VERTEX
  8
0
 10
2.25556900327
 20
2.68330478181
 30
0.0
  0
VERTEX
  8
0
 10
2.30442356846
 20
2.69394472056
 30
0.0
  0
VERTEX
  8
0
 10
2.3533862861
 20
2.70407537987
 30
0.0
  0
VERTEX
  8
0
 10
2.40244933311
 20
2.71370847346
 30
0.0
  0
VERTEX
  8
0
 10
2.45160529299
 20
2.72285569935
 30
0.0
  0
VERTEX
  8
0
 10
2.50084714325
 20
2.73152872263
 30
0.0
  0
VERTEX
  8
0
 10
2.55016824264
 20
2.73973916016
 30
0.0
  0
VERTEX
  8
0
 10
2.59956231789
 20
2.74749856737
 30
0.0
  0
VERTEX
  8
0
 10
2.64902345039
 20
2.75481842689
 30
0.0
  0
VERTEX
  8
0
 10
2.69854606283
 20
2.76171013897
 30
0.0
  0
VERTEX
  8
0
 10
2.74812490577
 20
2.76818501358
 30
0.0
  0
VERTEX
  8
0
 10
2.79775504442
 20
2.77425426402
 30
0.0
  0
VERTEX
  8
0
 10
2.84743184559
 20
2.77992900202
 30
0.0
  0
VERTEX
  8
0
 10
2.89715096482
 20
2.78522023422
 30
0.0
  0
VERTEX
  8
0
 10
2.94690833388
 20
2.79013885989
 30
0.0
  0
VERTEX
  8
0
 10
2.99670014854
 20
2.79469566978
 30
0.0
  0
VERTEX
  8
0
 10
3.0465228567
 20
2.7989013462
 30
0.0
  0
VERTEX
  8
0
 10
3.09637314695
 20
2.802766464
 30
0.0
  0
VERTEX
  8
0
 10
3.1462479375
 20
2.8063014926
 30
0.0
  0
VERTEX
  8
0
 10
3.19614436548
 20
2.80951679891
 30
0.0
  0
VERTEX
  8
0
 10
3.2371559633
 20
2.8119266055
 30
0.0
  0
SEQEND
  8
0
  0
POLYLINE
  8
0
 62
0
 70
0
 66
1
 10
0.0
 20
0.0
 30
0.0
  0
VERTEX
  8
0
 10
5.54587155963
 20
-0.665596330275
 30
0.0
  0
VERTEX
  8
0
 10
5.49756618151
 20
-0.652690394631
 30
0.0
  0
VERTEX
  8
0
 10
5.44911777036
 20
-0.640332186441
 30
0.0
  0
VERTEX
  8
0
 10
5.40053535768
 20
-0.628511689942
 30
0.0
  0
VERTEX
  8
0
 10
5.35182762125
 20
-0.617218662994
 30
0.0
  0
VERTEX
  8
0
 10
5.30300288361
 20
-0.606442666208
 30
0.0
  0
VERTEX
  8
0
 10
5.25406911233
 20
-0.596173090551
 30
0.0
  0
VERTEX
  8
0
 10
5.20503392178
 20
-0.586399183325
 30
0.0
  0
VERTEX
  8
0
 10
5.15590457628
 20
-0.577110072501
 30
0.0
  0
VERTEX
  8
0
 10
5.10668799452
 20
-0.568294789364
 30
0.0
  0
VERTEX
  8
0
 10
5.05739075502
 20
-0.559942289451
 30
0.0
  0
VERTEX
  8
0
 10
5.00801910252
 20
-0.552041471826
 30
0.0
  0
VERTEX
  8
0
 10
4.95857895518
 20
-0.544581196675
 30
0.0
  0
VERTEX
  8
0
 10
4.90907591244
 20
-0.537550301261
 30
0.0
  0
VERTEX
  8
0
 10
4.85951526343
 20
-0.530937614291
 30
0.0
  0
VERTEX
  8
0
 10
4.80990199583
 20
-0.524731968745
 30
0.0
  0
VERTEX
  8
0
 10
4.76024080504
 20
-0.518922213208
 30
0.0
  0
VERTEX
  8
0
 10
4.71053610364
 20
-0.513497221774
 30
0.0
  0
VERTEX
  8
0
 10
4.66079203099
 20
-0.508445902576
 30
0.0
  0
VERTEX
  8
0
 10
4.61101246296
 20
-0.503757204991
 30
0.0
  0
VERTEX
  8
0
 10
4.56120102167
 20
-0.499420125619
 30
0.0
  0
VERTEX
  8
0
 10
4.51136108525
 20
-0.495423713082
 30
0.0
  0
VERTEX
  8
0
 10
4.46149579746
 20
-0.49175707169
 30
0.0
  0
VERTEX
  8
0
 10
4.41160807728
 20
-0.488409364053
 30
0.0
  0
VERTEX
  8
0
 10
4.36170062834
 20
-0.485369812702
 30
0.0
  0
VERTEX
  8
0
 10
4.31177594817
 20
-0.48262770075
 30
0.0
  0
VERTEX
  8
0
 10
4.26183633723
 20
-0.480172371664
 30
0.0
  0
VERTEX
  8
0
 10
4.2118839078
 20
-0.47799322819
 30
0.0
  0
VERTEX
  8
0
 10
4.16192059258
 20
-0.476079730472
 30
0.0
  0
VERTEX
  8
0
 10
4.11194815311
 20
-0.474421393426
 30
0.0
  0
VERTEX
  8
0
 10
4.06196818791
 20
-0.473007783408
 30
0.0
  0
VERTEX
  8
0
 10
4.05917431193
 20
-0.472935779817
 30
0.0
  0
SEQEND
  8
0
  0
POLYLINE
  8
0
 62
0
 70
0
 66
1
 10
0.0
 20
0.0
 30
0.0
  0
VERTEX
  8
0
 10
4.1747706422
 20
-2.86834862385
 30
0.0
  0
VERTEX
  8
0
 10
4.14249636886
 20
-2.83023818709
 30
0.0
  0
VERTEX
  8
0
 10
4.11755379663
 20
-2.78698950642
 30
0.0
  0
VERTEX
  8
0
 10
4.1014187759
 20
-2.7397500375
 30
0.0
  0
VERTEX
  8
0
 10
4.09472625098
 20
-2.69027586549
 30
0.0
  0
VERTEX
  8
0
 10
4.09449541284
 20
-2.67889908257
 30
0.0
  0
SEQEND
  8
0
  0
POLYLINE
  8
0
 62
0
 70
0
 66
1
 10
0.0
 20
0.0
 30
0.0
  0
VERTEX
  8
0
 10
4.36422018349
 20
-2.93899082569
 30
0.0
  0
VERTEX
  8
0
 10
4.31434752996
 20
-2.93663002996
 30
0.0
  0
VERTEX
  8
0
 10
4.26587671571
 20
-2.92470541636
 30
0.0
  0
VERTEX
  8
0
 10
4.22077414656
 20
-2.90331784351
 30
0.0
  0
VERTEX
  8
0
 10
4.18060106757
 20
-2.87366901227
 30
0.0
  0
VERTEX
  8
0
 10
4.1747706422
 20
-2.86834862385
 30
0.0
  0
SEQEND
  8
0
  0
POLYLINE
  8
0
 62
0
 70
0
 66
1
 10
0.0
 20
0.0
 30
0.0
  0
VERTEX
  8
0
 10
7.13853211009
 20
-1.33669724771
 30
0.0
  0
VERTEX
  8
0
 10
7.13495976336
 20
-1.3865676802
 30
0.0
  0
VERTEX
  8
0
 10
7.12991522437
 20
-1.43631068904
 30
0.0
  0
VERTEX
  8
0
 10
7.12337335598
 20
-1.48587893324
 30
0.0
  0
VERTEX
  8
0
 10
7.11531124101
 20
-1.53522264378
 30
0.0
  0
VERTEX
  8
0
 10
7.10570849425
 20
-1.58428973443
 30
0.0
  0
VERTEX
  8
0
 10
7.09454757609
 20
-1.63302595122
 30
0.0
  0
VERTEX
  8
0
 10
7.08181410279
 20
-1.68137506249
 30
0.0
  0
VERTEX
  8
0
 10
7.06749714682
 20
-1.72927909061
 30
0.0
  0
VERTEX
  8
0
 10
7.05158952036
 20
-1.77667858552
 30
0.0
  0
VERTEX
  8
0
 10
7.03408803466
 20
-1.82351293878
 30
0.0
  0
VERTEX
  8
0
 10
7.01499372783
 20
-1.86972073579
 30
0.0
  0
VERTEX
  8
0
 10
6.9943120537
 20
-1.91524014208
 30
0.0
  0
VERTEX
  8
0
 10
6.97205302501
 20
-1.96000931853
 30
0.0
  0
VERTEX
  8
0
 10
6.94823130488
 20
-2.00396685872
 30
0.0
  0
VERTEX
  8
0
 10
6.92286624166
 20
-2.04705224049
 30
0.0
  0
VERTEX
  8
0
 10
6.89598184376
 20
-2.08920628311
 30
0.0
  0
VERTEX
  8
0
 10
6.8676066927
 20
-2.13037160024
 30
0.0
  0
VERTEX
  8
0
 10
6.83777379444
 20
-2.17049303937
 30
0.0
  0
VERTEX
  8
0
 10
6.80652037094
 20
-2.20951809774
 30
0.0
  0
VERTEX
  8
0
 10
6.77388759596
 20
-2.247397306
 30
0.0
  0
VERTEX
  8
0
 10
6.73992028037
 20
-2.28408457137
 30
0.0
  0
VERTEX
  8
0
 10
6.70466651447
 20
-2.31953747339
 30
0.0
  0
VERTEX
  8
0
 10
6.66817727514
 20
-2.35371750723
 30
0.0
  0
VERTEX
  8
0
 10
6.63050600722
 20
-2.38659027072
 30
0.0
  0
VERTEX
  8
0
 10
6.59170818832
 20
-2.4181255936
 30
0.0
  0
VERTEX
  8
0
 10
6.55184088666
 20
-2.44829760883
 30
0.0
  0
VERTEX
  8
0
 10
6.51096232098
 20
-2.4770847678
 30
0.0
  0
VERTEX
  8
0
 10
6.46913143078
 20
-2.50446980259
 30
0.0
  0
VERTEX
  8
0
 10
6.42640746446
 20
-2.53043963958
 30
0.0
  0
VERTEX
  8
0
 10
6.38284959151
 20
-2.55498526995
 30
0.0
  0
VERTEX
  8
0
 10
6.33851654377
 20
-2.57810158287
 30
0.0
  0
VERTEX
  8
0
 10
6.2934662895
 20
-2.59978716789
 30
0.0
  0
VERTEX
  8
0
 10
6.24775574273
 20
-2.62004409278
 30
0.0
  0
VERTEX
  8
0
 10
6.20144050908
 20
-2.63887766333
 30
0.0
  0
VERTEX
  8
0
 10
6.17201834862
 20
-2.65
 30
0.0
  0
SEQEND
  8
0
  0
POLYLINE
  8
0
 62
0
 70
0
 66
1
 10
0.0
 20
0.0
 30
0.0
  0
VERTEX
  8
0
 10
5.87981651376
 20
2.52935779817
 30
0.0
  0
VERTEX
  8
0
 10
5.92657807426
 20
2.51166164188
 30
0.0
  0
VERTEX
  8
0
 10
5.972760782
 20
2.49250572947
 30
0.0
  0
VERTEX
  8
0
 10
6.01830981699
 20
2.47188847812
 30
0.0
  0
VERTEX
  8
0
 10
6.06316949162
 20
2.4498115759
 30
0.0
  0
VERTEX
  8
0
 10
6.10728349375
 20
2.42628011893
 30
0.0
  0
VERTEX
  8
0
 10
6.15059514735
 20
2.40130272458
 30
0.0
  0
VERTEX
  8
0
 10
6.19304768832
 20
2.37489161769
 30
0.0
  0
VERTEX
  8
0
 10
6.23458455193
 20
2.34706268761
 30
0.0
  0
VERTEX
  8
0
 10
6.27514966866
 20
2.31783551429
 30
0.0
  0
VERTEX
  8
0
 10
6.31468776436
 20
2.28723336211
 30
0.0
  0
VERTEX
  8
0
 10
6.35314466096
 20
2.25528314087
 30
0.0
  0
VERTEX
  8
0
 10
6.39046757358
 20
2.22201533392
 30
0.0
  0
VERTEX
  8
0
 10
6.42660540019
 20
2.18746389415
 30
0.0
  0
VERTEX
  8
0
 10
6.4615089999
 20
2.151666109
 30
0.0
  0
VERTEX
  8
0
 10
6.49513145643
 20
2.11466243639
 30
0.0
  0
VERTEX
  8
0
 10
6.52742832345
 20
2.07649631384
 30
0.0
  0
VERTEX
  8
0
 10
6.55835784915
 20
2.03721394354
 30
0.0
  0
VERTEX
  8
0
 10
6.58788117739
 20
1.99686405638
 30
0.0
  0
VERTEX
  8
0
 10
6.61596252378
 20
1.95549765831
 30
0.0
  0
VERTEX
  8
0
 10
6.64256932519
 20
1.91316776241
 30
0.0
  0
VERTEX
  8
0
 10
6.66767236172
 20
1.86992911028
 30
0.0
  0
VERTEX
  8
0
 10
6.69124585066
 20
1.82583788616
 30
0.0
  0
VERTEX
  8
0
 10
6.71326751246
 20
1.78095142723
 30
0.0
  0
VERTEX
  8
0
 10
6.73371860902
 20
1.73532793345
 30
0.0
  0
VERTEX
  8
0
 10
6.75258395487
 20
1.68902617988
 30
0.0
  0
VERTEX
  8
0
 10
6.76985190259
 20
1.64210523457
 30
0.0
  0
VERTEX
  8
0
 10
6.78551430329
 20
1.59462418442
 30
0.0
  0
VERTEX
  8
0
 10
6.79956644409
 20
1.54664187156
 30
0.0
  0
VERTEX
  8
0
 10
6.81200696404
 20
1.49821664227
 30
0.0
  0
VERTEX
  8
0
 10
6.82283775022
 20
1.44940611018
 30
0.0
  0
VERTEX
  8
0
 10
6.82706422018
 20
1.42798165138
 30
0.0
  0
SEQEND
  8
0
  0
POLYLINE
  8
0
 62
0
 70
0
 66
1
 10
0.0
 20
0.0
 30
0.0
  0
VERTEX
  8
0
 10
4.1747706422
 20
2.74128440367
 30
0.0
  0
VERTEX
  8
0
 10
4.21392794526
 20
2.7722732588
 30
0.0
  0
VERTEX
  8
0
 10
4.25813708367
 20
2.79545694682
 30
0.0
  0
VERTEX
  8
0
 10
4.30611255237
 20
2.80921554954
 30
0.0
  0
VERTEX
  8
0
 10
4.35589757107
 20
2.81278659879
 30
0.0
  0
VERTEX
  8
0
 10
4.37064220183
 20
2.8119266055
 30
0.0
  0
SEQEND
  8
0
  0
POLYLINE
  8
0
 62
0
 70
0
 66
1
 10
0.0
 20
0.0
 30
0.0
  0
VERTEX
  8
0
 10
5.2376146789
 20
1.73944954128
 30
0.0
  0
VERTEX
  8
0
 10
5.18918312066
 20
1.75187316753
 30
0.0
  0
VERTEX
  8
0
 10
5.14059135526
 20
1.76365472089
 30
0.0
  0
VERTEX
  8
0
 10
5.09185259709
 20
1.7748126935
 30
0.0
  0
VERTEX
  8
0
 10
5.04297923481
 20
1.78536558381
 30
0.0
  0
VERTEX
  8
0
 10
4.99398286117
 20
1.79533184865
 30
0.0
  0
VERTEX
  8
0
 10
4.94487430447
 20
1.80472986204
 30
0.0
  0
VERTEX
  8
0
 10
4.8956636613
 20
1.81357788034
 30
0.0
  0
VERTEX
  8
0
 10
4.84636032978
 20
1.82189401335
 30
0.0
  0
VERTEX
  8
0
 10
4.79697304312
 20
1.82969620084
 30
0.0
  0
VERTEX
  8
0
 10
4.74750990295
 20
1.83700219408
 30
0.0
  0
VERTEX
  8
0
 10
4.69797841229
 20
1.84382954203
 30
0.0
  0
VERTEX
  8
0
 10
4.64838550779
 20
1.85019558176
 30
0.0
  0
VERTEX
  8
0
 10
4.59873759104
 20
1.85611743262
 30
0.0
  0
VERTEX
  8
0
 10
4.54904055901
 20
1.86161199399
 30
0.0
  0
VERTEX
  8
0
 10
4.49929983325
 20
1.86669594615
 30
0.0
  0
VERTEX
  8
0
 10
4.44952038794
 20
1.87138575412
 30
0.0
  0
VERTEX
  8
0
 10
4.39970677671
 20
1.87569767402
 30
0.0
  0
VERTEX
  8
0
 10
4.34986315822
 20
1.87964776199
 30
0.0
  0
VERTEX
  8
0
 10
4.33532110092
 20
1.88073394495
 30
0.0
  0
SEQEND
  8
0
  0
POLYLINE
  8
0
 62
0
 70
0
 66
1
 10
0.0
 20
0.0
 30
0.0
  0
VERTEX
  8
0
 10
-4.14174311927
 20
2.74128440367
 30
0.0
  0
VERTEX
  8
0
 10
-4.10889724235
 20
2.70369614782
 30
0.0
  0
VERTEX
  8
0
 10
-4.08414824775
 20
2.66034562349
 30
0.0
  0
VERTEX
  8
0
 10
-4.06833304789
 20
2.61299492551
 30
0.0
  0
VERTEX
  8
0
 10
-4.06170987237
 20
2.5635072173
 30
0.0
  0
VERTEX
  8
0
 10
-4.06146788991
 20
2.55183486239
 30
0.0
  0
SEQEND
  8
0
  0
POLYLINE
  8
0
 62
0
 70
0
 66
1
 10
0.0
 20
0.0
 30
0.0
  0
VERTEX
  8
0
 10
-6.79403669725
 20
1.43119266055
 30
0.0
  0
VERTEX
  8
0
 10
-6.78384255179
 20
1.48014009252
 30
0.0
  0
VERTEX
  8
0
 10
-6.77202631189
 20
1.52872140439
 30
0.0
  0
VERTEX
  8
0
 10
-6.75858656448
 20
1.57687881831
 30
0.0
  0
VERTEX
  8
0
 10
-6.74352510969
 20
1.62455388638
 30
0.0
  0
VERTEX
  8
0
 10
-6.7268470475
 20
1.67168772004
 30
0.0
  0
VERTEX
  8
0
 10
-6.70856084575
 20
1.71822123131
 30
0.0
  0
VERTEX
  8
0
 10
-6.68867838837
 20
1.7640953839
 30
0.0
  0
VERTEX
  8
0
 10
-6.66721500244
 20
1.80925145266
 30
0.0
  0
VERTEX
  8
0
 10
-6.64418946333
 20
1.8536312892
 30
0.0
  0
VERTEX
  8
0
 10
-6.61962397674
 20
1.89717759166
 30
0.0
  0
VERTEX
  8
0
 10
-6.59354413719
 20
1.93983417621
 30
0.0
  0
VERTEX
  8
0
 10
-6.56597886235
 20
1.98154624784
 30
0.0
  0
VERTEX
  8
0
 10
-6.53696030293
 20
2.0222606678
 30
0.0
  0
VERTEX
  8
0
 10
-6.50652372824
 20
2.06192621489
 30
0.0
  0
VERTEX
  8
0
 10
-6.47470738756
 20
2.10049383779
 30
0.0
  0
VERTEX
  8
0
 10
-6.44155234818
 20
2.13791689544
 30
0.0
  0
VERTEX
  8
0
 10
-6.40710231079
 20
2.17415138267
 30
0.0
  0
VERTEX
  8
0
 10
-6.37140340386
 20
2.20915613795
 30
0.0
  0
VERTEX
  8
0
 10
-6.33450395863
 20
2.24289303082
 30
0.0
  0
VERTEX
  8
0
 10
-6.29645426683
 20
2.27532712612
 30
0.0
  0
VERTEX
  8
0
 10
-6.25730632376
 20
2.30642682302
 30
0.0
  0
VERTEX
  8
0
 10
-6.21711355947
 20
2.33616396664
 30
0.0
  0
VERTEX
  8
0
 10
-6.17593056126
 20
2.36451393101
 30
0.0
  0
VERTEX
  8
0
 10
-6.13381279083
 20
2.39145567212
 30
0.0
  0
VERTEX
  8
0
 10
-6.09081629959
 20
2.41697175068
 30
0.0
  0
VERTEX
  8
0
 10
-6.04699744576
 20
2.44104832468
 30
0.0
  0
VERTEX
  8
0
 10
-6.0024126167
 20
2.46367511225
 30
0.0
  0
VERTEX
  8
0
 10
-5.95711795991
 20
2.48484532609
 30
0.0
  0
VERTEX
  8
0
 10
-5.9111691259
 20
2.50455558114
 30
0.0
  0
VERTEX
  8
0
 10
-5.86462102559
 20
2.52280577742
 30
0.0
  0
VERTEX
  8
0
 10
-5.84678899083
 20
2.52935779817
 30
0.0
  0
SEQEND
  8
0
  0
POLYLINE
  8
0
 62
0
 70
0
 66
1
 10
0.0
 20
0.0
 30
0.0
  0
VERTEX
  8
0
 10
-6.2995412844
 20
0.098623853211
 30
0.0
  0
VERTEX
  8
0
 10
-6.33701142441
 20
0.131726969852
 30
0.0
  0
VERTEX
  8
0
 10
-6.37350288234
 20
0.165905810912
 30
0.0
  0
VERTEX
  8
0
 10
-6.40896130215
 20
0.201155092497
 30
0.0
  0
VERTEX
  8
0
 10
-6.44333097749
 20
0.237466637524
 30
0.0
  0
VERTEX
  8
0
 10
-6.47655505467
 20
0.274829117405
 30
0.0
  0
VERTEX
  8
0
 10
-6.5085757803
 20
0.31322779621
 30
0.0
  0
VERTEX
  8
0
 10
-6.53933479633
 20
0.352644283425
 30
0.0
  0
VERTEX
  8
0
 10
-6.56877348471
 20
0.393056302501
 30
0.0
  0
VERTEX
  8
0
 10
-6.59683336228
 20
0.434437483434
 30
0.0
  0
VERTEX
  8
0
 10
-6.62345652519
 20
0.476757188464
 30
0.0
  0
VERTEX
  8
0
 10
-6.64858613991
 20
0.519980380608
 30
0.0
  0
VERTEX
  8
0
 10
-6.67216697573
 20
0.564067545017
 30
0.0
  0
VERTEX
  8
0
 10
-6.69414597128
 20
0.608974672858
 30
0.0
  0
VERTEX
  8
0
 10
-6.71447282471
 20
0.654653316624
 30
0.0
  0
VERTEX
  8
0
 10
-6.73310059516
 20
0.701050724329
 30
0.0
  0
VERTEX
  8
0
 10
-6.74998630018
 20
0.74811005787
 30
0.0
  0
VERTEX
  8
0
 10
-6.76509149253
 20
0.795770698223
 30
0.0
  0
VERTEX
  8
0
 10
-6.77838279799
 20
0.843968636669
 30
0.0
  0
VERTEX
  8
0
 10
-6.78983239629
 20
0.892636947437
 30
0.0
  0
VERTEX
  8
0
 10
-6.79941842908
 20
0.941706333208
 30
0.0
  0
VERTEX
  8
0
 10
-6.80712531695
 20
0.991105731977
 30
0.0
  0
VERTEX
  8
0
 10
-6.81294397666
 20
1.04076296923
 30
0.0
  0
VERTEX
  8
0
 10
-6.81687192653
 20
1.09060543831
 30
0.0
  0
VERTEX
  8
0
 10
-6.81891327717
 20
1.14056078913
 30
0.0
  0
VERTEX
  8
0
 10
-6.81907860889
 20
1.19055760547
 30
0.0
  0
VERTEX
  8
0
 10
-6.81738474109
 20
1.24052605164
 30
0.0
  0
VERTEX
  8
0
 10
-6.81385440215
 20
1.29039847157
 30
0.0
  0
VERTEX
  8
0
 10
-6.80851581395
 20
1.34010992523
 30
0.0
  0
VERTEX
  8
0
 10
-6.80140220492
 20
1.3895986513
 30
0.0
  0
VERTEX
  8
0
 10
-6.79403669725
 20
1.43119266055
 30
0.0
  0
SEQEND
  8
0
  0
POLYLINE
  8
0
 62
0
 70
0
 66
1
 10
0.0
 20
0.0
 30
0.0
  0
VERTEX
  8
0
 10
-5.20458715596
 20
0.625229357798
 30
0.0
  0
VERTEX
  8
0
 10
-5.15604302988
 20
0.613252664621
 30
0.0
  0
VERTEX
  8
0
 10
-5.10736798883
 20
0.601819603038
 30
0.0
  0
VERTEX
  8
0
 10
-5.05857079249
 20
0.590919637616
 30
0.0
  0
VERTEX
  8
0
 10
-5.00965973734
 20
0.580542482921
 30
0.0
  0
VERTEX
  8
0
 10
-4.96064268135
 20
0.570678109694
 30
0.0
  0
VERTEX
  8
0
 10
-4.91152706776
 20
0.561316749473
 30
0.0
  0
VERTEX
  8
0
 10
-4.86231994788
 20
0.552448897868
 30
0.0
  0
VERTEX
  8
0
 10
-4.81302800298
 20
0.54406531665
 30
0.0
  0
VERTEX
  8
0
 10
-4.76365756521
 20
0.536157034831
 30
0.0
  0
VERTEX
  8
0
 10
-4.71421463756
 20
0.528715348893
 30
0.0
  0
VERTEX
  8
0
 10
-4.6647049129
 20
0.521731822274
 30
0.0
  0
VERTEX
  8
0
 10
-4.6151337921
 20
0.515198284255
 30
0.0
  0
VERTEX
  8
0
 10
-4.56550640126
 20
0.509106828354
 30
0.0
  0
VERTEX
  8
0
 10
-4.51582760812
 20
0.503449810326
 30
0.0
  0
VERTEX
  8
0
 10
-4.4661020376
 20
0.498219845852
 30
0.0
  0
VERTEX
  8
0
 10
-4.41633408658
 20
0.493409808008
 30
0.0
  0
VERTEX
  8
0
 10
-4.36652793796
 20
0.48901282457
 30
0.0
  0
VERTEX
  8
0
 10
-4.31668757398
 20
0.485022275262
 30
0.0
  0
VERTEX
  8
0
 10
-4.30229357798
 20
0.483944954128
 30
0.0
  0
SEQEND
  8
0
  0
POLYLINE
  8
0
 62
0
 70
0
 66
1
 10
0.0
 20
0.0
 30
0.0
  0
VERTEX
  8
0
 10
-5.65733944954
 20
1.18394495413
 30
0.0
  0
VERTEX
  8
0
 10
-5.65536640688
 20
1.13399712343
 30
0.0
  0
VERTEX
  8
0
 10
-5.64932766992
 20
1.08437777873
 30
0.0
  0
VERTEX
  8
0
 10
-5.63908195532
 20
1.03545490947
 30
0.0
  0
VERTEX
  8
0
 10
-5.62455092004
 20
0.987630601279
 30
0.0
  0
VERTEX
  8
0
 10
-5.60573199473
 20
0.941326356391
 30
0.0
  0
VERTEX
  8
0
 10
-5.58270636772
 20
0.896964119521
 30
0.0
  0
VERTEX
  8
0
 10
-5.55564015768
 20
0.854945107592
 30
0.0
  0
VERTEX
  8
0
 10
-5.52477797267
 20
0.815629339944
 30
0.0
  0
VERTEX
  8
0
 10
-5.49042958481
 20
0.779318826305
 30
0.0
  0
VERTEX
  8
0
 10
-5.45295182472
 20
0.746246607141
 30
0.0
  0
VERTEX
  8
0
 10
-5.41272853948
 20
0.716572533422
 30
0.0
  0
VERTEX
  8
0
 10
-5.37015138677
 20
0.690385311858
 30
0.0
  0
VERTEX
  8
0
 10
-5.32560352804
 20
0.66770936106
 30
0.0
  0
VERTEX
  8
0
 10
-5.27944730296
 20
0.648514615634
 30
0.0
  0
VERTEX
  8
0
 10
-5.23201606434
 20
0.632727512777
 30
0.0
  0
VERTEX
  8
0
 10
-5.20458715596
 20
0.625229357798
 30
0.0
  0
SEQEND
  8
0
  0
POLYLINE
  8
0
 62
0
 70
0
 66
1
 10
0.0
 20
0.0
 30
0.0
  0
VERTEX
  8
0
 10
-4.30229357798
 20
1.88073394495
 30
0.0
  0
VERTEX
  8
0
 10
-4.35214525947
 20
1.87688690484
 30
0.0
  0
VERTEX
  8
0
 10
-4.40196834189
 20
1.87268576815
 30
0.0
  0
VERTEX
  8
0
 10
-4.45175910587
 20
1.86811760707
 30
0.0
  0
VERTEX
  8
0
 10
-4.50151351735
 20
1.8631692794
 30
0.0
  0
VERTEX
  8
0
 10
-4.55122720785
 20
1.85782741924
 30
0.0
  0
VERTEX
  8
0
 10
-4.60089545358
 20
1.85207842884
 30
0.0
  0
VERTEX
  8
0
 10
-4.65051315338
 20
1.84590847194
 30
0.0
  0
VERTEX
  8
0
 10
-4.7000748054
 20
1.8393034688
 30
0.0
  0
VERTEX
  8
0
 10
-4.74957448269
 20
1.83224909285
 30
0.0
  0
VERTEX
  8
0
 10
-4.79900580751
 20
1.82473076943
 30
0.0
  0
VERTEX
  8
0
 10
-4.84836192452
 20
1.8167336767
 30
0.0
  0
VERTEX
  8
0
 10
-4.8976354729
 20
1.80824274898
 30
0.0
  0
VERTEX
  8
0
 10
-4.94681855741
 20
1.79924268293
 30
0.0
  0
VERTEX
  8
0
 10
-4.99590271858
 20
1.78971794662
 30
0.0
  0
VERTEX
  8
0
 10
-5.04487890206
 20
1.77965279213
 30
0.0
  0
VERTEX
  8
0
 10
-5.09373742747
 20
1.7690312718
 30
0.0
  0
VERTEX
  8
0
 10
-5.14246795685
 20
1.7578372586
 30
0.0
  0
VERTEX
  8
0
 10
-5.19105946303
 20
1.74605447102
 30
0.0
  0
VERTEX
  8
0
 10
-5.20458715596
 20
1.74266055046
 30
0.0
  0
SEQEND
  8
0
  0
POLYLINE
  8
0
 62
0
 70
0
 66
1
 10
0.0
 20
0.0
 30
0.0
  0
VERTEX
  8
0
 10
-3.40321100917
 20
-2.86834862385
 30
0.0
  0
VERTEX
  8
0
 10
-3.43519725921
 20
-2.83001022367
 30
0.0
  0
VERTEX
  8
0
 10
-3.45925498769
 20
-2.78627231899
 30
0.0
  0
VERTEX
  8
0
 10
-3.47422304963
 20
-2.73864863033
 30
0.0
  0
VERTEX
  8
0
 10
-3.48011112587
 20
-2.68906128264
 30
0.0
  0
VERTEX
  8
0
 10
-3.48027522936
 20
-2.67889908257
 30
0.0
  0
SEQEND
  8
0
  0
POLYLINE
  8
0
 62
0
 70
0
 66
1
 10
0.0
 20
0.0
 30
0.0
  0
VERTEX
  8
0
 10
-0.43623853211
 20
-1.33027522936
 30
0.0
  0
VERTEX
  8
0
 10
-0.440010167107
 20
-1.38013111294
 30
0.0
  0
VERTEX
  8
0
 10
-0.445201633633
 20
-1.42985912846
 30
0.0
  0
VERTEX
  8
0
 10
-0.451839944647
 20
-1.47941467354
 30
0.0
  0
VERTEX
  8
0
 10
-0.459950309907
 20
-1.52875059843
 30
0.0
  0
VERTEX
  8
0
 10
-0.469555817014
 20
-1.57781726733
 30
0.0
  0
VERTEX
  8
0
 10
-0.480677100785
 20
-1.62656265774
 30
0.0
  0
VERTEX
  8
0
 10
-0.493332005411
 20
-1.67493250151
 30
0.0
  0
VERTEX
  8
0
 10
-0.507535245367
 20
-1.72287047062
 30
0.0
  0
VERTEX
  8
0
 10
-0.523298072036
 20
-1.77031840985
 30
0.0
  0
VERTEX
  8
0
 10
-0.540627953912
 20
-1.8172166174
 30
0.0
  0
VERTEX
  8
0
 10
-0.559528278943
 20
-1.86350417308
 30
0.0
  0
VERTEX
  8
0
 10
-0.579998088059
 20
-1.90911931196
 30
0.0
  0
VERTEX
  8
0
 10
-0.602031848999
 20
-1.95399983991
 30
0.0
  0
VERTEX
  8
0
 10
-0.625619279277
 20
-1.99808358517
 30
0.0
  0
VERTEX
  8
0
 10
-0.650745226351
 20
-2.04130887867
 30
0.0
  0
VERTEX
  8
0
 10
-0.677389611824
 20
-2.08361505376
 30
0.0
  0
VERTEX
  8
0
 10
-0.705527444853
 20
-2.12494295487
 30
0.0
  0
VERTEX
  8
0
 10
-0.735128907839
 20
-2.1652354435
 30
0.0
  0
VERTEX
  8
0
 10
-0.766159515157
 20
-2.20443788915
 30
0.0
  0
VERTEX
  8
0
 10
-0.798580343106
 20
-2.24249863326
 30
0.0
  0
VERTEX
  8
0
 10
-0.832348326783
 20
-2.27936941444
 30
0.0
  0
VERTEX
  8
0
 10
-0.867416617158
 20
-2.31500574464
 30
0.0
  0
VERTEX
  8
0
 10
-0.903734989579
 20
-2.34936722746
 30
0.0
  0
VERTEX
  8
0
 10
-0.941250293257
 20
-2.3824178121
 30
0.0
  0
VERTEX
  8
0
 10
-0.979906930206
 20
-2.41412597852
 30
0.0
  0
VERTEX
  8
0
 10
-1.01964735153
 20
-2.4444648522
 30
0.0
  0
VERTEX
  8
0
 10
-1.060412559
 20
-2.47341224889
 30
0.0
  0
VERTEX
  8
0
 10
-1.10214260053
 20
-2.50095065249
 30
0.0
  0
VERTEX
  8
0
 10
-1.14477704899
 20
-2.52706713071
 30
0.0
  0
VERTEX
  8
0
 10
-1.18825545555
 20
-2.55175319505
 30
0.0
  0
VERTEX
  8
0
 10
-1.23251776999
 20
-2.5750046125
 30
0.0
  0
VERTEX
  8
0
 10
-1.27750472256
 20
-2.59682117739
 30
0.0
  0
VERTEX
  8
0
 10
-1.32315816341
 20
-2.61720645171
 30
0.0
  0
VERTEX
  8
0
 10
-1.36942135755
 20
-2.63616748249
 30
0.0
  0
VERTEX
  8
0
 10
-1.40596330275
 20
-2.65
 30
0.0
  0
SEQEND
  8
0
  0
POLYLINE
  8
0
 62
0
 70
0
 66
1
 10
0.0
 20
0.0
 30
0.0
  0
VERTEX
  8
0
 10
-3.48027522936
 20
2.55183486239
 30
0.0
  0
VERTEX
  8
0
 10
-3.47577730492
 20
2.60156267971
 30
0.0
  0
VERTEX
  8
0
 10
-3.46210625904
 20
2.64957781889
 30
0.0
  0
VERTEX
  8
0
 10
-3.43938988012
 20
2.69402798554
 30
0.0
  0
VERTEX
  8
0
 10
-3.408330103
 20
2.73310472948
 30
0.0
  0
VERTEX
  8
0
 10
-3.4
 20
2.74128440367
 30
0.0
  0
SEQEND
  8
0
  0
POLYLINE
  8
0
 62
0
 70
0
 66
1
 10
0.0
 20
0.0
 30
0.0
  0
VERTEX
  8
0
 10
-2.3371559633
 20
1.74266055046
 30
0.0
  0
VERTEX
  8
0
 10
-2.38573279478
 20
1.75450382824
 30
0.0
  0
VERTEX
  8
0
 10
-2.43444278657
 20
1.76578698676
 30
0.0
  0
VERTEX
  8
0
 10
-2.48327681429
 20
1.77652066645
 30
0.0
  0
VERTEX
  8
0
 10
-2.53222610177
 20
1.78671588935
 30
0.0
  0
VERTEX
  8
0
 10
-2.58128222971
 20
1.79638402177
 30
0.0
  0
VERTEX
  8
0
 10
-2.63043714199
 20
1.80553673813
 30
0.0
  0
VERTEX
  8
0
 10
-2.6796831495
 20
1.81418598605
 30
0.0
  0
VERTEX
  8
0
 10
-2.72901293187
 20
1.82234395287
 30
0.0
  0
VERTEX
  8
0
 10
-2.77841953721
 20
1.83002303384
 30
0.0
  0
VERTEX
  8
0
 10
-2.82789637996
 20
1.83723580198
 30
0.0
  0
VERTEX
  8
0
 10
-2.87743723725
 20
1.84399497977
 30
0.0
  0
VERTEX
  8
0
 10
-2.92703624361
 20
1.85031341275
 30
0.0
  0
VERTEX
  8
0
 10
-2.97668788459
 20
1.85620404495
 30
0.0
  0
VERTEX
  8
0
 10
-3.02638698915
 20
1.86167989632
 30
0.0
  0
VERTEX
  8
0
 10
-3.0761287211
 20
1.86675404197
 30
0.0
  0
VERTEX
  8
0
 10
-3.12590856981
 20
1.87143959344
 30
0.0
  0
VERTEX
  8
0
 10
-3.17572234014
 20
1.87574968164
 30
0.0
  0
VERTEX
  8
0
 10
-3.22556614192
 20
1.87969744175
 30
0.0
  0
VERTEX
  8
0
 10
-3.23944954128
 20
1.88073394495
 30
0.0
  0
SEQEND
  8
0
  0
POLYLINE
  8
0
 62
0
 70
0
 66
1
 10
0.0
 20
0.0
 30
0.0
  0
VERTEX
  8
0
 10
-1.88440366972
 20
1.18394495413
 30
0.0
  0
VERTEX
  8
0
 10
-1.88641111998
 20
1.23389096276
 30
0.0
  0
VERTEX
  8
0
 10
-1.89254506926
 20
1.28349823815
 30
0.0
  0
VERTEX
  8
0
 10
-1.90293071795
 20
1.33239130522
 30
0.0
  0
VERTEX
  8
0
 10
-1.91762614737
 20
1.38016520651
 30
0.0
  0
VERTEX
  8
0
 10
-1.93661195217
 20
1.42640129631
 30
0.0
  0
VERTEX
  8
0
 10
-1.95978642965
 20
1.47068615326
 30
0.0
  0
VERTEX
  8
0
 10
-1.98696754944
 20
1.51263128757
 30
0.0
  0
VERTEX
  8
0
 10
-2.01790166772
 20
1.55189097936
 30
0.0
  0
VERTEX
  8
0
 10
-2.05227765286
 20
1.58817594581
 30
0.0
  0
VERTEX
  8
0
 10
-2.08974419318
 20
1.62126147075
 30
0.0
  0
VERTEX
  8
0
 10
-2.1299278083
 20
1.6509897846
 30
0.0
  0
VERTEX
  8
0
 10
-2.17244944666
 20
1.67726746898
 30
0.0
  0
VERTEX
  8
0
 10
-2.21693827289
 20
1.70005924043
 30
0.0
  0
VERTEX
  8
0
 10
-2.26304203354
 20
1.7193796087
 30
0.0
  0
VERTEX
  8
0
 10
-2.31043402593
 20
1.73528372546
 30
0.0
  0
VERTEX
  8
0
 10
-2.3371559633
 20
1.74266055046
 30
0.0
  0
SEQEND
  8
0
  0
POLYLINE
  8
0
 62
0
 70
0
 66
1
 10
0.0
 20
0.0
 30
0.0
  0
VERTEX
  8
0
 10
-2.3371559633
 20
0.625229357798
 30
0.0
  0
VERTEX
  8
0
 10
-2.28917973307
 20
0.63927502221
 30
0.0
  0
VERTEX
  8
0
 10
-2.2423231725
 20
0.656692167783
 30
0.0
  0
VERTEX
  8
0
 10
-2.19689692817
 20
0.677554569215
 30
0.0
  0
VERTEX
  8
0
 10
-2.15323974427
 20
0.701900408451
 30
0.0
  0
VERTEX
  8
0
 10
-2.11171320966
 20
0.729723119484
 30
0.0
  0
VERTEX
  8
0
 10
-2.07269330989
 20
0.760962455033
 30
0.0
  0
VERTEX
  8
0
 10
-2.03655850722
 20
0.795496913062
 30
0.0
  0
VERTEX
  8
0
 10
-2.00367458068
 20
0.833138948222
 30
0.0
  0
VERTEX
  8
0
 10
-1.97437717862
 20
0.873634449753
 30
0.0
  0
VERTEX
  8
0
 10
-1.94895382598
 20
0.916667638315
 30
0.0
  0
VERTEX
  8
0
 10
-1.92762772702
 20
0.961871757786
 30
0.0
  0
VERTEX
  8
0
 10
-1.91054581515
 20
1.00884483513
 30
0.0
  0
VERTEX
  8
0
 10
-1.89777295162
 20
1.05716867346
 30
0.0
  0
VERTEX
  8
0
 10
-1.88929305326
 20
1.10642852955
 30
0.0
  0
VERTEX
  8
0
 10
-1.88501659234
 20
1.15623088099
 30
0.0
  0
VERTEX
  8
0
 10
-1.88440366972
 20
1.18394495413
 30
0.0
  0
SEQEND
  8
0
  0
POLYLINE
  8
0
 62
0
 70
0
 66
1
 10
0.0
 20
0.0
 30
0.0
  0
VERTEX
  8
0
 10
-3.23944954128
 20
0.483944954128
 30
0.0
  0
VERTEX
  8
0
 10
-3.18960018758
 20
0.487821566632
 30
0.0
  0
VERTEX
  8
0
 10
-3.13978435938
 20
0.492107469339
 30
0.0
  0
VERTEX
  8
0
 10
-3.09000608945
 20
0.496809494903
 30
0.0
  0
VERTEX
  8
0
 10
-3.04026958854
 20
0.501934450524
 30
0.0
  0
VERTEX
  8
0
 10
-2.99057924798
 20
0.507489108966
 30
0.0
  0
VERTEX
  8
0
 10
-2.94093964194
 20
0.513480199023
 30
0.0
  0
VERTEX
  8
0
 10
-2.89135552928
 20
0.519914395426
 30
0.0
  0
VERTEX
  8
0
 10
-2.841831855
 20
0.526798308214
 30
0.0
  0
VERTEX
  8
0
 10
-2.79237375132
 20
0.534138471565
 30
0.0
  0
VERTEX
  8
0
 10
-2.74298653811
 20
0.541941332099
 30
0.0
  0
VERTEX
  8
0
 10
-2.69367572295
 20
0.550213236687
 30
0.0
  0
VERTEX
  8
0
 10
-2.64444700047
 20
0.558960419766
 30
0.0
  0
VERTEX
  8
0
 10
-2.59530625114
 20
0.568188990202
 30
0.0
  0
VERTEX
  8
0
 10
-2.54625953939
 20
0.577904917735
 30
0.0
  0
VERTEX
  8
0
 10
-2.49731311098
 20
0.588114019043
 30
0.0
  0
VERTEX
  8
0
 10
-2.44847338964
 20
0.598821943477
 30
0.0
  0
VERTEX
  8
0
 10
-2.39974697297
 20
0.610034158504
 30
0.0
  0
VERTEX
  8
0
 10
-2.3511406274
 20
0.621755934955
 30
0.0
  0
VERTEX
  8
0
 10
-2.3371559633
 20
0.625229357798
 30
0.0
  0
SEQEND
  8
0
  0
POLYLINE
  8
0
 62
0
 70
0
 66
1
 10
0.0
 20
0.0
 30
0.0
  0
VERTEX
  8
0
 10
-3.23302752294
 20
-0.472935779817
 30
0.0
  0
VERTEX
  8
0
 10
-3.28258389694
 20
-0.466734909762
 30
0.0
  0
VERTEX
  8
0
 10
-3.33026913483
 20
-0.451941070684
 30
0.0
  0
VERTEX
  8
0
 10
-3.37415236421
 20
-0.428158763589
 30
0.0
  0
VERTEX
  8
0
 10
-3.41212796053
 20
-0.395780018618
 30
0.0
  0
VERTEX
  8
0
 10
-3.44238365481
 20
-0.356090741511
 30
0.0
  0
VERTEX
  8
0
 10
-3.46384168286
 20
-0.311022259591
 30
0.0
  0
VERTEX
  8
0
 10
-3.47630415309
 20
-0.262672208147
 30
0.0
  0
VERTEX
  8
0
 10
-3.48027522677
 20
-0.212885251058
 30
0.0
  0
VERTEX
  8
0
 10
-3.48027522936
 20
-0.212844036697
 30
0.0
  0
SEQEND
  8
0
  0
POLYLINE
  8
0
 62
0
 70
0
 66
1
 10
0.0
 20
0.0
 30
0.0
  0
VERTEX
  8
0
 10
3.26605504587
 20
-2.00779816514
 30
0.0
  0
VERTEX
  8
0
 10
3.31561141988
 20
-2.01399903519
 30
0.0
  0
VERTEX
  8
0
 10
3.36329665777
 20
-2.02879287427
 30
0.0
  0
VERTEX
  8
0
 10
3.40717988715
 20
-2.05257518137
 30
0.0
  0
VERTEX
  8
0
 10
3.44515548347
 20
-2.08495392634
 30
0.0
  0
VERTEX
  8
0
 10
3.47541117775
 20
-2.12464320344
 30
0.0
  0
VERTEX
  8
0
 10
3.49686920579
 20
-2.16971168536
 30
0.0
  0
VERTEX
  8
0
 10
3.50933167602
 20
-2.21806173681
 30
0.0
  0
VERTEX
  8
0
 10
3.5133027497
 20
-2.2678486939
 30
0.0
  0
VERTEX
  8
0
 10
3.51330275229
 20
-2.26788990826
 30
0.0
  0
SEQEND
  8
0
  0
POLYLINE
  8
0
 62
0
 70
0
 66
1
 10
0.0
 20
0.0
 30
0.0
  0
VERTEX
  8
0
 10
1.65733944954
 20
-1.42981651376
 30
0.0
  0
VERTEX
  8
0
 10
1.67381595641
 20
-1.47701049064
 30
0.0
  0
VERTEX
  8
0
 10
1.69396779781
 20
-1.52275491954
 30
0.0
  0
VERTEX
  8
0
 10
1.71779367088
 20
-1.56669675601
 30
0.0
  0
VERTEX
  8
0
 10
1.74524014244
 20
-1.60847192968
 30
0.0
  0
VERTEX
  8
0
 10
1.77619648595
 20
-1.64771614938
 30
0.0
  0
VERTEX
  8
0
 10
1.81049213049
 20
-1.68407767367
 30
0.0
  0
VERTEX
  8
0
 10
1.84789753059
 20
-1.71723120882
 30
0.0
  0
VERTEX
  8
0
 10
1.88812896633
 20
-1.74689171862
 30
0.0
  0
VERTEX
  8
0
 10
1.93085729524
 20
-1.77282669691
 30
0.0
  0
VERTEX
  8
0
 10
1.9757200794
 20
-1.79486547407
 30
0.0
  0
VERTEX
  8
0
 10
2.02233594512
 20
-1.81290445177
 30
0.0
  0
VERTEX
  8
0
 10
2.0619266055
 20
-1.8247706422
 30
0.0
  0
SEQEND
  8
0
  0
POLYLINE
  8
0
 62
0
 70
0
 66
1
 10
0.0
 20
0.0
 30
0.0
  0
VERTEX
  8
0
 10
1.40688073394
 20
-1.24678899083
 30
0.0
  0
VERTEX
  8
0
 10
1.45662777071
 20
-1.2511162196
 30
0.0
  0
VERTEX
  8
0
 10
1.50471068632
 20
-1.26454188268
 30
0.0
  0
VERTEX
  8
0
 10
1.5491980414
 20
-1.28717767424
 30
0.0
  0
VERTEX
  8
0
 10
1.5882391805
 20
-1.31828094636
 30
0.0
  0
VERTEX
  8
0
 10
1.62048300783
 20
-1.35639659577
 30
0.0
  0
VERTEX
  8
0
 10
1.64527731215
 20
-1.39974302142
 30
0.0
  0
VERTEX
  8
0
 10
1.65733944954
 20
-1.42981651376
 30
0.0
  0
SEQEND
  8
0
  0
POLYLINE
  8
0
 62
0
 70
0
 66
1
 10
0.0
 20
0.0
 30
0.0
  0
VERTEX
  8
0
 10
0.501376146789
 20
-1.57110091743
 30
0.0
  0
VERTEX
  8
0
 10
0.495565539198
 20
-1.52149615633
 30
0.0
  0
VERTEX
  8
0
 10
0.498304523669
 20
-1.47163786179
 30
0.0
  0
VERTEX
  8
0
 10
0.510157136734
 20
-1.42314057655
 30
0.0
  0
VERTEX
  8
0
 10
0.531086140223
 20
-1.37781821943
 30
0.0
  0
VERTEX
  8
0
 10
0.552752293578
 20
-1.34633027523
 30
0.0
  0
SEQEND
  8
0
  0
POLYLINE
  8
0
 62
0
 70
0
 66
1
 10
0.0
 20
0.0
 30
0.0
  0
VERTEX
  8
0
 10
3.43302752294
 20
2.74128440367
 30
0.0
  0
VERTEX
  8
0
 10
3.46587339986
 20
2.70369614782
 30
0.0
  0
VERTEX
  8
0
 10
3.49062239446
 20
2.66034562349
 30
0.0
  0
VERTEX
  8
0
 10
3.50643759432
 20
2.61299492551
 30
0.0
  0
VERTEX
  8
0
 10
3.51306076984
 20
2.5635072173
 30
0.0
  0
VERTEX
  8
0
 10
3.51330275229
 20
2.55183486239
 30
0.0
  0
SEQEND
  8
0
  0
POLYLINE
  8
0
 62
0
 70
0
 66
1
 10
0.0
 20
0.0
 30
0.0
  0
VERTEX
  8
0
 10
1.72798165138
 20
2.52935779817
 30
0.0
  0
VERTEX
  8
0
 10
1.77500423337
 20
2.54635304981
 30
0.0
  0
VERTEX
  8
0
 10
1.82225042491
 20
2.56271644513
 30
0.0
  0
VERTEX
  8
0
 10
1.86970742405
 20
2.57845804787
 30
0.0
  0
VERTEX
  8
0
 10
1.9173628868
 20
2.59358825512
 30
0.0
  0
VERTEX
  8
0
 10
1.96520493342
 20
2.60811775339
 30
0.0
  0
VERTEX
  8
0
 10
2.01322215183
 20
2.62205747701
 30
0.0
  0
VERTEX
  8
0
 10
2.06140359806
 20
2.63541856878
 30
0.0
  0
VERTEX
  8
0
 10
2.10973879444
 20
2.64821234324
 30
0.0
  0
VERTEX
  8
0
 10
2.15821772549
 20
2.66045025234
 30
0.0
  0
VERTEX
  8
0
 10
2.20683083196
 20
2.67214385379
 30
0.0
  0
VERTEX
  8
0
 10
2.25556900327
 20
2.68330478181
 30
0.0
  0
VERTEX
  8
0
 10
2.30442356846
 20
2.69394472056
 30
0.0
  0
VERTEX
  8
0
 10
2.3533862861
 20
2.70407537987
 30
0.0
  0
VERTEX
  8
0
 10
2.40244933311
 20
2.71370847346
 30
0.0
  0
VERTEX
  8
0
 10
2.45160529299
 20
2.72285569935
 30
0.0
  0
VERTEX
  8
0
 10
2.50084714325
 20
2.73152872263
 30
0.0
  0
VERTEX
  8
0
 10
2.55016824264
 20
2.73973916016
 30
0.0
  0
VERTEX
  8
0
 10
2.59956231789
 20
2.74749856737
 30
0.0
  0
VERTEX
  8
0
 10
2.64902345039
 20
2.75481842689
 30
0.0
  0
VERTEX
  8
0
 10
2.69854606283
 20
2.76171013897
 30
0.0
  0
VERTEX
  8
0
 10
2.74812490577
 20
2.76818501358
 30
0.0
  0
VERTEX
  8
0
 10
2.79775504442
 20
2.77425426402
 30
0.0
  0
VERTEX
  8
0
 10
2.84743184559
 20
2.77992900202
 30
0.0
  0
VERTEX
  8
0
 10
2.89715096482
 20
2.78522023422
 30
0.0
  0
VERTEX
  8
0
 10
2.94690833388
 20
2.79013885989
 30
0.0
  0
VERTEX
  8
0
 10
2.99670014854
 20
2.79469566978
 30
0.0
  0
VERTEX
  8
0
 10
3.0465228567
 20
2.7989013462
 30
0.0
  0
VERTEX
  8
0
 10
3.09637314695
 20
2.802766464
 30
0.0
  0
VERTEX
  8
0
 10
3.1462479375
 20
2.8063014926
 30
0.0
  0
VERTEX
  8
0
 10
3.19614436548
 20
2.80951679891
 30
0.0
  0
VERTEX
  8
0
 10
3.2371559633
 20
2.8119266055
 30
0.0
  0
SEQEND
  8
0
  0
POLYLINE
  8
0
 62
0
 70
0
 66
1
 10
0.0
 20
0.0
 30
0.0
  0
VERTEX
  8
0
 10
0.790366972477
 20
1.48256880734
 30
0.0
  0
VERTEX
  8
0
 10
0.802456576885
 20
1.53108287805
 30
0.0
  0
VERTEX
  8
0
 10
0.816145841718
 20
1.57917002325
 30
0.0
  0
VERTEX
  8
0
 10
0.831433383904
 20
1.62677313989
 30
0.0
  0
VERTEX
  8
0
 10
0.848314661013
 20
1.67383463753
 30
0.0
  0
VERTEX
  8
0
 10
0.866781908617
 20
1.72029666007
 30
0.0
  0
VERTEX
  8
0
 10
0.886824095569
 20
1.766101316
 30
0.0
  0
VERTEX
  8
0
 10
0.908426897951
 20
1.8111909156
 30
0.0
  0
VERTEX
  8
0
 10
0.931572692327
 20
1.85550821348
 30
0.0
  0
VERTEX
  8
0
 10
0.956240568806
 20
1.89899665474
 30
0.0
  0
VERTEX
  8
0
 10
0.982406364304
 20
1.94160062305
 30
0.0
  0
VERTEX
  8
0
 10
1.01004271629
 20
1.98326568875
 30
0.0
  0
VERTEX
  8
0
 10
1.03911913715
 20
2.02393885504
 30
0.0
  0
VERTEX
  8
0
 10
1.06960210923
 20
2.06356880027
 30
0.0
  0
VERTEX
  8
0
 10
1.10145520032
 20
2.10210611422
 30
0.0
  0
VERTEX
  8
0
 10
1.13463919942
 20
2.13950352607
 30
0.0
  0
VERTEX
  8
0
 10
1.16911227213
 20
2.17571612198
 30
0.0
  0
VERTEX
  8
0
 10
1.20483013495
 20
2.21070154982
 30
0.0
  0
VERTEX
  8
0
 10
1.24174624753
 20
2.24442020884
 30
0.0
  0
VERTEX
  8
0
 10
1.27981202151
 20
2.27683542194
 30
0.0
  0
VERTEX
  8
0
 10
1.31897704432
 20
2.30791358842
 30
0.0
  0
VERTEX
  8
0
 10
1.35918931621
 20
2.33762431512
 30
0.0
  0
VERTEX
  8
0
 10
1.4003954981
 20
2.36594052421
 30
0.0
  0
VERTEX
  8
0
 10
1.44254116795
 20
2.39283853603
 30
0.0
  0
VERTEX
  8
0
 10
1.4855710828
 20
2.41829812584
 30
0.0
  0
VERTEX
  8
0
 10
1.52942944376
 20
2.44230255365
 30
0.0
  0
VERTEX
  8
0
 10
1.57406016075
 20
2.46483856688
 30
0.0
  0
VERTEX
  8
0
 10
1.61940711406
 20
2.48589637587
 30
0.0
  0
VERTEX
  8
0
 10
1.66541440962
 20
2.50546960299
 30
0.0
  0
VERTEX
  8
0
 10
1.71202662516
 20
2.52355520594
 30
0.0
  0
VERTEX
  8
0
 10
1.72798165138
 20
2.52935779817
 30
0.0
  0
SEQEND
  8
0
  0
POLYLINE
  8
0
 62
0
 70
0
 66
1
 10
0.0
 20
0.0
 30
0.0
  0
VERTEX
  8
0
 10
0.841743119266
 20
1.27064220183
 30
0.0
  0
VERTEX
  8
0
 10
0.814362961602
 20
1.31239917779
 30
0.0
  0
VERTEX
  8
0
 10
0.795280124546
 20
1.35852759844
 30
0.0
  0
VERTEX
  8
0
 10
0.785793513059
 20
1.40753093499
 30
0.0
  0
VERTEX
  8
0
 10
0.786362007072
 20
1.45744505566
 30
0.0
  0
VERTEX
  8
0
 10
0.790366972477
 20
1.48256880734
 30
0.0
  0
SEQEND
  8
0
  0
POLYLINE
  8
0
 62
0
 70
0
 66
1
 10
0.0
 20
0.0
 30
0.0
  0
VERTEX
  8
0
 10
1.04724770642
 20
1.17752293578
 30
0.0
  0
VERTEX
  8
0
 10
0.997528895884
 20
1.18210368871
 30
0.0
  0
VERTEX
  8
0
 10
0.94949246534
 20
1.1957215733
 30
0.0
  0
VERTEX
  8
0
 10
0.904734829177
 20
1.21785483147
 30
0.0
  0
VERTEX
  8
0
 10
0.864671645068
 20
1.24765870408
 30
0.0
  0
VERTEX
  8
0
 10
0.841743119266
 20
1.27064220183
 30
0.0
  0
SEQEND
  8
0
  0
POLYLINE
  8
0
 62
0
 70
0
 66
1
 10
0.0
 20
0.0
 30
0.0
  0
VERTEX
  8
0
 10
3.27247706422
 20
1.88073394495
 30
0.0
  0
VERTEX
  8
0
 10
3.22262542345
 20
1.87688638899
 30
0.0
  0
VERTEX
  8
0
 10
3.17280264793
 20
1.87268164776
 30
0.0
  0
VERTEX
  8
0
 10
3.12301278575
 20
1.86810372146
 30
0.0
  0
VERTEX
  8
0
 10
3.07326027277
 20
1.86313641332
 30
0.0
  0
VERTEX
  8
0
 10
3.0235499578
 20
1.85776332001
 30
0.0
  0
VERTEX
  8
0
 10
2.97388712907
 20
1.85196782456
 30
0.0
  0
VERTEX
  8
0
 10
2.92427754193
 20
1.8457330917
 30
0.0
  0
VERTEX
  8
0
 10
2.8747274477
 20
1.83904206615
 30
0.0
  0
VERTEX
  8
0
 10
2.82524362379
 20
1.83187747392
 30
0.0
  0
VERTEX
  8
0
 10
2.77583340472
 20
1.82422182701
 30
0.0
  0
VERTEX
  8
0
 10
2.72650471419
 20
1.81605743193
 30
0.0
  0
VERTEX
  8
0
 10
2.67726609776
 20
1.8073664022
 30
0.0
  0
VERTEX
  8
0
 10
2.62812675618
 20
1.79813067541
 30
0.0
  0
VERTEX
  8
0
 10
2.57909657885
 20
1.78833203521
 30
0.0
  0
VERTEX
  8
0
 10
2.53018617727
 20
1.77795213856
 30
0.0
  0
VERTEX
  8
0
 10
2.48140691792
 20
1.76697254884
 30
0.0
  0
VERTEX
  8
0
 10
2.43277095416
 20
1.75537477507
 30
0.0
  0
VERTEX
  8
0
 10
2.38429125661
 20
1.74314031791
 30
0.0
  0
VERTEX
  8
0
 10
2.37018348624
 20
1.73944954128
 30
0.0
  0
SEQEND
  8
0
  0
LINE
  8
0
 62
0
 10
-14.59389635
 20
2.75
 30
0.0
 11
-14.79389635
 21
2.75
 31
0.0
  0
ARC
  8
0
 62
0
 10
-14.79389635
 20
1.75
 30
0.0
 40
1.0
 50
90.0
 51
-180.0
  0
LINE
  8
0
 62
0
 10
-14.59389635
 20
1.75
 30
0.0
 11
-14.59389635
 21
2.75
 31
0.0
  0
LINE
  8
0
 62
0
 10
-15.79389635
 20
1.75
 30
0.0
 11
-15.79389635
 21
-1.75
 31
0.0
  0
ARC
  8
0
 62
0
 10
-13.9389013937
 20
1.74995869891
 30
0.0
 40
0.654994957572
 50
179.996387181
 51
-33.6874975144
  0
ARC
  8
0
 62
0
 10
-14.79389635
 20
-1.75
 30
0.0
 40
1.0
 50
180.0
 51
-90.0
  0
ARC
  8
0
 62
0
 10
-11.313708499
 20
-1.36002320517e-13
 30
0.0
 40
2.5
 50
135.0
 51
146.312498945
  0
LINE
  8
0
 62
0
 10
-14.79389635
 20
-2.75
 30
0.0
 11
-14.59389635
 21
-2.75
 31
0.0
  0
LINE
  8
0
 62
0
 10
-12.3743686708
 20
2.47487373415
 30
0.0
 11
-13.081475452
 21
1.76776695297
 31
0.0
  0
LINE
  8
0
 62
0
 10
-14.59389635
 20
-2.75
 30
0.0
 11
-14.59389635
 21
-1.74995837657
 31
0.0
  0
ARC
  8
0
 62
0
 10
-14.4956890143
 20
4.59619407771
 30
0.0
 40
3.0
 50
-45.0
 51
45.0
  0
ARC
  8
0
 62
0
 10
-13.9389013924
 20
-1.74995870086
 30
0.0
 40
0.654994957572
 50
33.6874977195
 51
179.999971632
  0
LINE
  8
0
 62
0
 10
-24.4015344338
 20
18.7446801843
 30
0.0
 11
-12.3743686708
 21
6.71751442127
 31
0.0
  0
ARC
  8
0
 62
0
 10
-11.313708499
 20
1.13020703907e-13
 30
0.0
 40
2.5
 50
-146.312498945
 51
-135.0
  0
ARC
  8
0
 62
0
 10
-35.0081361516
 20
8.13807846649
 30
0.0
 40
15.0
 50
45.0
 51
75.0482947888
  0
LINE
  8
0
 62
0
 10
-13.081475452
 20
-1.76776695297
 30
0.0
 11
-12.3743686708
 21
-2.47487373415
 31
0.0
  0
ARC
  8
0
 62
0
 10
-29.3449314192
 20
29.3449314192
 30
0.0
 40
6.95
 50
14.9517052112
 51
-104.951705211
  0
ARC
  8
0
 62
0
 10
-14.4956890143
 20
-4.59619407771
 30
0.0
 40
3.0
 50
-45.0
 51
45.0
  0
ARC
  8
0
 62
0
 10
-8.13807846649
 20
35.0081361516
 30
0.0
 40
15.0
 50
-165.048294789
 51
-135.0
  0
LINE
  8
0
 62
0
 10
-24.4015344338
 20
-18.7446801843
 30
0.0
 11
-12.3743686708
 21
-6.71751442127
 31
0.0
  0
LINE
  8
0
 62
0
 10
-6.71751442127
 20
12.3743686708
 30
0.0
 11
-18.7446801843
 21
24.4015344338
 31
0.0
  0
ARC
  8
0
 62
0
 10
-35.0081361516
 20
-8.13807846649
 30
0.0
 40
15.0
 50
-75.0482947888
 51
-45.0
  0
ARC
  8
0
 62
0
 10
-4.59619407771
 20
14.4956890143
 30
0.0
 40
3.0
 50
-135.0
 51
-45.0
  0
ARC
  8
0
 62
0
 10
-29.3449314192
 20
-29.3449314192
 30
0.0
 40
6.95
 50
104.951705211
 51
-14.9517052112
  0
LINE
  8
0
 62
0
 10
-1.76776695297
 20
13.081475452
 30
0.0
 11
-2.47487373415
 21
12.3743686708
 31
0.0
  0
ARC
  8
0
 62
0
 10
-8.13807846649
 20
-35.0081361516
 30
0.0
 40
15.0
 50
135.0
 51
165.048294789
  0
ARC
  8
0
 62
0
 10
-2.49800180541e-15
 20
11.313708499
 30
0.0
 40
2.5
 50
45.0
 51
135.0
  0
LINE
  8
0
 62
0
 10
-6.71751442127
 20
-12.3743686708
 30
0.0
 11
-18.7446801843
 21
-24.4015344338
 31
0.0
  0
LINE
  8
0
 62
0
 10
2.47487373415
 20
12.3743686708
 30
0.0
 11
1.76776695297
 21
13.081475452
 31
0.0
  0
ARC
  8
0
 62
0
 10
-4.59619407771
 20
-14.4956890143
 30
0.0
 40
3.0
 50
45.0
 51
135.0
  0
ARC
  8
0
 62
0
 10
4.59619407771
 20
14.4956890143
 30
0.0
 40
3.0
 50
-135.0
 51
-45.0
  0
LINE
  8
0
 62
0
 10
-2.47487373415
 20
-12.3743686708
 30
0.0
 11
-1.76776695297
 21
-13.081475452
 31
0.0
  0
LINE
  8
0
 62
0
 10
6.71751442127
 20
12.3743686708
 30
0.0
 11
18.7446801843
 21
24.4015344338
 31
0.0
  0
ARC
  8
0
 62
0
 10
1.7763568394e-15
 20
-11.313708499
 30
0.0
 40
2.5
 50
-135.0
 51
-45.0
  0
ARC
  8
0
 62
0
 10
8.13807846649
 20
35.0081361516
 30
0.0
 40
15.0
 50
-45.0
 51
-14.9517052112
  0
LINE
  8
0
 62
0
 10
1.76776695297
 20
-13.081475452
 30
0.0
 11
2.47487373415
 21
-12.3743686708
 31
0.0
  0
ARC
  8
0
 62
0
 10
29.3449314192
 20
29.3449314192
 30
0.0
 40
6.95
 50
-75.0482947888
 51
165.048294789
  0
ARC
  8
0
 62
0
 10
4.59619407771
 20
-14.4956890143
 30
0.0
 40
3.0
 50
45.0
 51
135.0
  0
ARC
  8
0
 62
0
 10
35.0081361516
 20
8.13807846649
 30
0.0
 40
15.0
 50
104.951705211
 51
135.0
  0
LINE
  8
0
 62
0
 10
6.71751442127
 20
-12.3743686708
 30
0.0
 11
18.7446801843
 21
-24.4015344338
 31
0.0
  0
LINE
  8
0
 62
0
 10
24.4015344338
 20
18.7446801843
 30
0.0
 11
12.3743686708
 21
6.71751442127
 31
0.0
  0
ARC
  8
0
 62
0
 10
8.13807846649
 20
-35.0081361516
 30
0.0
 40
15.0
 50
14.9517052112
 51
45.0
  0
ARC
  8
0
 62
0
 10
14.4956890143
 20
4.59619407771
 30
0.0
 40
3.0
 50
135.0
 51
-135.0
  0
ARC
  8
0
 62
0
 10
29.3449314192
 20
-29.3449314192
 30
0.0
 40
6.95
 50
-165.048294789
 51
75.0482947888
  0
LINE
  8
0
 62
0
 10
13.081475452
 20
1.76776695297
 30
0.0
 11
12.3743686708
 21
2.47487373415
 31
0.0
  0
ARC
  8
0
 62
0
 10
35.0081361516
 20
-8.13807846649
 30
0.0
 40
15.0
 50
-135.0
 51
-104.951705211
  0
ARC
  8
0
 62
0
 10
11.313708499
 20
-2.78665979181e-14
 30
0.0
 40
2.5
 50
33.6875010551
 51
45.0
  0
LINE
  8
0
 62
0
 10
24.4015344338
 20
-18.7446801843
 30
0.0
 11
12.3743686708
 21
-6.71751442127
 31
0.0
  0
ARC
  8
0
 62
0
 10
13.9389013937
 20
1.74995869891
 30
0.0
 40
0.654994957572
 50
-146.312502486
 51
0.00361281932543
  0
ARC
  8
0
 62
0
 10
14.4956890143
 20
-4.59619407771
 30
0.0
 40
3.0
 50
135.0
 51
-135.0
  0
LINE
  8
0
 62
0
 10
14.59389635
 20
1.75
 30
0.0
 11
14.59389635
 21
2.75
 31
0.0
  0
LINE
  8
0
 62
0
 10
12.3743686708
 20
-2.47487373415
 30
0.0
 11
13.081475452
 21
-1.76776695297
 31
0.0
  0
LINE
  8
0
 62
0
 10
14.59389635
 20
2.75
 30
0.0
 11
14.79389635
 21
2.75
 31
0.0
  0
ARC
  8
0
 62
0
 10
11.313708499
 20
-9.7699626167e-15
 30
0.0
 40
2.5
 50
-45.0
 51
-33.6875010551
  0
ARC
  8
0
 62
0
 10
14.79389635
 20
1.75
 30
0.0
 40
1.0
 50
-0.0
 51
90.0
  0
ARC
  8
0
 62
0
 10
13.9389013924
 20
-1.74995870086
 30
0.0
 40
0.654994957572
 50
2.83679061739e-05
 51
146.31250228
  0
LINE
  8
0
 62
0
 10
15.79389635
 20
1.75
 30
0.0
 11
15.79389635
 21
-1.75
 31
0.0
  0
LINE
  8
0
 62
0
 10
14.59389635
 20
-2.75
 30
0.0
 11
14.59389635
 21
-1.74995837657
 31
0.0
  0
ARC
  8
0
 62
0
 10
14.79389635
 20
-1.75
 30
0.0
 40
1.0
 50
-90.0
 51
0.0
  0
LINE
  8
0
 62
0
 10
14.79389635
 20
-2.75
 30
0.0
 11
14.59389635
 21
-2.75
 31
0.0
  0
CIRCLE
  8
0
 62
0
 10
29.3449314192
 20
29.3449314192
 30
0.0
 40
2.25
  0
CIRCLE
  8
0
 62
0
 10
-29.3449314192
 20
29.3449314192
 30
0.0
 40
2.25
  0
CIRCLE
  8
0
 62
0
 10
-29.3449314192
 20
-29.3449314192
 30
0.0
 40
2.25
  0
CIRCLE
  8
0
 62
0
 10
29.3449314192
 20
-29.3449314192
 30
0.0
 40
2.25
  0
LINE
  8
0
 62
0
 10
3.77018348624
 20
-0.472935779817
 30
0.0
 11
4.05917431193
 21
-0.472935779817
 31
0.0
  0
LINE
  8
0
 62
0
 10
4.09449541284
 20
-2.26788990826
 30
0.0
 11
4.09449541284
 21
-2.67889908257
 31
0.0
  0
LINE
  8
0
 62
0
 10
4.09449541284
 20
2.55183486239
 30
0.0
 11
4.09449541284
 21
2.14082568807
 31
0.0
  0
LINE
  8
0
 62
0
 10
4.05596330275
 20
0.461467889908
 30
0.0
 11
3.76697247706
 21
0.461467889908
 31
0.0
  0
LINE
  8
0
 62
0
 10
3.51330275229
 20
0.198165137615
 30
0.0
 11
3.51330275229
 21
-0.212844036697
 31
0.0
  0
LINE
  8
0
 62
0
 10
-4.06146788991
 20
-2.67889908257
 30
0.0
 11
-4.06146788991
 21
-2.26788990826
 31
0.0
  0
LINE
  8
0
 62
0
 10
-4.06146788991
 20
-0.212844036697
 30
0.0
 11
-4.06146788991
 21
0.223853211009
 31
0.0
  0
LINE
  8
0
 62
0
 10
-4.06146788991
 20
2.14082568807
 30
0.0
 11
-4.06146788991
 21
2.55183486239
 31
0.0
  0
LINE
  8
0
 62
0
 10
-3.48027522936
 20
2.55183486239
 30
0.0
 11
-3.48027522936
 21
2.14082568807
 31
0.0
  0
LINE
  8
0
 62
0
 10
-3.48027522936
 20
0.223853211009
 30
0.0
 11
-3.48027522936
 21
-0.212844036697
 31
0.0
  0
LINE
  8
0
 62
0
 10
-3.48027522936
 20
-2.26788990826
 30
0.0
 11
-3.48027522936
 21
-2.67889908257
 31
0.0
  0
LINE
  8
0
 62
0
 10
1.40688073394
 20
-1.24678899083
 30
0.0
 11
0.758256880734
 21
-1.24678899083
 31
0.0
  0
LINE
  8
0
 62
0
 10
3.51330275229
 20
-2.67889908257
 30
0.0
 11
3.51330275229
 21
-2.26788990826
 31
0.0
  0
LINE
  8
0
 62
0
 10
1.04724770642
 20
1.17752293578
 30
0.0
 11
1.69587155963
 21
1.17752293578
 31
0.0
  0
LINE
  8
0
 62
0
 10
3.51330275229
 20
2.14082568807
 30
0.0
 11
3.51330275229
 21
2.55183486239
 31
0.0
  0
CIRCLE
  8
0
 62
0
 10
29.3449314192
 20
33.8449314192
 30
0.0
 40
1.0
  0
CIRCLE
  8
0
 62
0
 10
-33.8449314192
 20
-29.3449314192
 30
0.0
 40
1.0
  0
CIRCLE
  8
0
 62
0
 10
-29.3449314192
 20
33.8449314192
 30
0.0
 40
1.0
  0
CIRCLE
  8
0
 62
0
 10
-29.3449314192
 20
-33.8449314192
 30
0.0
 40
1.0
  0
CIRCLE
  8
0
 62
0
 10
33.8449314192
 20
-29.3449314192
 30
0.0
 40
1.0
  0
CIRCLE
  8
0
 62
0
 10
-33.8449314192
 20
29.3449314192
 30
0.0
 40
1.0
  0
CIRCLE
  8
0
 62
0
 10
29.3449314192
 20
-33.8449314192
 30
0.0
 40
1.0
  0
CIRCLE
  8
0
 62
0
 10
33.8449314192
 20
29.3449314192
 30
0.0
 40
1.0
  0
CIRCLE
  8
0
 62
0
 10
-11.313708
 20
0.0
 30
0.0
 40
1.0
  0
CIRCLE
  8
0
 62
0
 10
0.0
 20
11.313708499
 30
0.0
 40
1.0
  0
CIRCLE
  8
0
 62
0
 10
0.0
 20
-11.313708499
 30
0.0
 40
1.0
  0
CIRCLE
  8
0
 62
0
 10
11.313708499
 20
0.0
 30
0.0
 40
1.0
  0
CIRCLE
  8
0
 62
0
 10
-24.8449314192
 20
29.3449314192
 30
0.0
 40
1.0
  0
CIRCLE
  8
0
 62
0
 10
29.3449314192
 20
24.8449314192
 30
0.0
 40
1.0
  0
CIRCLE
  8
0
 62
0
 10
-29.3449314192
 20
24.8449314192
 30
0.0
 40
1.0
  0
CIRCLE
  8
0
 62
0
 10
24.8449314192
 20
29.3449314192
 30
0.0
 40
1.0
  0
CIRCLE
  8
0
 62
0
 10
24.8449314192
 20
-29.3449314192
 30
0.0
 40
1.0
  0
CIRCLE
  8
0
 62
0
 10
-29.3449314192
 20
-24.8449314192
 30
0.0
 40
1.0
  0
CIRCLE
  8
0
 62
0
 10
29.3449314192
 20
-24.8449314192
 30
0.0
 40
1.0
  0
CIRCLE
  8
0
 62
0
 10
-24.8449314192
 20
-29.3449314192
 30
0.0
 40
1.0
  0
ENDBLK
  0
ENDSEC
  0
SECTION
  2
ENTITIES
  0
INSERT
  2
FILLET002004
  8
0
 62
0
 10
0.0
 20
0.0
 30
0.0
  0
ENDSEC
  0
EOF
