0
SECTION
2
HEADER
9
$INSUNITS
70
4
9
$ACADVER
1
AC1014
9
$HANDSEED
5
FFFF
0
ENDSEC
0
SECTION
2
TABLES
0
TABLE
2
VPORT
5
8
100
AcDbSymbolTable
0
ENDTAB
0
TABLE
2
LTYPE
5
5
100
AcDbSymbolTable
0
LTYPE
5
14
100
AcDbSymbolTableRecord
100
AcDbLinetypeTableRecord
2
BYBLOCK
70
0
0
LTYPE
5
15
100
AcDbSymbolTableRecord
100
AcDbLinetypeTableRecord
2
BYLAYER
70
0
0
ENDTAB
0
TABLE
2
LAYER
5
2
100
AcDbSymbolTable
70
2
0
LAYER
5
50
100
AcDbSymbolTableRecord
100
AcDbLayerTableRecord
2
0
70
0
6
CONTINUOUS
0
ENDTAB
0
TABLE
2
STYLE
5
3
100
AcDbSymbolTable
70
1
0
STYLE
5
11
100
AcDbSymbolTableRecord
100
AcDbTextStyleTableRecord
2
STANDARD
70
0
0
ENDTAB
0
TABLE
2
VIEW
5
6
100
AcDbSymbolTable
70
0
0
ENDTAB
0
TABLE
2
UCS
5
7
100
AcDbSymbolTable
70
0
0
ENDTAB
0
TABLE
2
APPID
5
9
100
AcDbSymbolTable
70
2
0
APPID
5
12
100
AcDbSymbolTableRecord
100
AcDbRegAppTableRecord
2
ACAD
70
0
0
ENDTAB
0
TABLE
2
DIMSTYLE
5
A
100
AcDbSymbolTable
70
1
0
ENDTAB
0
TABLE
2
BLOCK_RECORD
5
1
100
AcDbSymbolTable
70
1
0
BLOCK_RECORD
5
1F
100
AcDbSymbolTableRecord
100
AcDbBlockTableRecord
2
*MODEL_SPACE
0
BLOCK_RECORD
5
1B
100
AcDbSymbolTableRecord
100
AcDbBlockTableRecord
2
*PAPER_SPACE
0
ENDTAB
0
ENDSEC
0
SECTION
2
BLOCKS
0
BLOCK
5
20
100
AcDbEntity
100
AcDbBlockBegin
2
*MODEL_SPACE
0
ENDBLK
5
21
100
AcDbEntity
100
AcDbBlockEnd
0
BLOCK
5
1C
100
AcDbEntity
100
AcDbBlockBegin
2
*PAPER_SPACE
0
ENDBLK
5
1D
100
AcDbEntity
100
AcDbBlockEnd
0
ENDSEC
0
SECTION
2
ENTITIES
0
ARC
5
100
100
AcDbEntity
8
0
100
AcDbCircle
10
12
20
35.500000000000014
30
0
40
3.0000000000000004
100
AcDbArc
50
0
51
49.476907613471859
0
ARC
5
101
100
AcDbEntity
8
0
100
AcDbCircle
10
-12
20
35.500000000000007
30
0
40
3.0000000000000027
100
AcDbArc
50
130.52309238652816
51
180
0
LWPOLYLINE
5
102
100
AcDbEntity
8
0
100
AcDbPolyline
90
12
70
1
43
0.0
10
-13.130861589396508
20
-20.778696108888106
42
-0.30503839913573111
10
-14.999999999999979
20
-17.99999999998597
42
-0.075406218487391471
10
-14.999999999996117
20
35.500000000000007
42
-0.82718563079961438
10
-9.2108969828927272
20
36.60494541038905
10
-6.5005030550162264
20
29.763369518302323
42
0.30758407374708246
10
-4.6411010436089724
20
28.499999791895974
10
4.6411010436083169
20
28.499999791895974
42
0.30758407374720576
10
6.5005030550159013
20
29.763369518303154
10
9.2108969828886256
20
36.604945410389249
42
-0.82718563079980156
10
14.999999999999975
20
35.500000000000071
42
-0.075406218487367921
10
15
20
-17.999999999999996
42
-0.30503839913589026
10
13.130861589394573
20
-20.778696108901947
42
-0.19569494018777339
0
CIRCLE
5
103
100
AcDbEntity
8
0
100
AcDbCircle
10
12
20
35.500000000000014
30
0
40
1.5000000000000002
0
CIRCLE
5
104
100
AcDbEntity
8
0
100
AcDbCircle
10
-12
20
35.500000000000007
30
0
40
1.4999999999999991
0
LINE
5
105
100
AcDbEntity
8
0
100
AcDbLine
10
-17.000000000000007
20
11.221067604066711
30
0
11
-16.99999999999995
21
6.2789323959457555
31
0
0
LWPOLYLINE
5
106
100
AcDbEntity
8
0
100
AcDbPolyline
90
8
70
1
43
0.0
10
-13
20
16.27893239594799
10
-13.000000000000004
20
-3.7210676040520068
42
-0.41421356237309309
10
-13.5
20
-4.2210676040520063
10
-14.499999999999996
20
-4.2210676040520072
42
-0.41421356237309631
10
-15
20
-3.7210676040520063
10
-15
20
16.278932395947997
42
-0.41421356237308982
10
-14.5
20
16.778932395947997
10
-13.5
20
16.778932395947994
42
-0.4142135623730937
0
LWPOLYLINE
5
107
100
AcDbEntity
8
0
100
AcDbPolyline
90
8
70
1
43
0.0
10
14.5
20
16.77893239594799
10
13.5
20
16.778932395947994
42
0.4142135623730937
10
13
20
16.27893239594799
10
13.000000000000004
20
-3.7210676040520068
42
0.41421356237309309
10
13.5
20
-4.2210676040520063
10
14.5
20
-4.2210676040520063
42
0.41421356237309115
10
15
20
-3.7210676040520063
10
15
20
16.278932395947994
42
0.41421356237309115
0
LINE
5
108
100
AcDbEntity
8
0
100
AcDbLine
10
16.999999999999989
20
11.221067604052553
30
0
11
17.000000000000007
21
6.2789323959475851
31
0
0
LINE
5
109
100
AcDbEntity
8
0
100
AcDbLine
10
-16.836333732214083
20
16.778932395947997
30
0
11
-17
21
16.778932395947994
31
0
0
LINE
5
110
100
AcDbEntity
8
0
100
AcDbLine
10
17
20
16.778932395947994
30
0
11
16.866525697220361
21
16.078192306354829
31
0
0
LINE
5
111
100
AcDbEntity
8
0
100
AcDbLine
10
-17
20
16.778932395947994
30
0
11
-16.866525697220592
21
16.078192306356055
31
0
0
CIRCLE
5
112
100
AcDbEntity
8
0
100
AcDbCircle
10
8.1601392309949006e-14
20
-8.831601406078013
30
0
40
4
0
CIRCLE
5
113
100
AcDbEntity
8
0
100
AcDbCircle
10
-2.5075519067001396e-15
20
21.389466151728662
30
0
40
4
0
CIRCLE
5
114
100
AcDbEntity
8
0
100
AcDbCircle
10
0
20
6.2789323959479937
30
0
40
4
0
LWPOLYLINE
5
115
100
AcDbEntity
8
0
100
AcDbPolyline
90
6
70
1
43
0.0
10
-5.94974746830583
20
17.78394674214416
10
-2.7071067811865483
20
14.541306055024876
42
-0.41421356237309515
10
-2.7071067811865483
20
13.12709249265178
10
-5.9497474683058318
20
9.8844518055324997
42
-0.66817863791929732
10
-7.6568542494923806
20
10.591558586719048
10
-7.6568542494923797
20
17.076839960957614
42
-0.66817863791929888
0
LINE
5
116
100
AcDbEntity
8
0
100
AcDbLine
10
-2.0000000000000009
20
13.834199273838328
30
0
11
6
21
13.834199273838328
31
0
0
LWPOLYLINE
5
117
100
AcDbEntity
8
0
100
AcDbPolyline
90
6
70
1
43
0.0
10
7.6568542494923788
20
10.591558586719048
10
7.6568542494923779
20
17.076839960957614
42
0.66817863791929888
10
5.9497474683058282
20
17.78394674214416
10
2.7071067811865457
20
14.541306055024876
42
0.41421356237309515
10
2.7071067811865461
20
13.12709249265178
10
5.9497474683058291
20
9.8844518055324997
42
0.66817863791929755
0
LWPOLYLINE
5
118
100
AcDbEntity
8
0
100
AcDbPolyline
90
6
70
1
43
0.0
10
-7.6568542494923806
20
1.9663062051769398
10
-7.6568542494923797
20
-4.5189751690616253
42
0.66817863791929888
10
-5.94974746830583
20
-5.2260819502481741
10
-2.7071067811865479
20
-1.9834412631288889
42
0.41421356237309503
10
-2.7071067811865479
20
-0.56922770075579221
10
-5.9497474683058318
20
2.6734129863634881
42
0.66817863791929732
0
LWPOLYLINE
5
119
100
AcDbEntity
8
0
100
AcDbPolyline
90
6
70
1
43
0.0
10
5.9497474683058247
20
2.6734129863634903
42
-0.66817863791929732
10
7.6568542494923797
20
1.9663062051769398
10
7.6568542494923744
20
-4.5189751690616253
42
-0.66817863791929821
10
5.9497474683058282
20
-5.2260819502481741
10
2.7071067811865457
20
-1.9834412631288889
42
-0.41421356237309503
10
2.7071067811865457
20
-0.56922770075579221
0
CIRCLE
5
120
100
AcDbEntity
8
0
100
AcDbCircle
10
-12
20
-17.999999999986013
30
0
40
1.4999999999999991
0
CIRCLE
5
121
100
AcDbEntity
8
0
100
AcDbCircle
10
12
20
-18
30
0
40
1.4999999999999991
0
LWPOLYLINE
5
122
100
AcDbEntity
8
0
100
AcDbPolyline
90
4
70
1
43
0.0
10
-3.0000000000000004
20
-20.483873562385106
10
-3.0000000000000004
20
-18.383873562385105
42
0.99999999999999989
10
-5.0999999999999996
20
-18.383873562385105
10
-5.0999999999999996
20
-20.483873562385106
42
0.99999999999999989
0
LWPOLYLINE
5
123
100
AcDbEntity
8
0
100
AcDbPolyline
90
4
70
1
43
0.0
10
5.0999999999923364
20
-20.483873562387011
42
-0.99999999999999989
10
2.9999999999923368
20
-20.483873562386229
10
2.9999999999931215
20
-18.383873562386228
42
-0.99999999999999989
10
5.0999999999931216
20
-18.383873562387013
0
ENDSEC
0
SECTION
2
OBJECTS
0
DICTIONARY
5
C
100
AcDbDictionary
3
ACAD_GROUP
350
D
3
ACAD_MLINESTYLE
350
17
0
DICTIONARY
5
D
100
AcDbDictionary
0
DICTIONARY
5
1A
330
C
100
AcDbDictionary
0
DICTIONARY
5
17
100
AcDbDictionary
0
ENDSEC
0
EOF
