0
SECTION
2
HEADER
9
$INSUNITS
70
4
9
$ACADVER
1
AC1014
9
$HANDSEED
5
FFFF
0
ENDSEC
0
SECTION
2
TABLES
0
TABLE
2
VPORT
5
8
100
AcDbSymbolTable
0
ENDTAB
0
TABLE
2
LTYPE
5
5
100
AcDbSymbolTable
0
LTYPE
5
14
100
AcDbSymbolTableRecord
100
AcDbLinetypeTableRecord
2
BYBLOCK
70
0
0
LTYPE
5
15
100
AcDbSymbolTableRecord
100
AcDbLinetypeTableRecord
2
BYLAYER
70
0
0
ENDTAB
0
TABLE
2
LAYER
5
2
100
AcDbSymbolTable
70
2
0
LAYER
5
50
100
AcDbSymbolTableRecord
100
AcDbLayerTableRecord
2
0
70
0
6
CONTINUOUS
0
ENDTAB
0
TABLE
2
STYLE
5
3
100
AcDbSymbolTable
70
1
0
STYLE
5
11
100
AcDbSymbolTableRecord
100
AcDbTextStyleTableRecord
2
STANDARD
70
0
0
ENDTAB
0
TABLE
2
VIEW
5
6
100
AcDbSymbolTable
70
0
0
ENDTAB
0
TABLE
2
UCS
5
7
100
AcDbSymbolTable
70
0
0
ENDTAB
0
TABLE
2
APPID
5
9
100
AcDbSymbolTable
70
2
0
APPID
5
12
100
AcDbSymbolTableRecord
100
AcDbRegAppTableRecord
2
ACAD
70
0
0
ENDTAB
0
TABLE
2
DIMSTYLE
5
A
100
AcDbSymbolTable
70
1
0
ENDTAB
0
TABLE
2
BLOCK_RECORD
5
1
100
AcDbSymbolTable
70
1
0
BLOCK_RECORD
5
1F
100
AcDbSymbolTableRecord
100
AcDbBlockTableRecord
2
*MODEL_SPACE
0
BLOCK_RECORD
5
1B
100
AcDbSymbolTableRecord
100
AcDbBlockTableRecord
2
*PAPER_SPACE
0
ENDTAB
0
ENDSEC
0
SECTION
2
BLOCKS
0
BLOCK
5
20
100
AcDbEntity
100
AcDbBlockBegin
2
*MODEL_SPACE
0
ENDBLK
5
21
100
AcDbEntity
100
AcDbBlockEnd
0
BLOCK
5
1C
100
AcDbEntity
100
AcDbBlockBegin
2
*PAPER_SPACE
0
ENDBLK
5
1D
100
AcDbEntity
100
AcDbBlockEnd
0
ENDSEC
0
SECTION
2
ENTITIES
0
CIRCLE
5
100
100
AcDbEntity
8
0
100
AcDbCircle
10
10
20
10.000000000000004
30
0
40
1.4999999999999991
0
CIRCLE
5
101
100
AcDbEntity
8
0
100
AcDbCircle
10
-10
20
10.000000000000009
30
0
40
1.4999999999999991
0
CIRCLE
5
102
100
AcDbEntity
8
0
100
AcDbCircle
10
-10.000000000000052
20
-9.9999999999999467
30
0
40
1.4999999999999991
0
CIRCLE
5
103
100
AcDbEntity
8
0
100
AcDbCircle
10
9.9999999999999503
20
-10.00000000000005
30
0
40
1.4999999999999991
0
LWPOLYLINE
5
104
100
AcDbEntity
8
0
100
AcDbPolyline
90
76
70
1
43
0.0
10
-15
20
9.0566241299289345
10
-15.000000000000009
20
8.4433758700710726
42
-0.19891236737965903
10
-21.889785716250042
20
-8.1900382479442069
10
-39.018810467855893
20
-25.319062999550152
42
-0.1688826492524273
10
-48.772996727539066
20
-30.04038180092892
42
0.16888264925237723
10
-54.093668760770932
20
-32.615746699412995
42
0.15720332231328599
10
-56.612318337263865
20
-37.530836168718196
42
-0.12503397899158766
10
-58.185101562475026
20
-41.144887638254005
42
0.26178384164251234
10
-58.472501394848429
20
-43.083655131858869
42
0.10549684581145755
10
-55.861892458842242
20
-47.110978942976317
42
1.4042461399701937e-05
10
-55.861435713733044
20
-47.111435713741479
42
0.10548264708333419
10
-51.834861948156529
20
-49.722040290849264
42
0.26178384164251656
10
-49.896062180375189
20
-49.434858260843754
42
-0.12503397899158553
10
-46.281834047652225
20
-47.862481047007051
42
0.15723210142436542
10
-41.36574669941303
20
-45.343668760770925
42
0.16888264925237689
10
-38.79038180092887
20
-40.022996727539066
42
-0.16888264925238608
10
-34.069062999551988
20
-30.268810467857801
10
-26.214740188509964
20
-22.414487656815506
42
-0.27911040191873826
10
-15.450100782988002
20
-19.76843480005919
42
-0.036168254220912237
10
-15.087195094311145
20
-19.911552933460175
42
0.22779491663660306
10
15.087195094397678
20
-19.911552933434006
42
-0.036168254224306515
10
15.450100783109345
20
-19.768434800021421
42
-0.27911040191553838
10
26.214740188509818
20
-22.414487656815645
10
34.069062999552024
20
-30.268810467857765
42
-0.16888264925238608
10
38.79038180092892
20
-40.022996727539066
42
0.16888264925237689
10
41.36574669941303
20
-45.343668760770925
42
0.15723210142436542
10
46.281834047652225
20
-47.862481047007044
42
-0.12503397899158553
10
49.896062180375196
20
-49.434858260843754
42
0.26178384164251656
10
51.834861948156529
20
-49.722040290849264
42
0.10548264708333419
10
55.861435713733044
20
-47.111435713741479
42
1.4042461399701937e-05
10
55.861892458842242
20
-47.110978942976317
42
0.10549684581145755
10
58.472501394848429
20
-43.083655131858869
42
0.26178384164251234
10
58.185101562475047
20
-41.144887638253991
42
-0.12503397899158766
10
56.612318337263893
20
-37.530836168718189
42
0.15720332231328599
10
54.093668760770932
20
-32.615746699412995
42
0.16888264925237723
10
48.772996727539066
20
-30.040381800928849
42
-0.1688826492524273
10
39.018810467855943
20
-25.319062999550106
10
21.889785716250035
20
-8.190038247944214
42
-0.19891236737965903
10
15
20
8.4433758700710744
10
15.000000000000009
20
9.0566241299289363
42
-0.19891236737965903
10
21.889785716250042
20
25.690038247944216
10
39.018810467855893
20
42.819062999550155
42
-0.1688826492524273
10
48.772996727539066
20
47.540381800928927
42
0.16888264925237712
10
54.093668760770932
20
50.115746699413002
42
0.15720332231328593
10
56.612318337263865
20
55.030836168718196
42
-0.12503397899158744
10
58.185101562475026
20
58.644887638254005
42
0.26178384164251234
10
58.472501394848429
20
60.583655131858869
42
0.1054968458114576
10
55.861892458842242
20
64.610978942976331
42
1.4042461893838512e-05
10
55.861435713733044
20
64.611435713741486
42
0.10548264708333419
10
51.834861948156529
20
67.222040290849264
42
0.26178384164251578
10
49.896062180375196
20
66.934858260843754
42
-0.12503397899158586
10
46.281834047652225
20
65.362481047007051
42
0.15723210142436564
10
41.36574669941303
20
62.843668760770925
42
0.16888264925237703
10
38.790381800928863
20
57.522996727539066
42
-0.16888264925238597
10
34.069062999551988
20
47.768810467857811
10
26.214740188509822
20
39.914487656815652
42
-0.31877351998198339
10
14.00179719292451
20
37.840448397641396
42
-0.057512842316935237
10
13.478542833883944
20
38.171323653053342
42
0.35303947088885018
10
-13.478542833883935
20
38.171323653053342
42
-0.057512842316980797
10
-14.001797192924485
20
37.84044839764141
42
-0.318773519981984
10
-26.214740188509818
20
39.914487656815652
10
-34.069062999552024
20
47.768810467857776
42
-0.16888264925238597
10
-38.79038180092892
20
57.522996727539066
42
0.16888264925237703
10
-41.36574669941303
20
62.843668760770925
42
0.15723210142436564
10
-46.281834047652225
20
65.362481047007051
42
-0.12503397899158586
10
-49.896062180375196
20
66.934858260843754
42
0.26178384164251578
10
-51.834861948156529
20
67.222040290849264
42
0.10548264708333419
10
-55.861435713733044
20
64.611435713741486
42
1.4042461893838512e-05
10
-55.861892458842242
20
64.610978942976331
42
0.1054968458114576
10
-58.472501394848429
20
60.583655131858869
42
0.26178384164251234
10
-58.185101562475047
20
58.644887638253998
42
-0.12503397899158744
10
-56.612318337263893
20
55.030836168718196
42
0.15720332231328593
10
-54.093668760770932
20
50.115746699413002
42
0.16888264925237712
10
-48.772996727539066
20
47.540381800928856
42
-0.1688826492524273
10
-39.018810467855943
20
42.819062999550113
10
-21.889785716250035
20
25.690038247944223
42
-0.19891236737965903
0
ARC
5
105
100
AcDbEntity
8
0
100
AcDbCircle
10
47.729707730091981
20
56.47970773009196
30
0
40
4.5
100
AcDbArc
50
77.157193297810778
51
77.238041287829233
0
ARC
5
106
100
AcDbEntity
8
0
100
AcDbCircle
10
47.729707730091981
20
56.47970773009196
30
0
40
6.0000000000000009
100
AcDbArc
50
9.5571653991131562
51
9.5908499315758853
0
ARC
5
107
100
AcDbEntity
8
0
100
AcDbCircle
10
47.729707730091981
20
56.47970773009196
30
0
40
4.5000000000000009
100
AcDbArc
50
12.755522121600539
51
12.836370111619919
0
ARC
5
108
100
AcDbEntity
8
0
100
AcDbCircle
10
47.729707730091981
20
56.47970773009196
30
0
40
4.5000000000000009
100
AcDbArc
50
192.75552212160042
51
192.83637011161883
0
ARC
5
109
100
AcDbEntity
8
0
100
AcDbCircle
10
47.729707730091981
20
56.47970773009196
30
0
40
5.9999999999999964
100
AcDbArc
50
350.40271347785443
51
350.43639801031645
0
LINE
5
110
100
AcDbEntity
8
0
100
AcDbLine
10
48.728731705119415
20
62.428479173425238
30
0
11
48.730041946859821
21
62.429789415165644
31
0
0
LINE
5
111
100
AcDbEntity
8
0
100
AcDbLine
10
53.677768423067384
20
57.478020954761547
30
0
11
53.679121022328538
21
57.479373554022708
31
0
0
LINE
5
112
100
AcDbEntity
8
0
100
AcDbLine
10
46.729373513323218
20
50.52962604501738
30
0
11
46.730683755064561
21
50.530936286758731
31
0
0
LINE
5
113
100
AcDbEntity
8
0
100
AcDbLine
10
41.780294437855403
20
55.480041906161226
30
0
11
41.781647037116556
21
55.481394505422379
31
0
0
ARC
5
114
100
AcDbEntity
8
0
100
AcDbCircle
10
47.729707730091981
20
56.47970773009196
30
0
40
8.9999999999999911
100
AcDbArc
50
44.996781704714778
51
45.000000000000121
0
CIRCLE
5
115
100
AcDbEntity
8
0
100
AcDbCircle
10
-12
20
35.500000000000007
30
0
40
1.4999999999999991
0
CIRCLE
5
116
100
AcDbEntity
8
0
100
AcDbCircle
10
12
20
35.500000000000014
30
0
40
1.5000000000000024
0
CIRCLE
5
117
100
AcDbEntity
8
0
100
AcDbCircle
10
-12
20
-17.999999999986013
30
0
40
1.4999999999999991
0
CIRCLE
5
118
100
AcDbEntity
8
0
100
AcDbCircle
10
12
20
-18
30
0
40
1.4999999999999991
0
CIRCLE
5
119
100
AcDbEntity
8
0
100
AcDbCircle
10
0
20
0
30
0
40
8
0
LWPOLYLINE
5
120
100
AcDbEntity
8
0
100
AcDbPolyline
90
6
70
1
43
0.0
10
-8.0100479584630762
20
21.31091067906571
10
-1.7416445100779683
20
32.414831266059892
42
-0.5838183285070323
10
1.7416445100776912
20
32.414831266059736
10
8.0100479584625219
20
21.310910679063731
42
-0.57412978807714121
10
5.3975811933452222
20
16.83611665915447
10
-5.3975811933468805
20
16.836116659156222
42
-0.57412978807706438
0
LWPOLYLINE
5
121
100
AcDbEntity
8
0
100
AcDbPolyline
90
4
70
1
43
0.0
10
-3.0000000000000004
20
-20.483873562385106
42
-0.99999999999999989
10
-5.0999999999999996
20
-20.483873562385106
10
-5.0999999999999996
20
-18.383873562385105
42
-0.99999999999999989
10
-3.0000000000000004
20
-18.383873562385105
0
LWPOLYLINE
5
122
100
AcDbEntity
8
0
100
AcDbPolyline
90
4
70
1
43
0.0
10
2.9999999999923368
20
-20.483873562386229
10
2.9999999999931215
20
-18.383873562386228
42
-0.99999999999999989
10
5.0999999999931216
20
-18.383873562387013
10
5.0999999999923364
20
-20.483873562387011
42
-0.99999999999999989
0
CIRCLE
5
123
100
AcDbEntity
8
0
100
AcDbCircle
10
-47.729707730091981
20
-38.979707730091945
30
0
40
2.7500000000000018
0
CIRCLE
5
124
100
AcDbEntity
8
0
100
AcDbCircle
10
47.729454965771481
20
-34.479707737190829
30
0
40
0.99999999999999645
0
CIRCLE
5
125
100
AcDbEntity
8
0
100
AcDbCircle
10
47.729707730091981
20
-38.979707730091945
30
0
40
2.7499999999999991
0
CIRCLE
5
126
100
AcDbEntity
8
0
100
AcDbCircle
10
47.729707730091981
20
56.47970773009196
30
0
40
2.7500000000000013
0
CIRCLE
5
127
100
AcDbEntity
8
0
100
AcDbCircle
10
-47.729960494412474
20
-43.479707722993091
30
0
40
0.99999999999999645
0
CIRCLE
5
128
100
AcDbEntity
8
0
100
AcDbCircle
10
-52.229707722993119
20
-38.979454965771467
30
0
40
1.0000000000000004
0
CIRCLE
5
129
100
AcDbEntity
8
0
100
AcDbCircle
10
-47.729454965771481
20
-34.479707737190829
30
0
40
0.99999999999999645
0
CIRCLE
5
130
100
AcDbEntity
8
0
100
AcDbCircle
10
-43.229707737190857
20
-38.979960494412445
30
0
40
1.0000000000000009
0
CIRCLE
5
131
100
AcDbEntity
8
0
100
AcDbCircle
10
-47.729707730091981
20
56.47970773009196
30
0
40
2.7499999999999982
0
CIRCLE
5
132
100
AcDbEntity
8
0
100
AcDbCircle
10
-47.729454965771481
20
51.979707737190836
30
0
40
0.99999999999999645
0
CIRCLE
5
133
100
AcDbEntity
8
0
100
AcDbCircle
10
-52.229707722993119
20
56.479454965771474
30
0
40
0.99999999999999645
0
CIRCLE
5
134
100
AcDbEntity
8
0
100
AcDbCircle
10
-47.729960494412474
20
60.979707722993091
30
0
40
0.99999999999999645
0
CIRCLE
5
135
100
AcDbEntity
8
0
100
AcDbCircle
10
-43.229707737190857
20
56.479960494412452
30
0
40
0.99999999999999645
0
CIRCLE
5
136
100
AcDbEntity
8
0
100
AcDbCircle
10
47.729454965771481
20
51.979707737190836
30
0
40
0.99999999999999645
0
CIRCLE
5
137
100
AcDbEntity
8
0
100
AcDbCircle
10
43.229707737190857
20
56.479960494412452
30
0
40
0.99999999999999645
0
CIRCLE
5
138
100
AcDbEntity
8
0
100
AcDbCircle
10
47.729960494412474
20
60.979707722993091
30
0
40
0.99999999999999645
0
CIRCLE
5
139
100
AcDbEntity
8
0
100
AcDbCircle
10
52.229707722993119
20
56.479454965771474
30
0
40
0.99999999999999911
0
CIRCLE
5
140
100
AcDbEntity
8
0
100
AcDbCircle
10
43.229707737190857
20
-38.979960494412445
30
0
40
1.0000000000000009
0
CIRCLE
5
141
100
AcDbEntity
8
0
100
AcDbCircle
10
52.229707722993119
20
-38.979454965771467
30
0
40
1.0000000000000009
0
CIRCLE
5
142
100
AcDbEntity
8
0
100
AcDbCircle
10
47.729960494412474
20
-43.479707722993091
30
0
40
1.000000000000004
0
ENDSEC
0
SECTION
2
OBJECTS
0
DICTIONARY
5
C
100
AcDbDictionary
3
ACAD_GROUP
350
D
3
ACAD_MLINESTYLE
350
17
0
DICTIONARY
5
D
100
AcDbDictionary
0
DICTIONARY
5
1A
330
C
100
AcDbDictionary
0
DICTIONARY
5
17
100
AcDbDictionary
0
ENDSEC
0
EOF
