 0
SECTION
 2
ENTITIES
  0
LINE
 8
Group#1
10
-13.600000000000042
20
-30.50000000000002
30
23.0
11
-13.599999999999772
21
30.5
31
23.0
  0
LINE
 8
Group#1
10
-13.477332974640701
20
-31.431748562369144
30
23.0
11
-13.600000000000042
21
-30.50000000000002
31
23.0
  0
LINE
 8
Group#1
10
-13.117691453624035
20
-32.30000000000007
30
23.0
11
-13.477332974640701
21
-31.431748562369144
31
23.0
  0
LINE
 8
Group#1
10
-12.545584412271628
20
-33.04558441227165
30
23.0
11
-13.117691453624035
21
-32.30000000000007
31
23.0
  0
LINE
 8
Group#1
10
-11.800000000000063
20
-33.61769145362403
30
23.0
11
-12.545584412271628
21
-33.04558441227165
31
23.0
  0
LINE
 8
Group#1
10
-10.93174856236912
20
-33.97733297464068
30
23.0
11
-11.800000000000063
21
-33.61769145362403
31
23.0
  0
LINE
 8
Group#1
10
-10.000000000000066
20
-34.10000000000004
30
23.0
11
-10.93174856236912
21
-33.97733297464068
31
23.0
  0
LINE
 8
Group#1
10
-11.515925826288912
20
16.258819045102495
30
23.0
11
-11.416025403784284
21
16.499999999999975
31
23.0
  0
LINE
 8
Group#1
10
-11.049999999999848
20
16.86602540378441
30
23.0
11
-10.808819045102359
21
16.96592582628904
31
23.0
  0
LINE
 8
Group#1
10
-10.04999999999985
20
16.866025403784406
30
23.0
11
-9.842893218813302
21
16.707106781186514
31
23.0
  0
LINE
 8
Group#1
10
-9.842893218813302
20
16.707106781186514
30
23.0
11
-9.683974596215418
21
16.499999999999968
31
23.0
  0
LINE
 8
Group#1
10
-11.549999999999942
20
-4.000000000000027
30
23.0
11
-11.549999999999851
21
15.999999999999977
31
23.0
  0
LINE
 8
Group#1
10
-4.4999999999997575
20
27.13397459621555
30
23.0
11
-4.2588190451022925
21
27.0340741737109
31
23.0
  0
LINE
 8
Group#1
10
-4.70710678118633
20
27.292893218813433
30
23.0
11
-4.4999999999997575
21
27.13397459621555
31
23.0
  0
LINE
 8
Group#1
10
-4.8660254037842146
20
27.50000000000001
30
23.0
11
-4.70710678118633
21
27.292893218813433
31
23.0
  0
LINE
 8
Group#1
10
-4.9659258262888395
20
27.741180954897455
30
23.0
11
-4.8660254037842146
21
27.50000000000001
31
23.0
  0
LINE
 8
Group#1
10
-4.999999999999776
20
27.99999999999999
30
23.0
11
-4.9659258262888395
21
27.741180954897455
31
23.0
  0
LINE
 8
Group#1
10
-4.999999999999776
20
27.99999999999999
30
23.0
11
-4.999999999999754
21
32.99999999999998
31
23.0
  0
LINE
 8
Group#1
10
-4.999999999999754
20
32.99999999999998
30
23.0
11
-4.965925826288816
21
33.25881904510251
31
23.0
  0
LINE
 8
Group#1
10
-4.965925826288816
20
33.25881904510251
30
23.0
11
-4.866025403784186
21
33.5
31
23.0
  0
LINE
 8
Group#1
10
-4.866025403784186
20
33.5
30
23.0
11
-4.707106781186302
21
33.707106781186525
31
23.0
  0
LINE
 8
Group#1
10
-4.707106781186302
20
33.707106781186525
30
23.0
11
-4.499999999999729
21
33.866025403784406
31
23.0
  0
LINE
 8
Group#1
10
-4.499999999999729
20
33.866025403784406
30
23.0
11
-4.258819045102261
21
33.96592582628906
31
23.0
  0
LINE
 8
Group#1
10
-4.258819045102261
20
33.96592582628906
30
23.0
11
-3.99999999999975
21
33.99999999999997
31
23.0
  0
LINE
 8
Group#1
10
-3.99999999999975
20
33.99999999999997
30
23.0
11
-3.741180954897216
21
33.96592582628906
31
23.0
  0
LINE
 8
Group#1
10
-3.741180954897216
20
33.96592582628906
30
23.0
11
-3.4999999999997313
21
33.866025403784406
31
23.0
  0
LINE
 8
Group#1
10
-3.4999999999997313
20
33.866025403784406
30
23.0
11
-3.292893218813204
21
33.70710678118652
31
23.0
  0
LINE
 8
Group#1
10
-3.292893218813204
20
33.70710678118652
30
23.0
11
-3.133974596215297
21
33.49999999999999
31
23.0
  0
LINE
 8
Group#1
10
-3.133974596215297
20
33.49999999999999
30
23.0
11
-3.0340741737106725
21
33.2588190451025
31
23.0
  0
LINE
 8
Group#1
10
-3.0340741737106725
20
33.2588190451025
30
23.0
11
-2.999999999999735
21
32.999999999999964
31
23.0
  0
LINE
 8
Group#1
10
-2.9999999999997575
20
27.999999999999975
30
23.0
11
-2.999999999999735
21
32.999999999999964
31
23.0
  0
LINE
 8
Group#1
10
-3.034074173710695
20
27.741180954897445
30
23.0
11
-2.9999999999997575
21
27.999999999999975
31
23.0
  0
LINE
 8
Group#1
10
-3.133974596215325
20
27.5
30
23.0
11
-3.034074173710695
21
27.741180954897445
31
23.0
  0
LINE
 8
Group#1
10
-3.292893218813232
20
27.292893218813433
30
23.0
11
-3.133974596215325
21
27.5
31
23.0
  0
LINE
 8
Group#1
10
-3.4999999999997597
20
27.13397459621555
30
23.0
11
-3.292893218813232
21
27.292893218813433
31
23.0
  0
LINE
 8
Group#1
10
-3.741180954897247
20
27.0340741737109
30
23.0
11
-3.4999999999997597
21
27.13397459621555
31
23.0
  0
LINE
 8
Group#1
10
-3.999999999999781
20
26.999999999999986
30
23.0
11
-3.741180954897247
21
27.0340741737109
31
23.0
  0
LINE
 8
Group#1
10
-4.2588190451022925
20
27.0340741737109
30
23.0
11
-3.999999999999781
21
26.999999999999986
31
23.0
  0
LINE
 8
Group#1
10
-1.4999999999997717
20
25.116025403784402
30
23.0
11
-1.2928932188132243
21
24.957106781186518
31
23.0
  0
LINE
 8
Group#1
10
-1.2928932188132243
20
24.957106781186518
30
23.0
11
-1.13397459621534
21
24.749999999999986
31
23.0
  0
LINE
 8
Group#1
10
-1.13397459621534
20
24.749999999999986
30
23.0
11
-1.0340741737107129
21
24.508819045102452
31
23.0
  0
LINE
 8
Group#1
10
-1.0340741737107129
20
24.508819045102452
30
23.0
11
-0.9999999999997782
21
24.249999999999964
31
23.0
  0
LINE
 8
Group#1
10
-0.9999999999997782
20
24.249999999999964
30
23.0
11
-0.999999999999812
21
16.249999999999932
31
23.0
  0
LINE
 8
Group#1
10
-1.0340741737107522
20
15.991180954897445
30
23.0
11
-0.999999999999812
21
16.249999999999932
31
23.0
  0
LINE
 8
Group#1
10
-1.1339745962153795
20
15.749999999999957
30
23.0
11
-1.0340741737107522
21
15.991180954897445
31
23.0
  0
LINE
 8
Group#1
10
-1.2928932188132665
20
15.542893218813433
30
23.0
11
-1.1339745962153795
21
15.749999999999957
31
23.0
  0
LINE
 8
Group#1
10
-1.4999999999998168
20
15.383974596215502
30
23.0
11
-1.2928932188132665
21
15.542893218813433
31
23.0
  0
LINE
 8
Group#1
10
-1.7411809548973043
20
15.284074173710898
30
23.0
11
-1.4999999999998168
21
15.383974596215502
31
23.0
  0
LINE
 8
Group#1
10
-1.999999999999816
20
15.249999999999941
30
23.0
11
-1.7411809548973043
21
15.284074173710898
31
23.0
  0
LINE
 8
Group#1
10
-2.2588190451023498
20
15.2840741737109
30
23.0
11
-1.999999999999816
21
15.249999999999941
31
23.0
  0
LINE
 8
Group#1
10
-2.499999999999815
20
15.38397459621551
30
23.0
11
-2.2588190451023498
21
15.2840741737109
31
23.0
  0
LINE
 8
Group#1
10
-2.707106781186365
20
15.542893218813438
30
23.0
11
-2.499999999999815
21
15.38397459621551
31
23.0
  0
LINE
 8
Group#1
10
-2.8660254037842465
20
15.749999999999966
30
23.0
11
-2.707106781186365
21
15.542893218813438
31
23.0
  0
LINE
 8
Group#1
10
-2.9659258262888963
20
15.991180954897454
30
23.0
11
-2.8660254037842465
21
15.749999999999966
31
23.0
  0
LINE
 8
Group#1
10
-2.9999999999998086
20
16.249999999999943
30
23.0
11
-2.9659258262888963
21
15.991180954897454
31
23.0
  0
LINE
 8
Group#1
10
-2.9999999999997744
20
24.24999999999997
30
23.0
11
-2.9999999999998086
21
16.249999999999943
31
23.0
  0
LINE
 8
Group#1
10
-2.9999999999997744
20
24.24999999999997
30
23.0
11
-2.965925826288857
21
24.508819045102463
31
23.0
  0
LINE
 8
Group#1
10
-2.965925826288857
20
24.508819045102463
30
23.0
11
-2.8660254037842297
21
24.749999999999993
31
23.0
  0
LINE
 8
Group#1
10
-2.8660254037842297
20
24.749999999999993
30
23.0
11
-2.7071067811863228
21
24.95710678118652
31
23.0
  0
LINE
 8
Group#1
10
-2.7071067811863228
20
24.95710678118652
30
23.0
11
-2.49999999999977
21
25.116025403784406
31
23.0
  0
LINE
 8
Group#1
10
-2.49999999999977
20
25.116025403784406
30
23.0
11
-2.258819045102305
21
25.21592582628905
31
23.0
  0
LINE
 8
Group#1
10
-2.258819045102305
20
25.21592582628905
30
23.0
11
-1.9999999999997706
21
25.249999999999968
31
23.0
  0
LINE
 8
Group#1
10
-1.9999999999997706
20
25.249999999999968
30
23.0
11
-1.7411809548972592
21
25.21592582628905
31
23.0
  0
LINE
 8
Group#1
10
-1.7411809548972592
20
25.21592582628905
30
23.0
11
-1.4999999999997717
21
25.116025403784402
31
23.0
  0
LINE
 8
Group#1
10
-6.9999999999997895
20
24.249999999999993
30
23.0
11
-6.999999999999823
21
16.24999999999996
31
23.0
  0
LINE
 8
Group#1
10
-6.9999999999997895
20
24.249999999999993
30
23.0
11
-6.965925826288872
21
24.50881904510248
31
23.0
  0
LINE
 8
Group#1
10
-6.965925826288872
20
24.50881904510248
30
23.0
11
-6.8660254037842225
21
24.75000000000001
31
23.0
  0
LINE
 8
Group#1
10
-6.8660254037842225
20
24.75000000000001
30
23.0
11
-6.707106781186338
21
24.95710678118654
31
23.0
  0
LINE
 8
Group#1
10
-6.707106781186338
20
24.95710678118654
30
23.0
11
-6.499999999999763
21
25.116025403784423
31
23.0
  0
LINE
 8
Group#1
10
-6.499999999999763
20
25.116025403784423
30
23.0
11
-6.258819045102275
21
25.21592582628907
31
23.0
  0
LINE
 8
Group#1
10
-6.258819045102275
20
25.21592582628907
30
23.0
11
-5.999999999999786
21
25.249999999999986
31
23.0
  0
LINE
 8
Group#1
10
-5.999999999999786
20
25.249999999999986
30
23.0
11
-5.741180954897274
21
25.21592582628907
31
23.0
  0
LINE
 8
Group#1
10
-5.741180954897274
20
25.21592582628907
30
23.0
11
-5.499999999999787
21
25.116025403784416
31
23.0
  0
LINE
 8
Group#1
10
-5.499999999999787
20
25.116025403784416
30
23.0
11
-5.29289321881324
21
24.957106781186532
31
23.0
  0
LINE
 8
Group#1
10
-5.29289321881324
20
24.957106781186532
30
23.0
11
-5.133974596215356
21
24.750000000000007
31
23.0
  0
LINE
 8
Group#1
10
-5.133974596215356
20
24.750000000000007
30
23.0
11
-5.034074173710706
21
24.508819045102474
31
23.0
  0
LINE
 8
Group#1
10
-5.034074173710706
20
24.508819045102474
30
23.0
11
-4.999999999999793
21
24.249999999999982
31
23.0
  0
LINE
 8
Group#1
10
-4.999999999999793
20
24.249999999999982
30
23.0
11
-4.999999999999828
21
16.24999999999995
31
23.0
  0
LINE
 8
Group#1
10
-5.034074173710745
20
15.991180954897464
30
23.0
11
-4.999999999999828
21
16.24999999999995
31
23.0
  0
LINE
 8
Group#1
10
-5.133974596215395
20
15.749999999999977
30
23.0
11
-5.034074173710745
21
15.991180954897464
31
23.0
  0
LINE
 8
Group#1
10
-5.292893218813282
20
15.542893218813449
30
23.0
11
-5.133974596215395
21
15.749999999999977
31
23.0
  0
LINE
 8
Group#1
10
-5.499999999999832
20
15.38397459621552
30
23.0
11
-5.292893218813282
21
15.542893218813449
31
23.0
  0
LINE
 8
Group#1
10
-5.741180954897319
20
15.284074173710918
30
23.0
11
-5.499999999999832
21
15.38397459621552
31
23.0
  0
LINE
 8
Group#1
10
-5.999999999999831
20
15.250000000000004
30
23.0
11
-5.741180954897319
21
15.284074173710918
31
23.0
  0
LINE
 8
Group#1
10
-6.25881904510232
20
15.284074173710918
30
23.0
11
-5.999999999999831
21
15.250000000000004
31
23.0
  0
LINE
 8
Group#1
10
-6.499999999999807
20
15.383974596215525
30
23.0
11
-6.25881904510232
21
15.284074173710918
31
23.0
  0
LINE
 8
Group#1
10
-6.70710678118638
20
15.542893218813456
30
23.0
11
-6.499999999999807
21
15.383974596215525
31
23.0
  0
LINE
 8
Group#1
10
-6.866025403784262
20
15.749999999999982
30
23.0
11
-6.70710678118638
21
15.542893218813456
31
23.0
  0
LINE
 8
Group#1
10
-6.965925826288911
20
15.991180954897473
30
23.0
11
-6.866025403784262
21
15.749999999999982
31
23.0
  0
LINE
 8
Group#1
10
-6.999999999999823
20
16.24999999999996
30
23.0
11
-6.965925826288911
21
15.991180954897473
31
23.0
  0
LINE
 8
Group#1
10
-8.903984489160889
20
-29.403984489160933
30
23.0
11
-8.657660624134145
21
-29.725000000000087
31
23.0
  0
LINE
 8
Group#1
10
-8.657660624134145
20
-29.725000000000087
30
23.0
11
-8.502814969251963
21
-30.098830480091163
31
23.0
  0
LINE
 8
Group#1
10
-8.502814969251963
20
-30.098830480091163
30
23.0
11
-8.450000000000044
21
-30.500000000000046
31
23.0
  0
LINE
 8
Group#1
10
-8.450000000000044
20
-30.500000000000046
30
23.0
11
-8.502814969251967
21
-30.901169519908972
31
23.0
  0
LINE
 8
Group#1
10
-8.502814969251967
20
-30.901169519908972
30
23.0
11
-8.657660624134154
21
-31.27500000000005
31
23.0
  0
LINE
 8
Group#1
10
-8.657660624134154
20
-31.27500000000005
30
23.0
11
-8.903984489160896
21
-31.596015510839205
31
23.0
  0
LINE
 8
Group#1
10
-8.903984489160896
20
-31.596015510839205
30
23.0
11
-9.225000000000053
21
-31.842339375865947
31
23.0
  0
LINE
 8
Group#1
10
-9.225000000000053
20
-31.842339375865947
30
23.0
11
-9.59883048009113
21
-31.99718503074813
31
23.0
  0
LINE
 8
Group#1
10
-9.59883048009113
20
-31.99718503074813
30
23.0
11
-10.000000000000059
21
-32.050000000000054
31
23.0
  0
LINE
 8
Group#1
10
-10.000000000000059
20
-32.050000000000054
30
23.0
11
-10.401169519908986
21
-31.99718503074812
31
23.0
  0
LINE
 8
Group#1
10
-10.401169519908986
20
-31.99718503074812
30
23.0
11
-10.775000000000063
21
-31.842339375865937
31
23.0
  0
LINE
 8
Group#1
10
-10.775000000000063
20
-31.842339375865937
30
23.0
11
-11.096015510839214
21
-31.59601551083919
31
23.0
  0
LINE
 8
Group#1
10
-11.096015510839214
20
-31.59601551083919
30
23.0
11
-11.342339375865956
21
-31.275000000000038
31
23.0
  0
LINE
 8
Group#1
10
-11.342339375865956
20
-31.275000000000038
30
23.0
11
-11.497185030748138
21
-30.90116951990896
31
23.0
  0
LINE
 8
Group#1
10
-11.497185030748138
20
-30.90116951990896
30
23.0
11
-11.550000000000061
21
-30.500000000000036
31
23.0
  0
LINE
 8
Group#1
10
-11.550000000000061
20
-30.500000000000036
30
23.0
11
-11.497185030748135
21
-30.098830480091152
31
23.0
  0
LINE
 8
Group#1
10
-11.497185030748135
20
-30.098830480091152
30
23.0
11
-11.342339375865947
21
-29.725000000000076
31
23.0
  0
LINE
 8
Group#1
10
-11.342339375865947
20
-29.725000000000076
30
23.0
11
-11.096015510839205
21
-29.403984489160923
31
23.0
  0
LINE
 8
Group#1
10
-11.096015510839205
20
-29.403984489160923
30
23.0
11
-10.775000000000048
21
-29.157660624134177
31
23.0
  0
LINE
 8
Group#1
10
-10.775000000000048
20
-29.157660624134177
30
23.0
11
-10.401169519908972
21
-29.002814969251993
31
23.0
  0
LINE
 8
Group#1
10
-10.401169519908972
20
-29.002814969251993
30
23.0
11
-10.000000000000044
21
-28.95000000000008
31
23.0
  0
LINE
 8
Group#1
10
-10.000000000000044
20
-28.95000000000008
30
23.0
11
-9.598830480091117
21
-29.002814969252004
31
23.0
  0
LINE
 8
Group#1
10
-9.598830480091117
20
-29.002814969252004
30
23.0
11
-9.225000000000039
21
-29.157660624134188
31
23.0
  0
LINE
 8
Group#1
10
-9.225000000000039
20
-29.157660624134188
30
23.0
11
-8.903984489160889
21
-29.403984489160933
31
23.0
  0
LINE
 8
Group#1
10
-8.502814969251695
20
30.098830480091095
30
23.0
11
-8.44999999999977
21
30.49999999999998
31
23.0
  0
LINE
 8
Group#1
10
-8.65766062413388
20
29.72500000000002
30
23.0
11
-8.502814969251695
21
30.098830480091095
31
23.0
  0
LINE
 8
Group#1
10
-8.903984489160626
20
29.403984489160866
30
23.0
11
-8.65766062413388
21
29.72500000000002
31
23.0
  0
LINE
 8
Group#1
10
-9.22499999999978
20
29.15766062413412
30
23.0
11
-8.903984489160626
21
29.403984489160866
31
23.0
  0
LINE
 8
Group#1
10
-9.598830480090857
20
29.002814969251936
30
23.0
11
-9.22499999999978
21
29.15766062413412
31
23.0
  0
LINE
 8
Group#1
10
-9.999999999999785
20
28.95000000000002
30
23.0
11
-9.598830480090857
21
29.002814969251936
31
23.0
  0
LINE
 8
Group#1
10
-10.401169519908713
20
29.002814969251943
30
23.0
11
-9.999999999999785
21
28.95000000000002
31
23.0
  0
LINE
 8
Group#1
10
-10.774999999999789
20
29.157660624134127
30
23.0
11
-10.401169519908713
21
29.002814969251943
31
23.0
  0
LINE
 8
Group#1
10
-11.096015510838942
20
29.403984489160877
30
23.0
11
-10.774999999999789
21
29.157660624134127
31
23.0
  0
LINE
 8
Group#1
10
-11.342339375865683
20
29.72500000000003
30
23.0
11
-11.096015510838942
21
29.403984489160877
31
23.0
  0
LINE
 8
Group#1
10
-11.497185030747868
20
30.098830480091106
30
23.0
11
-11.342339375865683
21
29.72500000000003
31
23.0
  0
LINE
 8
Group#1
10
-11.549999999999788
20
30.49999999999999
30
23.0
11
-11.497185030747868
21
30.098830480091106
31
23.0
  0
LINE
 8
Group#1
10
-11.497185030747861
20
30.901169519908915
30
23.0
11
-11.549999999999788
21
30.49999999999999
31
23.0
  0
LINE
 8
Group#1
10
-11.342339375865677
20
31.274999999999995
30
23.0
11
-11.497185030747861
21
30.901169519908915
31
23.0
  0
LINE
 8
Group#1
10
-11.096015510838932
20
31.59601551083915
30
23.0
11
-11.342339375865677
21
31.274999999999995
31
23.0
  0
LINE
 8
Group#1
10
-10.774999999999777
20
31.842339375865883
30
23.0
11
-11.096015510838932
21
31.59601551083915
31
23.0
  0
LINE
 8
Group#1
10
-10.4011695199087
20
31.99718503074807
30
23.0
11
-10.774999999999777
21
31.842339375865883
31
23.0
  0
LINE
 8
Group#1
10
-9.99999999999977
20
32.04999999999999
30
23.0
11
-10.4011695199087
21
31.99718503074807
31
23.0
  0
LINE
 8
Group#1
10
-9.598830480090845
20
31.997185030748064
30
23.0
11
-9.99999999999977
21
32.04999999999999
31
23.0
  0
LINE
 8
Group#1
10
-9.224999999999769
20
31.84233937586588
30
23.0
11
-9.598830480090845
21
31.997185030748064
31
23.0
  0
LINE
 8
Group#1
10
-8.903984489160615
20
31.596015510839138
30
23.0
11
-9.224999999999769
21
31.84233937586588
31
23.0
  0
LINE
 8
Group#1
10
-8.657660624133875
20
31.27499999999998
30
23.0
11
-8.903984489160615
21
31.596015510839138
31
23.0
  0
LINE
 8
Group#1
10
-8.50281496925169
20
30.901169519908905
30
23.0
11
-8.657660624133875
21
31.27499999999998
31
23.0
  0
LINE
 8
Group#1
10
-8.44999999999977
20
30.49999999999998
30
23.0
11
-8.50281496925169
21
30.901169519908905
31
23.0
  0
LINE
 8
Group#1
10
-0.7071067811863152
20
27.292893218813415
30
23.0
11
-0.499999999999765
21
27.13397459621553
31
23.0
  0
LINE
 8
Group#1
10
-0.8660254037841995
20
27.499999999999996
30
23.0
11
-0.7071067811863152
21
27.292893218813415
31
23.0
  0
LINE
 8
Group#1
10
-0.965925826288824
20
27.741180954897438
30
23.0
11
-0.8660254037841995
21
27.499999999999996
31
23.0
  0
LINE
 8
Group#1
10
-0.9999999999997613
20
27.99999999999997
30
23.0
11
-0.965925826288824
21
27.741180954897438
31
23.0
  0
LINE
 8
Group#1
10
-0.9999999999997613
20
27.99999999999997
30
23.0
11
-0.9999999999997388
21
32.999999999999964
31
23.0
  0
LINE
 8
Group#1
10
-0.9999999999997388
20
32.999999999999964
30
23.0
11
-0.9659258262888013
21
33.2588190451025
31
23.0
  0
LINE
 8
Group#1
10
-9.06825143763099
20
-33.97733297464069
30
23.0
11
-10.000000000000066
21
-34.10000000000004
31
23.0
  0
LINE
 8
Group#1
10
-0.9659258262888013
20
33.2588190451025
30
23.0
11
-0.8660254037841713
21
33.499999999999986
31
23.0
  0
LINE
 8
Group#1
10
-8.200000000000044
20
-33.61769145362404
30
23.0
11
-9.06825143763099
21
-33.97733297464069
31
23.0
  0
LINE
 8
Group#1
10
-0.8660254037841713
20
33.499999999999986
30
23.0
11
-0.707106781186287
21
33.7071067811865
31
23.0
  0
LINE
 8
Group#1
10
-0.707106781186287
20
33.7071067811865
30
23.0
11
-0.4999999999997368
21
33.86602540378439
31
23.0
  0
LINE
 8
Group#1
10
-0.4999999999997368
20
33.86602540378439
30
23.0
11
-0.2588190451022464
21
33.96592582628904
31
23.0
  0
LINE
 8
Group#1
10
-0.2588190451022464
20
33.96592582628904
30
23.0
11
2.6507684935950237e-13
21
33.99999999999996
31
23.0
  0
LINE
 8
Group#1
10
2.8199664825478976e-13
20
37.99999999999995
30
23.0
11
-0.9705714191341756
21
37.872221848583955
31
23.0
  0
LINE
 8
Group#1
10
-0.9705714191341756
20
37.872221848583955
30
23.0
11
-1.874999999999723
21
37.49759526419163
31
23.0
  0
LINE
 8
Group#1
10
-1.874999999999723
20
37.49759526419163
30
23.0
11
-11.79999999999976
21
33.61769145362398
31
23.0
  0
LINE
 8
Group#1
10
-11.79999999999976
20
33.61769145362398
30
23.0
11
-12.545584412271335
21
33.04558441227161
31
23.0
  0
LINE
 8
Group#1
10
-12.545584412271335
20
33.04558441227161
30
23.0
11
-13.117691453623747
21
32.30000000000004
31
23.0
  0
LINE
 8
Group#1
10
-13.117691453623747
20
32.30000000000004
30
23.0
11
-13.477332974640419
21
31.431748562369123
31
23.0
  0
LINE
 8
Group#1
10
-13.477332974640419
20
31.431748562369123
30
23.0
11
-13.599999999999772
21
30.5
31
23.0
  0
LINE
 8
Group#1
10
-5.594543648262978
20
-14.30545635173705
30
23.0
11
-5.324093929773956
21
-14.068278314199178
31
23.0
  0
LINE
 8
Group#1
10
-5.831721685800862
20
-14.57590607022605
30
23.0
11
-5.594543648262978
21
-14.30545635173705
31
23.0
  0
LINE
 8
Group#1
10
-6.031569860407186
20
-14.875000000000046
30
23.0
11
-5.831721685800862
21
-14.57590607022605
31
23.0
  0
LINE
 8
Group#1
10
-10.049999999999947
20
-4.866025403784466
30
23.0
11
-9.842893218813398
21
-4.707106781186575
31
23.0
  0
LINE
 8
Group#1
10
-10.808819045102458
20
-4.965925826289093
30
23.0
11
-10.549999999999947
21
-5.00000000000003
31
23.0
  0
LINE
 8
Group#1
10
-9.584074173710883
20
-4.2588190451025545
30
23.0
11
-9.549999999999946
21
-4.000000000000038
31
23.0
  0
LINE
 8
Group#1
10
-6.3764733687779716
20
-15.891052971394888
30
23.0
11
-6.30629602229493
21
-15.538247625968125
31
23.0
  0
LINE
 8
Group#1
10
-6.399999999999971
20
-16.25000000000005
30
23.0
11
-6.3764733687779716
21
-15.891052971394888
31
23.0
  0
LINE
 8
Group#1
10
-6.190668714406004
20
-15.19762056099604
30
23.0
11
-6.031569860407186
21
-14.875000000000046
31
23.0
  0
LINE
 8
Group#1
10
-6.30629602229493
20
-15.538247625968125
30
23.0
11
-6.190668714406004
21
-15.19762056099604
31
23.0
  0
LINE
 8
Group#1
10
-0.499999999999765
20
27.13397459621553
30
23.0
11
-0.25881904510227743
21
27.03407417371088
31
23.0
  0
LINE
 8
Group#1
10
-0.25881904510227743
20
27.03407417371088
30
23.0
11
2.340572180514755e-13
21
26.999999999999968
31
23.0
  0
LINE
 8
Group#1
10
-4.3617523740319
20
-13.593703977705138
30
23.0
11
-3.6499999999999537
21
-13.500000000000055
31
23.0
  0
LINE
 8
Group#1
10
-4.7023794390039635
20
-13.709331285594017
30
23.0
11
-4.3617523740319
21
-13.593703977705138
31
23.0
  0
LINE
 8
Group#1
10
3.6500000000000568
20
-13.500000000000089
30
23.0
11
-3.6499999999999537
21
-13.500000000000055
31
23.0
  0
LINE
 8
Group#1
10
-9.683974596215418
20
16.499999999999968
30
23.0
11
-9.58407417371079
21
16.258819045102488
31
23.0
  0
LINE
 8
Group#1
10
-9.58407417371079
20
16.258819045102488
30
23.0
11
-9.549999999999855
21
15.999999999999968
31
23.0
  0
LINE
 8
Group#1
10
-10.549999999999848
20
16.999999999999968
30
23.0
11
-10.291180954897337
21
16.965925826289038
31
23.0
  0
LINE
 8
Group#1
10
-11.549999999999851
20
15.999999999999977
30
23.0
11
-11.515925826288912
21
16.258819045102495
31
23.0
  0
LINE
 8
Group#1
10
-11.2571067811864
20
16.70710678118652
30
23.0
11
-11.049999999999848
21
16.86602540378441
31
23.0
  0
LINE
 8
Group#1
10
-9.549999999999946
20
-4.000000000000038
30
23.0
11
-9.549999999999855
21
15.999999999999968
31
23.0
  0
LINE
 8
Group#1
10
-10.291180954897337
20
16.965925826289038
30
23.0
11
-10.04999999999985
21
16.866025403784406
31
23.0
  0
LINE
 8
Group#1
10
-11.515925826289005
20
-4.258819045102544
30
23.0
11
-11.416025403784378
21
-4.500000000000026
31
23.0
  0
LINE
 8
Group#1
10
-11.257106781186495
20
-4.70710678118657
30
23.0
11
-11.049999999999946
21
-4.86602540378446
31
23.0
  0
LINE
 8
Group#1
10
-11.549999999999942
20
-4.000000000000027
30
23.0
11
-11.515925826289005
21
-4.258819045102544
31
23.0
  0
LINE
 8
Group#1
10
-9.842893218813398
20
-4.707106781186575
30
23.0
11
-9.68397459621551
21
-4.500000000000037
31
23.0
  0
LINE
 8
Group#1
10
-11.049999999999946
20
-4.86602540378446
30
23.0
11
-10.808819045102458
21
-4.965925826289093
31
23.0
  0
LINE
 8
Group#1
10
-10.549999999999947
20
-5.00000000000003
30
23.0
11
-10.291180954897435
21
-4.965925826289093
31
23.0
  0
LINE
 8
Group#1
10
-9.68397459621551
20
-4.500000000000037
30
23.0
11
-9.584074173710883
21
-4.2588190451025545
31
23.0
  0
LINE
 8
Group#1
10
-6.400000000000036
20
-30.500000000000057
30
23.0
11
-6.399999999999971
21
-16.25000000000005
31
23.0
  0
LINE
 8
Group#1
10
-5.324093929773956
20
-14.068278314199178
30
23.0
11
-5.024999999999957
21
-13.868430139592856
31
23.0
  0
LINE
 8
Group#1
10
-5.024999999999957
20
-13.868430139592856
30
23.0
11
-4.7023794390039635
21
-13.709331285594017
31
23.0
  0
LINE
 8
Group#1
10
-6.882308546376083
20
-32.300000000000054
30
23.0
11
-7.454415587728472
21
-33.04558441227162
31
23.0
  0
LINE
 8
Group#1
10
-6.400000000000036
20
-30.500000000000057
30
23.0
11
-6.522667025359409
21
-31.431748562369133
31
23.0
  0
LINE
 8
Group#1
10
-11.416025403784284
20
16.499999999999975
30
23.0
11
-11.2571067811864
21
16.70710678118652
31
23.0
  0
LINE
 8
Group#1
10
-10.808819045102359
20
16.96592582628904
30
23.0
11
-10.549999999999848
21
16.999999999999968
31
23.0
  0
LINE
 8
Group#1
10
-10.291180954897435
20
-4.965925826289093
30
23.0
11
-10.049999999999947
21
-4.866025403784466
31
23.0
  0
LINE
 8
Group#1
10
-11.416025403784378
20
-4.500000000000026
30
23.0
11
-11.257106781186495
21
-4.70710678118657
31
23.0
  0
LINE
 8
Group#1
10
-7.454415587728472
20
-33.04558441227162
30
23.0
11
-8.200000000000044
21
-33.61769145362404
31
23.0
  0
LINE
 8
Group#1
10
-6.522667025359409
20
-31.431748562369133
30
23.0
11
-6.882308546376083
21
-32.300000000000054
31
23.0
  0
LINE
 8
Group#1
10
5.324093929774054
20
-14.068278314199222
30
23.0
11
5.025000000000058
21
-13.868430139592903
31
23.0
  0
LINE
 8
Group#1
10
5.324093929774054
20
-14.068278314199222
30
23.0
11
5.324093929774054
21
-14.068278314199222
31
25.0
  0
LINE
 8
Group#1
10
5.324093929774054
20
-14.068278314199222
30
25.0
11
5.025000000000058
21
-13.868430139592903
31
25.0
  0
LINE
 8
Group#1
10
5.025000000000058
20
-13.868430139592903
30
23.0
11
5.025000000000058
21
-13.868430139592903
31
25.0
  0
LINE
 8
Group#1
10
6.376473368778055
20
-15.891052971394943
30
23.0
11
6.306296022295014
21
-15.538247625968182
31
23.0
  0
LINE
 8
Group#1
10
6.376473368778055
20
-15.891052971394943
30
23.0
11
6.376473368778055
21
-15.891052971394943
31
25.0
  0
LINE
 8
Group#1
10
6.376473368778055
20
-15.891052971394943
30
25.0
11
6.306296022295014
21
-15.538247625968182
31
25.0
  0
LINE
 8
Group#1
10
6.306296022295014
20
-15.538247625968182
30
23.0
11
6.306296022295014
21
-15.538247625968182
31
25.0
  0
LINE
 8
Group#1
10
-5.024999999999957
20
-13.868430139592856
30
23.0
11
-5.024999999999957
21
-13.868430139592856
31
25.0
  0
LINE
 8
Group#1
10
-5.324093929773956
20
-14.068278314199178
30
25.0
11
-5.024999999999957
21
-13.868430139592856
31
25.0
  0
LINE
 8
Group#1
10
-5.324093929773956
20
-14.068278314199178
30
23.0
11
-5.324093929773956
21
-14.068278314199178
31
25.0
  0
LINE
 8
Group#1
10
-5.831721685800862
20
-14.57590607022605
30
23.0
11
-5.831721685800862
21
-14.57590607022605
31
25.0
  0
LINE
 8
Group#1
10
-6.031569860407186
20
-14.875000000000046
30
25.0
11
-5.831721685800862
21
-14.57590607022605
31
25.0
  0
LINE
 8
Group#1
10
-6.031569860407186
20
-14.875000000000046
30
23.0
11
-6.031569860407186
21
-14.875000000000046
31
25.0
  0
LINE
 8
Group#1
10
4.361752374032001
20
-13.593703977705172
30
23.0
11
3.6500000000000568
21
-13.500000000000089
31
23.0
  0
LINE
 8
Group#1
10
4.361752374032001
20
-13.593703977705172
30
23.0
11
4.361752374032001
21
-13.593703977705172
31
25.0
  0
LINE
 8
Group#1
10
4.361752374032001
20
-13.593703977705172
30
25.0
11
3.6500000000000568
21
-13.500000000000089
31
25.0
  0
LINE
 8
Group#1
10
3.6500000000000568
20
-13.500000000000089
30
23.0
11
3.6500000000000568
21
-13.500000000000089
31
25.0
  0
LINE
 8
Group#1
10
6.031569860407275
20
-14.875000000000103
30
23.0
11
5.831721685800957
21
-14.575906070226106
31
23.0
  0
LINE
 8
Group#1
10
6.031569860407275
20
-14.875000000000103
30
23.0
11
6.031569860407275
21
-14.875000000000103
31
25.0
  0
LINE
 8
Group#1
10
6.031569860407275
20
-14.875000000000103
30
25.0
11
5.831721685800957
21
-14.575906070226106
31
25.0
  0
LINE
 8
Group#1
10
5.831721685800957
20
-14.575906070226106
30
23.0
11
5.831721685800957
21
-14.575906070226106
31
25.0
  0
LINE
 8
Group#1
10
-13.477332974640701
20
-31.431748562369144
30
23.0
11
-13.477332974640701
21
-31.431748562369144
31
25.0
  0
LINE
 8
Group#1
10
-13.477332974640701
20
-31.431748562369144
30
25.0
11
-13.600000000000042
21
-30.50000000000002
31
25.0
  0
LINE
 8
Group#1
10
-13.600000000000042
20
-30.50000000000002
30
23.0
11
-13.600000000000042
21
-30.50000000000002
31
25.0
  0
LINE
 8
Group#1
10
-10.93174856236912
20
-33.97733297464068
30
23.0
11
-10.93174856236912
21
-33.97733297464068
31
25.0
  0
LINE
 8
Group#1
10
-10.93174856236912
20
-33.97733297464068
30
25.0
11
-11.800000000000063
21
-33.61769145362403
31
25.0
  0
LINE
 8
Group#1
10
-11.800000000000063
20
-33.61769145362403
30
23.0
11
-11.800000000000063
21
-33.61769145362403
31
25.0
  0
LINE
 8
Group#1
10
4.702379439004065
20
-13.70933128559405
30
23.0
11
4.361752374032001
21
-13.593703977705172
31
23.0
  0
LINE
 8
Group#1
10
4.702379439004065
20
-13.70933128559405
30
23.0
11
4.702379439004065
21
-13.70933128559405
31
25.0
  0
LINE
 8
Group#1
10
4.702379439004065
20
-13.70933128559405
30
25.0
11
4.361752374032001
21
-13.593703977705172
31
25.0
  0
LINE
 8
Group#1
10
2.8199664825478976e-13
20
37.99999999999995
30
25.0
11
0.9705714191347395
21
37.87222184858394
31
25.0
  0
LINE
 8
Group#1
10
2.8199664825478976e-13
20
37.99999999999995
30
25.0
11
-0.9705714191341756
21
37.872221848583955
31
25.0
  0
LINE
 8
Group#1
10
-0.9705714191341756
20
37.872221848583955
30
25.0
11
-1.874999999999723
21
37.49759526419163
31
25.0
  0
LINE
 8
Group#1
10
-1.874999999999723
20
37.49759526419163
30
25.0
11
-11.79999999999976
21
33.61769145362398
31
25.0
  0
LINE
 8
Group#1
10
-11.79999999999976
20
33.61769145362398
30
25.0
11
-12.545584412271335
21
33.04558441227161
31
25.0
  0
LINE
 8
Group#1
10
-12.545584412271335
20
33.04558441227161
30
25.0
11
-13.117691453623747
21
32.30000000000004
31
25.0
  0
LINE
 8
Group#1
10
-13.117691453623747
20
32.30000000000004
30
25.0
11
-13.477332974640419
21
31.431748562369123
31
25.0
  0
LINE
 8
Group#1
10
-13.477332974640419
20
31.431748562369123
30
25.0
11
-13.599999999999772
21
30.5
31
25.0
  0
LINE
 8
Group#1
10
-13.600000000000042
20
-30.50000000000002
30
25.0
11
-13.599999999999772
21
30.5
31
25.0
  0
LINE
 8
Group#1
10
-13.117691453624035
20
-32.30000000000007
30
25.0
11
-13.477332974640701
21
-31.431748562369144
31
25.0
  0
LINE
 8
Group#1
10
-12.545584412271628
20
-33.04558441227165
30
25.0
11
-13.117691453624035
21
-32.30000000000007
31
25.0
  0
LINE
 8
Group#1
10
-11.800000000000063
20
-33.61769145362403
30
25.0
11
-12.545584412271628
21
-33.04558441227165
31
25.0
  0
LINE
 8
Group#1
10
-10.000000000000066
20
-34.10000000000004
30
25.0
11
-10.93174856236912
21
-33.97733297464068
31
25.0
  0
LINE
 8
Group#1
10
-9.06825143763099
20
-33.97733297464069
30
25.0
11
-10.000000000000066
21
-34.10000000000004
31
25.0
  0
LINE
 8
Group#1
10
-8.200000000000044
20
-33.61769145362404
30
25.0
11
-9.06825143763099
21
-33.97733297464069
31
25.0
  0
LINE
 8
Group#1
10
-7.454415587728472
20
-33.04558441227162
30
25.0
11
-8.200000000000044
21
-33.61769145362404
31
25.0
  0
LINE
 8
Group#1
10
-6.882308546376083
20
-32.300000000000054
30
25.0
11
-7.454415587728472
21
-33.04558441227162
31
25.0
  0
LINE
 8
Group#1
10
-6.522667025359409
20
-31.431748562369133
30
25.0
11
-6.882308546376083
21
-32.300000000000054
31
25.0
  0
LINE
 8
Group#1
10
-6.400000000000036
20
-30.500000000000057
30
25.0
11
-6.522667025359409
21
-31.431748562369133
31
25.0
  0
LINE
 8
Group#1
10
-6.400000000000036
20
-30.500000000000057
30
25.0
11
-6.399999999999971
21
-16.25000000000005
31
25.0
  0
LINE
 8
Group#1
10
-6.399999999999971
20
-16.25000000000005
30
25.0
11
-6.3764733687779716
21
-15.891052971394888
31
25.0
  0
LINE
 8
Group#1
10
-6.3764733687779716
20
-15.891052971394888
30
25.0
11
-6.30629602229493
21
-15.538247625968125
31
25.0
  0
LINE
 8
Group#1
10
-6.30629602229493
20
-15.538247625968125
30
25.0
11
-6.190668714406004
21
-15.19762056099604
31
25.0
  0
LINE
 8
Group#1
10
-6.190668714406004
20
-15.19762056099604
30
25.0
11
-6.031569860407186
21
-14.875000000000046
31
25.0
  0
LINE
 8
Group#1
10
-5.831721685800862
20
-14.57590607022605
30
25.0
11
-5.594543648262978
21
-14.30545635173705
31
25.0
  0
LINE
 8
Group#1
10
-5.594543648262978
20
-14.30545635173705
30
25.0
11
-5.324093929773956
21
-14.068278314199178
31
25.0
  0
LINE
 8
Group#1
10
-5.024999999999957
20
-13.868430139592856
30
25.0
11
-4.7023794390039635
21
-13.709331285594017
31
25.0
  0
LINE
 8
Group#1
10
-4.7023794390039635
20
-13.709331285594017
30
25.0
11
-4.3617523740319
21
-13.593703977705138
31
25.0
  0
LINE
 8
Group#1
10
-4.3617523740319
20
-13.593703977705138
30
25.0
11
-3.6499999999999537
21
-13.500000000000055
31
25.0
  0
LINE
 8
Group#1
10
3.6500000000000568
20
-13.500000000000089
30
25.0
11
-3.6499999999999537
21
-13.500000000000055
31
25.0
  0
LINE
 8
Group#1
10
5.025000000000058
20
-13.868430139592903
30
25.0
11
4.702379439004065
21
-13.70933128559405
31
25.0
  0
LINE
 8
Group#1
10
5.594543648263074
20
-14.305456351737107
30
25.0
11
5.324093929774054
21
-14.068278314199222
31
25.0
  0
LINE
 8
Group#1
10
5.831721685800957
20
-14.575906070226106
30
25.0
11
5.594543648263074
21
-14.305456351737107
31
25.0
  0
LINE
 8
Group#1
10
6.190668714406093
20
-15.197620560996096
30
25.0
11
6.031569860407275
21
-14.875000000000103
31
25.0
  0
LINE
 8
Group#1
10
6.306296022295014
20
-15.538247625968182
30
25.0
11
6.190668714406093
21
-15.197620560996096
31
25.0
  0
LINE
 8
Group#1
10
6.40000000000005
20
-16.250000000000107
30
25.0
11
6.376473368778055
21
-15.891052971394943
31
25.0
  0
LINE
 8
Group#1
10
6.399999999999987
20
-30.500000000000114
30
25.0
11
6.40000000000005
21
-16.250000000000107
31
25.0
  0
LINE
 8
Group#1
10
6.399999999999987
20
-30.500000000000114
30
25.0
11
6.522667025359353
21
-31.43174856236919
31
25.0
  0
LINE
 8
Group#1
10
6.522667025359353
20
-31.43174856236919
30
25.0
11
6.88230854637602
21
-32.30000000000011
31
25.0
  0
LINE
 8
Group#1
10
6.88230854637602
20
-32.30000000000011
30
25.0
11
7.4544155877284
21
-33.045584412271694
31
25.0
  0
LINE
 8
Group#1
10
7.4544155877284
20
-33.045584412271694
30
25.0
11
8.199999999999969
21
-33.61769145362412
31
25.0
  0
LINE
 8
Group#1
10
8.199999999999969
20
-33.61769145362412
30
25.0
11
9.06825143763091
21
-33.977332974640774
31
25.0
  0
LINE
 8
Group#1
10
9.06825143763091
20
-33.977332974640774
30
25.0
11
9.999999999999988
21
-34.10000000000013
31
25.0
  0
LINE
 8
Group#1
10
9.999999999999988
20
-34.10000000000013
30
25.0
11
10.931748562369043
21
-33.97733297464078
31
25.0
  0
LINE
 8
Group#1
10
10.931748562369043
20
-33.97733297464078
30
25.0
11
11.799999999999985
21
-33.61769145362413
31
25.0
  0
LINE
 8
Group#1
10
11.799999999999985
20
-33.61769145362413
30
25.0
11
12.54558441227156
21
-33.04558441227176
31
25.0
  0
LINE
 8
Group#1
10
12.54558441227156
20
-33.04558441227176
30
25.0
11
13.11769145362397
21
-32.30000000000019
31
25.0
  0
LINE
 8
Group#1
10
13.11769145362397
20
-32.30000000000019
30
25.0
11
13.477332974640644
21
-31.43174856236927
31
25.0
  0
LINE
 8
Group#1
10
13.477332974640644
20
-31.43174856236927
30
25.0
11
13.599999999999994
21
-30.500000000000146
31
25.0
  0
LINE
 8
Group#1
10
13.599999999999994
20
-30.500000000000146
30
25.0
11
13.600000000000268
21
30.499999999999876
31
25.0
  0
LINE
 8
Group#1
10
13.477332974640927
20
31.431748562369
30
25.0
11
13.600000000000268
21
30.499999999999876
31
25.0
  0
LINE
 8
Group#1
10
13.117691453624257
20
32.29999999999992
30
25.0
11
13.477332974640927
21
31.431748562369
31
25.0
  0
LINE
 8
Group#1
10
12.545584412271854
20
33.045584412271495
30
25.0
11
13.117691453624257
21
32.29999999999992
31
25.0
  0
LINE
 8
Group#1
10
11.800000000000285
20
33.61769145362388
30
25.0
11
12.545584412271854
21
33.045584412271495
31
25.0
  0
LINE
 8
Group#1
10
1.8750000000002813
20
37.49759526419162
30
25.0
11
11.800000000000285
21
33.61769145362388
31
25.0
  0
LINE
 8
Group#1
10
0.9705714191347395
20
37.87222184858394
30
25.0
11
1.8750000000002813
21
37.49759526419162
31
25.0
  0
LINE
 8
Group#1
10
8.450000000000266
20
30.4999999999999
30
25.0
11
8.502814969252192
21
30.901169519908827
31
25.0
  0
LINE
 8
Group#1
10
8.502814969252192
20
30.901169519908827
30
25.0
11
8.657660624134376
21
31.274999999999903
31
25.0
  0
LINE
 8
Group#1
10
8.657660624134376
20
31.274999999999903
30
25.0
11
8.903984489161122
21
31.596015510839056
31
25.0
  0
LINE
 8
Group#1
10
8.903984489161122
20
31.596015510839056
30
25.0
11
9.225000000000277
21
31.8423393758658
31
25.0
  0
LINE
 8
Group#1
10
9.225000000000277
20
31.8423393758658
30
25.0
11
9.598830480091355
21
31.99718503074798
31
25.0
  0
LINE
 8
Group#1
10
9.598830480091355
20
31.99718503074798
30
25.0
11
10.000000000000282
21
32.049999999999905
31
25.0
  0
LINE
 8
Group#1
10
10.000000000000282
20
32.049999999999905
30
25.0
11
10.40116951990921
21
31.997185030747975
31
25.0
  0
LINE
 8
Group#1
10
10.40116951990921
20
31.997185030747975
30
25.0
11
10.775000000000285
21
31.842339375865787
31
25.0
  0
LINE
 8
Group#1
10
10.775000000000285
20
31.842339375865787
30
25.0
11
11.09601551083944
21
31.596015510839045
31
25.0
  0
LINE
 8
Group#1
10
11.09601551083944
20
31.596015510839045
30
25.0
11
11.34233937586618
21
31.274999999999892
31
25.0
  0
LINE
 8
Group#1
10
11.34233937586618
20
31.274999999999892
30
25.0
11
11.497185030748364
21
30.901169519908816
31
25.0
  0
LINE
 8
Group#1
10
11.497185030748364
20
30.901169519908816
30
25.0
11
11.550000000000283
21
30.499999999999886
31
25.0
  0
LINE
 8
Group#1
10
11.550000000000283
20
30.499999999999886
30
25.0
11
11.49718503074836
21
30.098830480091006
31
25.0
  0
LINE
 8
Group#1
10
11.49718503074836
20
30.098830480091006
30
25.0
11
11.342339375866173
21
29.72499999999993
31
25.0
  0
LINE
 8
Group#1
10
11.342339375866173
20
29.72499999999993
30
25.0
11
11.096015510839429
21
29.403984489160774
31
25.0
  0
LINE
 8
Group#1
10
11.096015510839429
20
29.403984489160774
30
25.0
11
10.775000000000274
21
29.15766062413403
31
25.0
  0
LINE
 8
Group#1
10
10.775000000000274
20
29.15766062413403
30
25.0
11
10.401169519909198
21
29.002814969251848
31
25.0
  0
LINE
 8
Group#1
10
10.401169519909198
20
29.002814969251848
30
25.0
11
10.00000000000027
21
28.949999999999932
31
25.0
  0
LINE
 8
Group#1
10
10.00000000000027
20
28.949999999999932
30
25.0
11
9.598830480091342
21
29.00281496925185
31
25.0
  0
LINE
 8
Group#1
10
9.598830480091342
20
29.00281496925185
30
25.0
11
9.225000000000264
21
29.157660624134042
31
25.0
  0
LINE
 8
Group#1
10
9.225000000000264
20
29.157660624134042
30
25.0
11
8.903984489161113
21
29.403984489160784
31
25.0
  0
LINE
 8
Group#1
10
8.903984489161113
20
29.403984489160784
30
25.0
11
8.65766062413437
21
29.72499999999994
31
25.0
  0
LINE
 8
Group#1
10
8.65766062413437
20
29.72499999999994
30
25.0
11
8.502814969252187
21
30.098830480091017
31
25.0
  0
LINE
 8
Group#1
10
8.502814969252187
20
30.098830480091017
30
25.0
11
8.450000000000266
21
30.4999999999999
31
25.0
  0
LINE
 8
Group#1
10
9.225000000000005
20
-29.15766062413427
30
25.0
11
8.903984489160848
21
-29.40398448916101
31
25.0
  0
LINE
 8
Group#1
10
9.598830480091083
20
-29.002814969252082
30
25.0
11
9.225000000000005
21
-29.15766062413427
31
25.0
  0
LINE
 8
Group#1
10
10.00000000000001
20
-28.950000000000173
30
25.0
11
9.598830480091083
21
-29.002814969252082
31
25.0
  0
LINE
 8
Group#1
10
10.401169519908938
20
-29.002814969252096
30
25.0
11
10.00000000000001
21
-28.950000000000173
31
25.0
  0
LINE
 8
Group#1
10
10.775000000000013
20
-29.15766062413428
30
25.0
11
10.401169519908938
21
-29.002814969252096
31
25.0
  0
LINE
 8
Group#1
10
11.096015510839166
20
-29.403984489161022
30
25.0
11
10.775000000000013
21
-29.15766062413428
31
25.0
  0
LINE
 8
Group#1
10
11.342339375865906
20
-29.725000000000176
30
25.0
11
11.096015510839166
21
-29.403984489161022
31
25.0
  0
LINE
 8
Group#1
10
11.49718503074809
20
-30.09883048009125
30
25.0
11
11.342339375865906
21
-29.725000000000176
31
25.0
  0
LINE
 8
Group#1
10
11.550000000000011
20
-30.500000000000135
30
25.0
11
11.49718503074809
21
-30.09883048009125
31
25.0
  0
LINE
 8
Group#1
10
11.497185030748087
20
-30.901169519909065
30
25.0
11
11.550000000000011
21
-30.500000000000135
31
25.0
  0
LINE
 8
Group#1
10
11.3423393758659
20
-31.27500000000014
30
25.0
11
11.497185030748087
21
-30.901169519909065
31
25.0
  0
LINE
 8
Group#1
10
11.096015510839157
20
-31.596015510839294
30
25.0
11
11.3423393758659
21
-31.27500000000014
31
25.0
  0
LINE
 8
Group#1
10
10.775000000000002
20
-31.842339375866036
30
25.0
11
11.096015510839157
21
-31.596015510839294
31
25.0
  0
LINE
 8
Group#1
10
10.401169519908924
20
-31.997185030748224
30
25.0
11
10.775000000000002
21
-31.842339375866036
31
25.0
  0
LINE
 8
Group#1
10
9.999999999999996
20
-32.050000000000146
30
25.0
11
10.401169519908924
21
-31.997185030748224
31
25.0
  0
LINE
 8
Group#1
10
9.598830480091069
20
-31.99718503074821
30
25.0
11
9.999999999999996
21
-32.050000000000146
31
25.0
  0
LINE
 8
Group#1
10
9.22499999999999
20
-31.842339375866025
30
25.0
11
9.598830480091069
21
-31.99718503074821
31
25.0
  0
LINE
 8
Group#1
10
8.903984489160841
20
-31.596015510839283
30
25.0
11
9.22499999999999
21
-31.842339375866025
31
25.0
  0
LINE
 8
Group#1
10
8.657660624134097
20
-31.27500000000013
30
25.0
11
8.903984489160841
21
-31.596015510839283
31
25.0
  0
LINE
 8
Group#1
10
8.502814969251915
20
-30.901169519909054
30
25.0
11
8.657660624134097
21
-31.27500000000013
31
25.0
  0
LINE
 8
Group#1
10
8.449999999999994
20
-30.500000000000124
30
25.0
11
8.502814969251915
21
-30.901169519909054
31
25.0
  0
LINE
 8
Group#1
10
8.502814969251919
20
-30.09883048009124
30
25.0
11
8.449999999999994
21
-30.500000000000124
31
25.0
  0
LINE
 8
Group#1
10
8.657660624134106
20
-29.725000000000165
30
25.0
11
8.502814969251919
21
-30.09883048009124
31
25.0
  0
LINE
 8
Group#1
10
8.903984489160848
20
-29.40398448916101
30
25.0
11
8.657660624134106
21
-29.725000000000165
31
25.0
  0
LINE
 8
Group#1
10
7.0000000000001945
20
16.249999999999897
30
25.0
11
6.965925826289278
21
15.99118095489741
31
25.0
  0
LINE
 8
Group#1
10
6.965925826289278
20
15.99118095489741
30
25.0
11
6.866025403784627
21
15.749999999999924
31
25.0
  0
LINE
 8
Group#1
10
6.866025403784627
20
15.749999999999924
30
25.0
11
6.707106781186742
21
15.542893218813395
31
25.0
  0
LINE
 8
Group#1
10
6.707106781186742
20
15.542893218813395
30
25.0
11
6.500000000000169
21
15.383974596215467
31
25.0
  0
LINE
 8
Group#1
10
6.500000000000169
20
15.383974596215467
30
25.0
11
6.258819045102681
21
15.284074173710865
31
25.0
  0
LINE
 8
Group#1
10
6.258819045102681
20
15.284074173710865
30
25.0
11
6.000000000000192
21
15.24999999999995
31
25.0
  0
LINE
 8
Group#1
10
6.000000000000192
20
15.24999999999995
30
25.0
11
5.741180954897681
21
15.284074173710865
31
25.0
  0
LINE
 8
Group#1
10
5.741180954897681
20
15.284074173710865
30
25.0
11
5.500000000000193
21
15.383974596215472
31
25.0
  0
LINE
 8
Group#1
10
5.500000000000193
20
15.383974596215472
30
25.0
11
5.292893218813644
21
15.5428932188134
31
25.0
  0
LINE
 8
Group#1
10
5.292893218813644
20
15.5428932188134
30
25.0
11
5.13397459621576
21
15.749999999999929
31
25.0
  0
LINE
 8
Group#1
10
5.13397459621576
20
15.749999999999929
30
25.0
11
5.034074173711112
21
15.99118095489742
31
25.0
  0
LINE
 8
Group#1
10
5.034074173711112
20
15.99118095489742
30
25.0
11
5.000000000000198
21
16.249999999999908
31
25.0
  0
LINE
 8
Group#1
10
5.000000000000234
20
24.24999999999994
30
25.0
11
5.000000000000198
21
16.249999999999908
31
25.0
  0
LINE
 8
Group#1
10
5.03407417371115
20
24.508819045102427
30
25.0
11
5.000000000000234
21
24.24999999999994
31
25.0
  0
LINE
 8
Group#1
10
5.1339745962158005
20
24.749999999999957
30
25.0
11
5.03407417371115
21
24.508819045102427
31
25.0
  0
LINE
 8
Group#1
10
5.292893218813687
20
24.957106781186486
30
25.0
11
5.1339745962158005
21
24.749999999999957
31
25.0
  0
LINE
 8
Group#1
10
5.500000000000236
20
25.11602540378437
30
25.0
11
5.292893218813687
21
24.957106781186486
31
25.0
  0
LINE
 8
Group#1
10
5.741180954897724
20
25.215925826289016
30
25.0
11
5.500000000000236
21
25.11602540378437
31
25.0
  0
LINE
 8
Group#1
10
6.000000000000237
20
25.249999999999932
30
25.0
11
5.741180954897724
21
25.215925826289016
31
25.0
  0
LINE
 8
Group#1
10
6.258819045102725
20
25.215925826289016
30
25.0
11
6.000000000000237
21
25.249999999999932
31
25.0
  0
LINE
 8
Group#1
10
6.500000000000212
20
25.116025403784363
30
25.0
11
6.258819045102725
21
25.215925826289016
31
25.0
  0
LINE
 8
Group#1
10
6.707106781186785
20
24.95710678118648
30
25.0
11
6.500000000000212
21
25.116025403784363
31
25.0
  0
LINE
 8
Group#1
10
6.8660254037846675
20
24.74999999999995
30
25.0
11
6.707106781186785
21
24.95710678118648
31
25.0
  0
LINE
 8
Group#1
10
6.9659258262893164
20
24.50881904510242
30
25.0
11
6.8660254037846675
21
24.74999999999995
31
25.0
  0
LINE
 8
Group#1
10
7.00000000000023
20
24.24999999999993
30
25.0
11
6.9659258262893164
21
24.50881904510242
31
25.0
  0
LINE
 8
Group#1
10
7.00000000000023
20
24.24999999999993
30
25.0
11
7.0000000000001945
21
16.249999999999897
31
25.0
  0
LINE
 8
Group#1
10
1.741180954897709
20
25.215925826289038
30
25.0
11
1.5000000000002214
21
25.116025403784388
31
25.0
  0
LINE
 8
Group#1
10
2.000000000000222
20
25.249999999999947
30
25.0
11
1.741180954897709
21
25.215925826289038
31
25.0
  0
LINE
 8
Group#1
10
2.2588190451027548
20
25.215925826289034
30
25.0
11
2.000000000000222
21
25.249999999999947
31
25.0
  0
LINE
 8
Group#1
10
2.50000000000022
20
25.116025403784384
30
25.0
11
2.2588190451027548
21
25.215925826289034
31
25.0
  0
LINE
 8
Group#1
10
2.70710678118677
20
24.957106781186496
30
25.0
11
2.50000000000022
21
25.116025403784384
31
25.0
  0
LINE
 8
Group#1
10
2.866025403784675
20
24.749999999999968
30
25.0
11
2.70710678118677
21
24.957106781186496
31
25.0
  0
LINE
 8
Group#1
10
2.965925826289301
20
24.508819045102435
30
25.0
11
2.866025403784675
21
24.749999999999968
31
25.0
  0
LINE
 8
Group#1
10
3.0000000000002145
20
24.249999999999947
30
25.0
11
2.965925826289301
21
24.508819045102435
31
25.0
  0
LINE
 8
Group#1
10
3.0000000000002145
20
24.249999999999947
30
25.0
11
3.0000000000001794
21
16.24999999999992
31
25.0
  0
LINE
 8
Group#1
10
3.0000000000001794
20
16.24999999999992
30
25.0
11
2.965925826289263
21
15.991180954897427
31
25.0
  0
LINE
 8
Group#1
10
2.965925826289263
20
15.991180954897427
30
25.0
11
2.8660254037846116
21
15.74999999999994
31
25.0
  0
LINE
 8
Group#1
10
2.8660254037846116
20
15.74999999999994
30
25.0
11
2.7071067811867273
21
15.542893218813413
31
25.0
  0
LINE
 8
Group#1
10
2.7071067811867273
20
15.542893218813413
30
25.0
11
2.500000000000176
21
15.383974596215486
31
25.0
  0
LINE
 8
Group#1
10
2.500000000000176
20
15.383974596215486
30
25.0
11
2.258819045102711
21
15.28407417371088
31
25.0
  0
LINE
 8
Group#1
10
2.258819045102711
20
15.28407417371088
30
25.0
11
2.0000000000001767
21
15.249999999999922
31
25.0
  0
LINE
 8
Group#1
10
2.0000000000001767
20
15.249999999999922
30
25.0
11
1.7411809548976653
21
15.284074173710884
31
25.0
  0
LINE
 8
Group#1
10
1.7411809548976653
20
15.284074173710884
30
25.0
11
1.5000000000001776
21
15.383974596215488
31
25.0
  0
LINE
 8
Group#1
10
1.5000000000001776
20
15.383974596215488
30
25.0
11
1.2928932188136288
21
15.54289321881342
31
25.0
  0
LINE
 8
Group#1
10
1.2928932188136288
20
15.54289321881342
30
25.0
11
1.1339745962157446
21
15.749999999999948
31
25.0
  0
LINE
 8
Group#1
10
1.1339745962157446
20
15.749999999999948
30
25.0
11
1.0340741737111188
21
15.991180954897436
31
25.0
  0
LINE
 8
Group#1
10
1.0340741737111188
20
15.991180954897436
30
25.0
11
1.000000000000183
21
16.249999999999925
31
25.0
  0
LINE
 8
Group#1
10
1.000000000000218
20
24.249999999999954
30
25.0
11
1.000000000000183
21
16.249999999999925
31
25.0
  0
LINE
 8
Group#1
10
1.034074173711157
20
24.508819045102445
30
25.0
11
1.000000000000218
21
24.249999999999954
31
25.0
  0
LINE
 8
Group#1
10
1.1339745962157857
20
24.74999999999998
30
25.0
11
1.034074173711157
21
24.508819045102445
31
25.0
  0
LINE
 8
Group#1
10
1.2928932188136713
20
24.957106781186503
30
25.0
11
1.1339745962157857
21
24.74999999999998
31
25.0
  0
LINE
 8
Group#1
10
1.5000000000002214
20
25.116025403784388
30
25.0
11
1.2928932188136713
21
24.957106781186503
31
25.0
  0
LINE
 8
Group#1
10
4.25881904510276
20
27.034074173710867
30
25.0
11
4.000000000000248
21
26.99999999999995
31
25.0
  0
LINE
 8
Group#1
10
4.000000000000248
20
26.99999999999995
30
25.0
11
3.7411809548977137
21
27.034074173710867
31
25.0
  0
LINE
 8
Group#1
10
3.7411809548977137
20
27.034074173710867
30
25.0
11
3.500000000000228
21
27.133974596215516
31
25.0
  0
LINE
 8
Group#1
10
3.500000000000228
20
27.133974596215516
30
25.0
11
3.2928932188137
21
27.2928932188134
31
25.0
  0
LINE
 8
Group#1
10
3.2928932188137
20
27.2928932188134
30
25.0
11
3.1339745962157948
21
27.49999999999997
31
25.0
  0
LINE
 8
Group#1
10
3.1339745962157948
20
27.49999999999997
30
25.0
11
3.034074173711167
21
27.741180954897416
31
25.0
  0
LINE
 8
Group#1
10
3.034074173711167
20
27.741180954897416
30
25.0
11
3.0000000000002314
21
27.99999999999995
31
25.0
  0
LINE
 8
Group#1
10
3.0000000000002314
20
27.99999999999995
30
25.0
11
3.000000000000254
21
32.999999999999936
31
25.0
  0
LINE
 8
Group#1
10
3.034074173711193
20
33.25881904510247
30
25.0
11
3.000000000000254
21
32.999999999999936
31
25.0
  0
LINE
 8
Group#1
10
3.1339745962158214
20
33.499999999999964
30
25.0
11
3.034074173711193
21
33.25881904510247
31
25.0
  0
LINE
 8
Group#1
10
3.2928932188137283
20
33.70710678118649
30
25.0
11
3.1339745962158214
21
33.499999999999964
31
25.0
  0
LINE
 8
Group#1
10
3.500000000000257
20
33.86602540378437
30
25.0
11
3.2928932188137283
21
33.70710678118649
31
25.0
  0
LINE
 8
Group#1
10
3.741180954897745
20
33.96592582628902
30
25.0
11
3.500000000000257
21
33.86602540378437
31
25.0
  0
LINE
 8
Group#1
10
4.000000000000279
20
33.999999999999936
30
25.0
11
3.741180954897745
21
33.96592582628902
31
25.0
  0
LINE
 8
Group#1
10
4.258819045102791
20
33.965925826289016
30
25.0
11
4.000000000000279
21
33.999999999999936
31
25.0
  0
LINE
 8
Group#1
10
4.500000000000256
20
33.86602540378437
30
25.0
11
4.258819045102791
21
33.965925826289016
31
25.0
  0
LINE
 8
Group#1
10
4.707106781186827
20
33.70710678118648
30
25.0
11
4.500000000000256
21
33.86602540378437
31
25.0
  0
LINE
 8
Group#1
10
4.866025403784711
20
33.49999999999996
30
25.0
11
4.707106781186827
21
33.70710678118648
31
25.0
  0
LINE
 8
Group#1
10
4.965925826289337
20
33.25881904510247
30
25.0
11
4.866025403784711
21
33.49999999999996
31
25.0
  0
LINE
 8
Group#1
10
5.000000000000273
20
32.999999999999936
30
25.0
11
4.965925826289337
21
33.25881904510247
31
25.0
  0
LINE
 8
Group#1
10
5.0000000000002505
20
27.999999999999943
30
25.0
11
5.000000000000273
21
32.999999999999936
31
25.0
  0
LINE
 8
Group#1
10
5.0000000000002505
20
27.999999999999943
30
25.0
11
4.965925826289311
21
27.74118095489741
31
25.0
  0
LINE
 8
Group#1
10
4.965925826289311
20
27.74118095489741
30
25.0
11
4.866025403784684
21
27.499999999999968
31
25.0
  0
LINE
 8
Group#1
10
4.866025403784684
20
27.499999999999968
30
25.0
11
4.707106781186798
21
27.292893218813393
31
25.0
  0
LINE
 8
Group#1
10
4.707106781186798
20
27.292893218813393
30
25.0
11
4.500000000000226
21
27.13397459621551
31
25.0
  0
LINE
 8
Group#1
10
4.500000000000226
20
27.13397459621551
30
25.0
11
4.25881904510276
21
27.034074173710867
31
25.0
  0
LINE
 8
Group#1
10
11.55000000000013
20
-4.000000000000128
30
25.0
11
11.55000000000022
21
15.999999999999872
31
25.0
  0
LINE
 8
Group#1
10
11.55000000000013
20
-4.000000000000128
30
25.0
11
11.515925826289191
21
-4.258819045102645
31
25.0
  0
LINE
 8
Group#1
10
11.515925826289191
20
-4.258819045102645
30
25.0
11
11.416025403784563
21
-4.500000000000127
31
25.0
  0
LINE
 8
Group#1
10
11.416025403784563
20
-4.500000000000127
30
25.0
11
11.257106781186678
21
-4.707106781186671
31
25.0
  0
LINE
 8
Group#1
10
11.257106781186678
20
-4.707106781186671
30
25.0
11
11.050000000000127
21
-4.866025403784562
31
25.0
  0
LINE
 8
Group#1
10
11.050000000000127
20
-4.866025403784562
30
25.0
11
10.80881904510264
21
-4.9659258262891885
31
25.0
  0
LINE
 8
Group#1
10
10.80881904510264
20
-4.9659258262891885
30
25.0
11
10.550000000000127
21
-5.000000000000126
31
25.0
  0
LINE
 8
Group#1
10
10.550000000000127
20
-5.000000000000126
30
25.0
11
10.291180954897616
21
-4.965925826289183
31
25.0
  0
LINE
 8
Group#1
10
10.291180954897616
20
-4.965925826289183
30
25.0
11
10.050000000000129
21
-4.866025403784556
31
25.0
  0
LINE
 8
Group#1
10
10.050000000000129
20
-4.866025403784556
30
25.0
11
9.842893218813577
21
-4.707106781186666
31
25.0
  0
LINE
 8
Group#1
10
9.842893218813577
20
-4.707106781186666
30
25.0
11
9.683974596215696
21
-4.500000000000122
31
25.0
  0
LINE
 8
Group#1
10
9.683974596215696
20
-4.500000000000122
30
25.0
11
9.58407417371107
21
-4.25881904510264
31
25.0
  0
LINE
 8
Group#1
10
9.58407417371107
20
-4.25881904510264
30
25.0
11
9.550000000000134
21
-4.000000000000123
31
25.0
  0
LINE
 8
Group#1
10
9.550000000000134
20
-4.000000000000123
30
25.0
11
9.550000000000223
21
15.999999999999881
31
25.0
  0
LINE
 8
Group#1
10
9.58407417371116
20
16.2588190451024
30
25.0
11
9.550000000000223
21
15.999999999999881
31
25.0
  0
LINE
 8
Group#1
10
9.683974596215789
20
16.49999999999988
30
25.0
11
9.58407417371116
21
16.2588190451024
31
25.0
  0
LINE
 8
Group#1
10
9.842893218813673
20
16.707106781186425
30
25.0
11
9.683974596215789
21
16.49999999999988
31
25.0
  0
LINE
 8
Group#1
10
10.050000000000226
20
16.866025403784317
30
25.0
11
9.842893218813673
21
16.707106781186425
31
25.0
  0
LINE
 8
Group#1
10
10.291180954897715
20
16.965925826288945
30
25.0
11
10.050000000000226
21
16.866025403784317
31
25.0
  0
LINE
 8
Group#1
10
10.550000000000226
20
16.999999999999876
30
25.0
11
10.291180954897715
21
16.965925826288945
31
25.0
  0
LINE
 8
Group#1
10
10.808819045102736
20
16.96592582628894
30
25.0
11
10.550000000000226
21
16.999999999999876
31
25.0
  0
LINE
 8
Group#1
10
11.050000000000225
20
16.86602540378431
30
25.0
11
10.808819045102736
21
16.96592582628894
31
25.0
  0
LINE
 8
Group#1
10
11.257106781186772
20
16.707106781186422
30
25.0
11
11.050000000000225
21
16.86602540378431
31
25.0
  0
LINE
 8
Group#1
10
11.416025403784657
20
16.499999999999872
30
25.0
11
11.257106781186772
21
16.707106781186422
31
25.0
  0
LINE
 8
Group#1
10
11.515925826289283
20
16.258819045102392
30
25.0
11
11.416025403784657
21
16.499999999999872
31
25.0
  0
LINE
 8
Group#1
10
11.55000000000022
20
15.999999999999872
30
25.0
11
11.515925826289283
21
16.258819045102392
31
25.0
  0
LINE
 8
Group#1
10
-11.549999999999942
20
-4.000000000000027
30
25.0
11
-11.549999999999851
21
15.999999999999977
31
25.0
  0
LINE
 8
Group#1
10
-11.549999999999851
20
15.999999999999977
30
25.0
11
-11.515925826288912
21
16.258819045102495
31
25.0
  0
LINE
 8
Group#1
10
-11.515925826288912
20
16.258819045102495
30
25.0
11
-11.416025403784284
21
16.499999999999975
31
25.0
  0
LINE
 8
Group#1
10
-11.416025403784284
20
16.499999999999975
30
25.0
11
-11.2571067811864
21
16.70710678118652
31
25.0
  0
LINE
 8
Group#1
10
-11.2571067811864
20
16.70710678118652
30
25.0
11
-11.049999999999848
21
16.86602540378441
31
25.0
  0
LINE
 8
Group#1
10
-11.049999999999848
20
16.86602540378441
30
25.0
11
-10.808819045102359
21
16.96592582628904
31
25.0
  0
LINE
 8
Group#1
10
-10.808819045102359
20
16.96592582628904
30
25.0
11
-10.549999999999848
21
16.999999999999968
31
25.0
  0
LINE
 8
Group#1
10
-10.549999999999848
20
16.999999999999968
30
25.0
11
-10.291180954897337
21
16.965925826289038
31
25.0
  0
LINE
 8
Group#1
10
-10.291180954897337
20
16.965925826289038
30
25.0
11
-10.04999999999985
21
16.866025403784406
31
25.0
  0
LINE
 8
Group#1
10
-10.04999999999985
20
16.866025403784406
30
25.0
11
-9.842893218813302
21
16.707106781186514
31
25.0
  0
LINE
 8
Group#1
10
-9.842893218813302
20
16.707106781186514
30
25.0
11
-9.683974596215418
21
16.499999999999968
31
25.0
  0
LINE
 8
Group#1
10
-9.683974596215418
20
16.499999999999968
30
25.0
11
-9.58407417371079
21
16.258819045102488
31
25.0
  0
LINE
 8
Group#1
10
-9.58407417371079
20
16.258819045102488
30
25.0
11
-9.549999999999855
21
15.999999999999968
31
25.0
  0
LINE
 8
Group#1
10
-9.549999999999946
20
-4.000000000000038
30
25.0
11
-9.549999999999855
21
15.999999999999968
31
25.0
  0
LINE
 8
Group#1
10
-9.584074173710883
20
-4.2588190451025545
30
25.0
11
-9.549999999999946
21
-4.000000000000038
31
25.0
  0
LINE
 8
Group#1
10
-9.68397459621551
20
-4.500000000000037
30
25.0
11
-9.584074173710883
21
-4.2588190451025545
31
25.0
  0
LINE
 8
Group#1
10
-9.842893218813398
20
-4.707106781186575
30
25.0
11
-9.68397459621551
21
-4.500000000000037
31
25.0
  0
LINE
 8
Group#1
10
-10.049999999999947
20
-4.866025403784466
30
25.0
11
-9.842893218813398
21
-4.707106781186575
31
25.0
  0
LINE
 8
Group#1
10
-10.291180954897435
20
-4.965925826289093
30
25.0
11
-10.049999999999947
21
-4.866025403784466
31
25.0
  0
LINE
 8
Group#1
10
-10.549999999999947
20
-5.00000000000003
30
25.0
11
-10.291180954897435
21
-4.965925826289093
31
25.0
  0
LINE
 8
Group#1
10
-10.808819045102458
20
-4.965925826289093
30
25.0
11
-10.549999999999947
21
-5.00000000000003
31
25.0
  0
LINE
 8
Group#1
10
-11.049999999999946
20
-4.86602540378446
30
25.0
11
-10.808819045102458
21
-4.965925826289093
31
25.0
  0
LINE
 8
Group#1
10
-11.257106781186495
20
-4.70710678118657
30
25.0
11
-11.049999999999946
21
-4.86602540378446
31
25.0
  0
LINE
 8
Group#1
10
-11.416025403784378
20
-4.500000000000026
30
25.0
11
-11.257106781186495
21
-4.70710678118657
31
25.0
  0
LINE
 8
Group#1
10
-11.515925826289005
20
-4.258819045102544
30
25.0
11
-11.416025403784378
21
-4.500000000000026
31
25.0
  0
LINE
 8
Group#1
10
-11.549999999999942
20
-4.000000000000027
30
25.0
11
-11.515925826289005
21
-4.258819045102544
31
25.0
  0
LINE
 8
Group#1
10
-4.2588190451022925
20
27.0340741737109
30
25.0
11
-3.999999999999781
21
26.999999999999986
31
25.0
  0
LINE
 8
Group#1
10
-4.4999999999997575
20
27.13397459621555
30
25.0
11
-4.2588190451022925
21
27.0340741737109
31
25.0
  0
LINE
 8
Group#1
10
-4.70710678118633
20
27.292893218813433
30
25.0
11
-4.4999999999997575
21
27.13397459621555
31
25.0
  0
LINE
 8
Group#1
10
-4.8660254037842146
20
27.50000000000001
30
25.0
11
-4.70710678118633
21
27.292893218813433
31
25.0
  0
LINE
 8
Group#1
10
-4.9659258262888395
20
27.741180954897455
30
25.0
11
-4.8660254037842146
21
27.50000000000001
31
25.0
  0
LINE
 8
Group#1
10
-4.999999999999776
20
27.99999999999999
30
25.0
11
-4.9659258262888395
21
27.741180954897455
31
25.0
  0
LINE
 8
Group#1
10
-4.999999999999776
20
27.99999999999999
30
25.0
11
-4.999999999999754
21
32.99999999999998
31
25.0
  0
LINE
 8
Group#1
10
-4.999999999999754
20
32.99999999999998
30
25.0
11
-4.965925826288816
21
33.25881904510251
31
25.0
  0
LINE
 8
Group#1
10
-4.965925826288816
20
33.25881904510251
30
25.0
11
-4.866025403784186
21
33.5
31
25.0
  0
LINE
 8
Group#1
10
-4.866025403784186
20
33.5
30
25.0
11
-4.707106781186302
21
33.707106781186525
31
25.0
  0
LINE
 8
Group#1
10
-4.707106781186302
20
33.707106781186525
30
25.0
11
-4.499999999999729
21
33.866025403784406
31
25.0
  0
LINE
 8
Group#1
10
-4.499999999999729
20
33.866025403784406
30
25.0
11
-4.258819045102261
21
33.96592582628906
31
25.0
  0
LINE
 8
Group#1
10
-4.258819045102261
20
33.96592582628906
30
25.0
11
-3.99999999999975
21
33.99999999999997
31
25.0
  0
LINE
 8
Group#1
10
-3.99999999999975
20
33.99999999999997
30
25.0
11
-3.741180954897216
21
33.96592582628906
31
25.0
  0
LINE
 8
Group#1
10
-3.741180954897216
20
33.96592582628906
30
25.0
11
-3.4999999999997313
21
33.866025403784406
31
25.0
  0
LINE
 8
Group#1
10
-3.4999999999997313
20
33.866025403784406
30
25.0
11
-3.292893218813204
21
33.70710678118652
31
25.0
  0
LINE
 8
Group#1
10
-3.292893218813204
20
33.70710678118652
30
25.0
11
-3.133974596215297
21
33.49999999999999
31
25.0
  0
LINE
 8
Group#1
10
-3.133974596215297
20
33.49999999999999
30
25.0
11
-3.0340741737106725
21
33.2588190451025
31
25.0
  0
LINE
 8
Group#1
10
-3.0340741737106725
20
33.2588190451025
30
25.0
11
-2.999999999999735
21
32.999999999999964
31
25.0
  0
LINE
 8
Group#1
10
-2.9999999999997575
20
27.999999999999975
30
25.0
11
-2.999999999999735
21
32.999999999999964
31
25.0
  0
LINE
 8
Group#1
10
-3.034074173710695
20
27.741180954897445
30
25.0
11
-2.9999999999997575
21
27.999999999999975
31
25.0
  0
LINE
 8
Group#1
10
-3.133974596215325
20
27.5
30
25.0
11
-3.034074173710695
21
27.741180954897445
31
25.0
  0
LINE
 8
Group#1
10
-3.292893218813232
20
27.292893218813433
30
25.0
11
-3.133974596215325
21
27.5
31
25.0
  0
LINE
 8
Group#1
10
-3.4999999999997597
20
27.13397459621555
30
25.0
11
-3.292893218813232
21
27.292893218813433
31
25.0
  0
LINE
 8
Group#1
10
-3.741180954897247
20
27.0340741737109
30
25.0
11
-3.4999999999997597
21
27.13397459621555
31
25.0
  0
LINE
 8
Group#1
10
-3.999999999999781
20
26.999999999999986
30
25.0
11
-3.741180954897247
21
27.0340741737109
31
25.0
  0
LINE
 8
Group#1
10
-1.7411809548972592
20
25.21592582628905
30
25.0
11
-1.4999999999997717
21
25.116025403784402
31
25.0
  0
LINE
 8
Group#1
10
-1.4999999999997717
20
25.116025403784402
30
25.0
11
-1.2928932188132243
21
24.957106781186518
31
25.0
  0
LINE
 8
Group#1
10
-1.2928932188132243
20
24.957106781186518
30
25.0
11
-1.13397459621534
21
24.749999999999986
31
25.0
  0
LINE
 8
Group#1
10
-1.13397459621534
20
24.749999999999986
30
25.0
11
-1.0340741737107129
21
24.508819045102452
31
25.0
  0
LINE
 8
Group#1
10
-1.0340741737107129
20
24.508819045102452
30
25.0
11
-0.9999999999997782
21
24.249999999999964
31
25.0
  0
LINE
 8
Group#1
10
-0.9999999999997782
20
24.249999999999964
30
25.0
11
-0.999999999999812
21
16.249999999999932
31
25.0
  0
LINE
 8
Group#1
10
-1.0340741737107522
20
15.991180954897445
30
25.0
11
-0.999999999999812
21
16.249999999999932
31
25.0
  0
LINE
 8
Group#1
10
-1.1339745962153795
20
15.749999999999957
30
25.0
11
-1.0340741737107522
21
15.991180954897445
31
25.0
  0
LINE
 8
Group#1
10
-1.2928932188132665
20
15.542893218813433
30
25.0
11
-1.1339745962153795
21
15.749999999999957
31
25.0
  0
LINE
 8
Group#1
10
-1.4999999999998168
20
15.383974596215502
30
25.0
11
-1.2928932188132665
21
15.542893218813433
31
25.0
  0
LINE
 8
Group#1
10
-1.7411809548973043
20
15.284074173710898
30
25.0
11
-1.4999999999998168
21
15.383974596215502
31
25.0
  0
LINE
 8
Group#1
10
-1.999999999999816
20
15.249999999999941
30
25.0
11
-1.7411809548973043
21
15.284074173710898
31
25.0
  0
LINE
 8
Group#1
10
-2.2588190451023498
20
15.2840741737109
30
25.0
11
-1.999999999999816
21
15.249999999999941
31
25.0
  0
LINE
 8
Group#1
10
-2.499999999999815
20
15.38397459621551
30
25.0
11
-2.2588190451023498
21
15.2840741737109
31
25.0
  0
LINE
 8
Group#1
10
-2.707106781186365
20
15.542893218813438
30
25.0
11
-2.499999999999815
21
15.38397459621551
31
25.0
  0
LINE
 8
Group#1
10
-2.8660254037842465
20
15.749999999999966
30
25.0
11
-2.707106781186365
21
15.542893218813438
31
25.0
  0
LINE
 8
Group#1
10
-2.9659258262888963
20
15.991180954897454
30
25.0
11
-2.8660254037842465
21
15.749999999999966
31
25.0
  0
LINE
 8
Group#1
10
-2.9999999999998086
20
16.249999999999943
30
25.0
11
-2.9659258262888963
21
15.991180954897454
31
25.0
  0
LINE
 8
Group#1
10
-2.9999999999997744
20
24.24999999999997
30
25.0
11
-2.9999999999998086
21
16.249999999999943
31
25.0
  0
LINE
 8
Group#1
10
-2.9999999999997744
20
24.24999999999997
30
25.0
11
-2.965925826288857
21
24.508819045102463
31
25.0
  0
LINE
 8
Group#1
10
-2.965925826288857
20
24.508819045102463
30
25.0
11
-2.8660254037842297
21
24.749999999999993
31
25.0
  0
LINE
 8
Group#1
10
-2.8660254037842297
20
24.749999999999993
30
25.0
11
-2.7071067811863228
21
24.95710678118652
31
25.0
  0
LINE
 8
Group#1
10
-2.7071067811863228
20
24.95710678118652
30
25.0
11
-2.49999999999977
21
25.116025403784406
31
25.0
  0
LINE
 8
Group#1
10
-2.49999999999977
20
25.116025403784406
30
25.0
11
-2.258819045102305
21
25.21592582628905
31
25.0
  0
LINE
 8
Group#1
10
-2.258819045102305
20
25.21592582628905
30
25.0
11
-1.9999999999997706
21
25.249999999999968
31
25.0
  0
LINE
 8
Group#1
10
-1.9999999999997706
20
25.249999999999968
30
25.0
11
-1.7411809548972592
21
25.21592582628905
31
25.0
  0
LINE
 8
Group#1
10
-6.999999999999823
20
16.24999999999996
30
25.0
11
-6.965925826288911
21
15.991180954897473
31
25.0
  0
LINE
 8
Group#1
10
-6.9999999999997895
20
24.249999999999993
30
25.0
11
-6.999999999999823
21
16.24999999999996
31
25.0
  0
LINE
 8
Group#1
10
-6.9999999999997895
20
24.249999999999993
30
25.0
11
-6.965925826288872
21
24.50881904510248
31
25.0
  0
LINE
 8
Group#1
10
-6.965925826288872
20
24.50881904510248
30
25.0
11
-6.8660254037842225
21
24.75000000000001
31
25.0
  0
LINE
 8
Group#1
10
-6.8660254037842225
20
24.75000000000001
30
25.0
11
-6.707106781186338
21
24.95710678118654
31
25.0
  0
LINE
 8
Group#1
10
-6.707106781186338
20
24.95710678118654
30
25.0
11
-6.499999999999763
21
25.116025403784423
31
25.0
  0
LINE
 8
Group#1
10
-6.499999999999763
20
25.116025403784423
30
25.0
11
-6.258819045102275
21
25.21592582628907
31
25.0
  0
LINE
 8
Group#1
10
-6.258819045102275
20
25.21592582628907
30
25.0
11
-5.999999999999786
21
25.249999999999986
31
25.0
  0
LINE
 8
Group#1
10
-5.999999999999786
20
25.249999999999986
30
25.0
11
-5.741180954897274
21
25.21592582628907
31
25.0
  0
LINE
 8
Group#1
10
-5.741180954897274
20
25.21592582628907
30
25.0
11
-5.499999999999787
21
25.116025403784416
31
25.0
  0
LINE
 8
Group#1
10
-5.499999999999787
20
25.116025403784416
30
25.0
11
-5.29289321881324
21
24.957106781186532
31
25.0
  0
LINE
 8
Group#1
10
-5.29289321881324
20
24.957106781186532
30
25.0
11
-5.133974596215356
21
24.750000000000007
31
25.0
  0
LINE
 8
Group#1
10
-5.133974596215356
20
24.750000000000007
30
25.0
11
-5.034074173710706
21
24.508819045102474
31
25.0
  0
LINE
 8
Group#1
10
-5.034074173710706
20
24.508819045102474
30
25.0
11
-4.999999999999793
21
24.249999999999982
31
25.0
  0
LINE
 8
Group#1
10
-4.999999999999793
20
24.249999999999982
30
25.0
11
-4.999999999999828
21
16.24999999999995
31
25.0
  0
LINE
 8
Group#1
10
-5.034074173710745
20
15.991180954897464
30
25.0
11
-4.999999999999828
21
16.24999999999995
31
25.0
  0
LINE
 8
Group#1
10
-5.133974596215395
20
15.749999999999977
30
25.0
11
-5.034074173710745
21
15.991180954897464
31
25.0
  0
LINE
 8
Group#1
10
-5.292893218813282
20
15.542893218813449
30
25.0
11
-5.133974596215395
21
15.749999999999977
31
25.0
  0
LINE
 8
Group#1
10
-5.499999999999832
20
15.38397459621552
30
25.0
11
-5.292893218813282
21
15.542893218813449
31
25.0
  0
LINE
 8
Group#1
10
-5.741180954897319
20
15.284074173710918
30
25.0
11
-5.499999999999832
21
15.38397459621552
31
25.0
  0
LINE
 8
Group#1
10
-5.999999999999831
20
15.250000000000004
30
25.0
11
-5.741180954897319
21
15.284074173710918
31
25.0
  0
LINE
 8
Group#1
10
-6.25881904510232
20
15.284074173710918
30
25.0
11
-5.999999999999831
21
15.250000000000004
31
25.0
  0
LINE
 8
Group#1
10
-6.499999999999807
20
15.383974596215525
30
25.0
11
-6.25881904510232
21
15.284074173710918
31
25.0
  0
LINE
 8
Group#1
10
-6.70710678118638
20
15.542893218813456
30
25.0
11
-6.499999999999807
21
15.383974596215525
31
25.0
  0
LINE
 8
Group#1
10
-6.866025403784262
20
15.749999999999982
30
25.0
11
-6.70710678118638
21
15.542893218813456
31
25.0
  0
LINE
 8
Group#1
10
-6.965925826288911
20
15.991180954897473
30
25.0
11
-6.866025403784262
21
15.749999999999982
31
25.0
  0
LINE
 8
Group#1
10
-9.225000000000039
20
-29.157660624134188
30
25.0
11
-8.903984489160889
21
-29.403984489160933
31
25.0
  0
LINE
 8
Group#1
10
-8.903984489160889
20
-29.403984489160933
30
25.0
11
-8.657660624134145
21
-29.725000000000087
31
25.0
  0
LINE
 8
Group#1
10
-8.657660624134145
20
-29.725000000000087
30
25.0
11
-8.502814969251963
21
-30.098830480091163
31
25.0
  0
LINE
 8
Group#1
10
-8.502814969251963
20
-30.098830480091163
30
25.0
11
-8.450000000000044
21
-30.500000000000046
31
25.0
  0
LINE
 8
Group#1
10
-8.450000000000044
20
-30.500000000000046
30
25.0
11
-8.502814969251967
21
-30.901169519908972
31
25.0
  0
LINE
 8
Group#1
10
-8.502814969251967
20
-30.901169519908972
30
25.0
11
-8.657660624134154
21
-31.27500000000005
31
25.0
  0
LINE
 8
Group#1
10
-8.657660624134154
20
-31.27500000000005
30
25.0
11
-8.903984489160896
21
-31.596015510839205
31
25.0
  0
LINE
 8
Group#1
10
-8.903984489160896
20
-31.596015510839205
30
25.0
11
-9.225000000000053
21
-31.842339375865947
31
25.0
  0
LINE
 8
Group#1
10
-9.225000000000053
20
-31.842339375865947
30
25.0
11
-9.59883048009113
21
-31.99718503074813
31
25.0
  0
LINE
 8
Group#1
10
-9.59883048009113
20
-31.99718503074813
30
25.0
11
-10.000000000000059
21
-32.050000000000054
31
25.0
  0
LINE
 8
Group#1
10
-10.000000000000059
20
-32.050000000000054
30
25.0
11
-10.401169519908986
21
-31.99718503074812
31
25.0
  0
LINE
 8
Group#1
10
-10.401169519908986
20
-31.99718503074812
30
25.0
11
-10.775000000000063
21
-31.842339375865937
31
25.0
  0
LINE
 8
Group#1
10
-10.775000000000063
20
-31.842339375865937
30
25.0
11
-11.096015510839214
21
-31.59601551083919
31
25.0
  0
LINE
 8
Group#1
10
-11.096015510839214
20
-31.59601551083919
30
25.0
11
-11.342339375865956
21
-31.275000000000038
31
25.0
  0
LINE
 8
Group#1
10
-11.342339375865956
20
-31.275000000000038
30
25.0
11
-11.497185030748138
21
-30.90116951990896
31
25.0
  0
LINE
 8
Group#1
10
-11.497185030748138
20
-30.90116951990896
30
25.0
11
-11.550000000000061
21
-30.500000000000036
31
25.0
  0
LINE
 8
Group#1
10
-11.550000000000061
20
-30.500000000000036
30
25.0
11
-11.497185030748135
21
-30.098830480091152
31
25.0
  0
LINE
 8
Group#1
10
-11.497185030748135
20
-30.098830480091152
30
25.0
11
-11.342339375865947
21
-29.725000000000076
31
25.0
  0
LINE
 8
Group#1
10
-11.342339375865947
20
-29.725000000000076
30
25.0
11
-11.096015510839205
21
-29.403984489160923
31
25.0
  0
LINE
 8
Group#1
10
-11.096015510839205
20
-29.403984489160923
30
25.0
11
-10.775000000000048
21
-29.157660624134177
31
25.0
  0
LINE
 8
Group#1
10
-10.775000000000048
20
-29.157660624134177
30
25.0
11
-10.401169519908972
21
-29.002814969251993
31
25.0
  0
LINE
 8
Group#1
10
-10.401169519908972
20
-29.002814969251993
30
25.0
11
-10.000000000000044
21
-28.95000000000008
31
25.0
  0
LINE
 8
Group#1
10
-10.000000000000044
20
-28.95000000000008
30
25.0
11
-9.598830480091117
21
-29.002814969252004
31
25.0
  0
LINE
 8
Group#1
10
-9.598830480091117
20
-29.002814969252004
30
25.0
11
-9.225000000000039
21
-29.157660624134188
31
25.0
  0
LINE
 8
Group#1
10
-8.44999999999977
20
30.49999999999998
30
25.0
11
-8.50281496925169
21
30.901169519908905
31
25.0
  0
LINE
 8
Group#1
10
-8.502814969251695
20
30.098830480091095
30
25.0
11
-8.44999999999977
21
30.49999999999998
31
25.0
  0
LINE
 8
Group#1
10
-8.65766062413388
20
29.72500000000002
30
25.0
11
-8.502814969251695
21
30.098830480091095
31
25.0
  0
LINE
 8
Group#1
10
-8.903984489160626
20
29.403984489160866
30
25.0
11
-8.65766062413388
21
29.72500000000002
31
25.0
  0
LINE
 8
Group#1
10
-9.22499999999978
20
29.15766062413412
30
25.0
11
-8.903984489160626
21
29.403984489160866
31
25.0
  0
LINE
 8
Group#1
10
-9.598830480090857
20
29.002814969251936
30
25.0
11
-9.22499999999978
21
29.15766062413412
31
25.0
  0
LINE
 8
Group#1
10
-9.999999999999785
20
28.95000000000002
30
25.0
11
-9.598830480090857
21
29.002814969251936
31
25.0
  0
LINE
 8
Group#1
10
-10.401169519908713
20
29.002814969251943
30
25.0
11
-9.999999999999785
21
28.95000000000002
31
25.0
  0
LINE
 8
Group#1
10
-10.774999999999789
20
29.157660624134127
30
25.0
11
-10.401169519908713
21
29.002814969251943
31
25.0
  0
LINE
 8
Group#1
10
-11.096015510838942
20
29.403984489160877
30
25.0
11
-10.774999999999789
21
29.157660624134127
31
25.0
  0
LINE
 8
Group#1
10
-11.342339375865683
20
29.72500000000003
30
25.0
11
-11.096015510838942
21
29.403984489160877
31
25.0
  0
LINE
 8
Group#1
10
-11.497185030747868
20
30.098830480091106
30
25.0
11
-11.342339375865683
21
29.72500000000003
31
25.0
  0
LINE
 8
Group#1
10
-11.549999999999788
20
30.49999999999999
30
25.0
11
-11.497185030747868
21
30.098830480091106
31
25.0
  0
LINE
 8
Group#1
10
-11.497185030747861
20
30.901169519908915
30
25.0
11
-11.549999999999788
21
30.49999999999999
31
25.0
  0
LINE
 8
Group#1
10
-11.342339375865677
20
31.274999999999995
30
25.0
11
-11.497185030747861
21
30.901169519908915
31
25.0
  0
LINE
 8
Group#1
10
-11.096015510838932
20
31.59601551083915
30
25.0
11
-11.342339375865677
21
31.274999999999995
31
25.0
  0
LINE
 8
Group#1
10
-10.774999999999777
20
31.842339375865883
30
25.0
11
-11.096015510838932
21
31.59601551083915
31
25.0
  0
LINE
 8
Group#1
10
-10.4011695199087
20
31.99718503074807
30
25.0
11
-10.774999999999777
21
31.842339375865883
31
25.0
  0
LINE
 8
Group#1
10
-9.99999999999977
20
32.04999999999999
30
25.0
11
-10.4011695199087
21
31.99718503074807
31
25.0
  0
LINE
 8
Group#1
10
-9.598830480090845
20
31.997185030748064
30
25.0
11
-9.99999999999977
21
32.04999999999999
31
25.0
  0
LINE
 8
Group#1
10
-9.224999999999769
20
31.84233937586588
30
25.0
11
-9.598830480090845
21
31.997185030748064
31
25.0
  0
LINE
 8
Group#1
10
-8.903984489160615
20
31.596015510839138
30
25.0
11
-9.224999999999769
21
31.84233937586588
31
25.0
  0
LINE
 8
Group#1
10
-8.657660624133875
20
31.27499999999998
30
25.0
11
-8.903984489160615
21
31.596015510839138
31
25.0
  0
LINE
 8
Group#1
10
-8.50281496925169
20
30.901169519908905
30
25.0
11
-8.657660624133875
21
31.27499999999998
31
25.0
  0
LINE
 8
Group#1
10
-0.2588190451022464
20
33.96592582628904
30
25.0
11
2.6507684935950237e-13
21
33.99999999999996
31
25.0
  0
LINE
 8
Group#1
10
0.2588190451027766
20
33.96592582628904
30
25.0
11
2.6507684935950237e-13
21
33.99999999999996
31
25.0
  0
LINE
 8
Group#1
10
0.5000000000002613
20
33.866025403784384
30
25.0
11
0.2588190451027766
21
33.96592582628904
31
25.0
  0
LINE
 8
Group#1
10
0.7071067811868116
20
33.7071067811865
30
25.0
11
0.5000000000002613
21
33.866025403784384
31
25.0
  0
LINE
 8
Group#1
10
0.8660254037846958
20
33.49999999999997
30
25.0
11
0.7071067811868116
21
33.7071067811865
31
25.0
  0
LINE
 8
Group#1
10
0.9659258262893217
20
33.258819045102484
30
25.0
11
0.8660254037846958
21
33.49999999999997
31
25.0
  0
LINE
 8
Group#1
10
1.0000000000002576
20
32.99999999999995
30
25.0
11
0.9659258262893217
21
33.258819045102484
31
25.0
  0
LINE
 8
Group#1
10
1.0000000000002351
20
27.99999999999996
30
25.0
11
1.0000000000002576
21
32.99999999999995
31
25.0
  0
LINE
 8
Group#1
10
1.0000000000002351
20
27.99999999999996
30
25.0
11
0.9659258262892962
21
27.741180954897427
31
25.0
  0
LINE
 8
Group#1
10
0.9659258262892962
20
27.741180954897427
30
25.0
11
0.8660254037846676
21
27.499999999999982
31
25.0
  0
LINE
 8
Group#1
10
0.8660254037846676
20
27.499999999999982
30
25.0
11
0.7071067811867834
21
27.29289321881341
31
25.0
  0
LINE
 8
Group#1
10
0.7071067811867834
20
27.29289321881341
30
25.0
11
0.5000000000002331
21
27.133974596215527
31
25.0
  0
LINE
 8
Group#1
10
0.5000000000002331
20
27.133974596215527
30
25.0
11
0.25881904510274556
21
27.034074173710877
31
25.0
  0
LINE
 8
Group#1
10
0.25881904510274556
20
27.034074173710877
30
25.0
11
2.340572180514755e-13
21
26.999999999999968
31
25.0
  0
LINE
 8
Group#1
10
-0.25881904510227743
20
27.03407417371088
30
25.0
11
2.340572180514755e-13
21
26.999999999999968
31
25.0
  0
LINE
 8
Group#1
10
-0.499999999999765
20
27.13397459621553
30
25.0
11
-0.25881904510227743
21
27.03407417371088
31
25.0
  0
LINE
 8
Group#1
10
-0.7071067811863152
20
27.292893218813415
30
25.0
11
-0.499999999999765
21
27.13397459621553
31
25.0
  0
LINE
 8
Group#1
10
-0.8660254037841995
20
27.499999999999996
30
25.0
11
-0.7071067811863152
21
27.292893218813415
31
25.0
  0
LINE
 8
Group#1
10
-0.965925826288824
20
27.741180954897438
30
25.0
11
-0.8660254037841995
21
27.499999999999996
31
25.0
  0
LINE
 8
Group#1
10
-0.9999999999997613
20
27.99999999999997
30
25.0
11
-0.965925826288824
21
27.741180954897438
31
25.0
  0
LINE
 8
Group#1
10
-0.9999999999997613
20
27.99999999999997
30
25.0
11
-0.9999999999997388
21
32.999999999999964
31
25.0
  0
LINE
 8
Group#1
10
-0.9999999999997388
20
32.999999999999964
30
25.0
11
-0.9659258262888013
21
33.2588190451025
31
25.0
  0
LINE
 8
Group#1
10
-0.9659258262888013
20
33.2588190451025
30
25.0
11
-0.8660254037841713
21
33.499999999999986
31
25.0
  0
LINE
 8
Group#1
10
-0.8660254037841713
20
33.499999999999986
30
25.0
11
-0.707106781186287
21
33.7071067811865
31
25.0
  0
LINE
 8
Group#1
10
-0.707106781186287
20
33.7071067811865
30
25.0
11
-0.4999999999997368
21
33.86602540378439
31
25.0
  0
LINE
 8
Group#1
10
-0.4999999999997368
20
33.86602540378439
30
25.0
11
-0.2588190451022464
21
33.96592582628904
31
25.0
  0
LINE
 8
Group#1
10
-5.594543648262978
20
-14.30545635173705
30
23.0
11
-5.594543648262978
21
-14.30545635173705
31
25.0
  0
LINE
 8
Group#1
10
-12.545584412271335
20
33.04558441227161
30
23.0
11
-12.545584412271335
21
33.04558441227161
31
25.0
  0
LINE
 8
Group#1
10
-11.79999999999976
20
33.61769145362398
30
23.0
11
-11.79999999999976
21
33.61769145362398
31
25.0
  0
LINE
 8
Group#1
10
-3.6499999999999537
20
-13.500000000000055
30
23.0
11
-3.6499999999999537
21
-13.500000000000055
31
25.0
  0
LINE
 8
Group#1
10
-4.3617523740319
20
-13.593703977705138
30
23.0
11
-4.3617523740319
21
-13.593703977705138
31
25.0
  0
LINE
 8
Group#1
10
-12.545584412271628
20
-33.04558441227165
30
23.0
11
-12.545584412271628
21
-33.04558441227165
31
25.0
  0
LINE
 8
Group#1
10
-13.599999999999772
20
30.5
30
23.0
11
-13.599999999999772
21
30.5
31
25.0
  0
LINE
 8
Group#1
10
-13.477332974640419
20
31.431748562369123
30
23.0
11
-13.477332974640419
21
31.431748562369123
31
25.0
  0
LINE
 8
Group#1
10
-6.190668714406004
20
-15.19762056099604
30
23.0
11
-6.190668714406004
21
-15.19762056099604
31
25.0
  0
LINE
 8
Group#1
10
-6.30629602229493
20
-15.538247625968125
30
23.0
11
-6.30629602229493
21
-15.538247625968125
31
25.0
  0
LINE
 8
Group#1
10
-4.7023794390039635
20
-13.709331285594017
30
23.0
11
-4.7023794390039635
21
-13.709331285594017
31
25.0
  0
LINE
 8
Group#1
10
6.190668714406093
20
-15.197620560996096
30
23.0
11
6.031569860407275
21
-14.875000000000103
31
23.0
  0
LINE
 8
Group#1
10
6.190668714406093
20
-15.197620560996096
30
23.0
11
6.190668714406093
21
-15.197620560996096
31
25.0
  0
LINE
 8
Group#1
10
-6.400000000000036
20
-30.500000000000057
30
23.0
11
-6.400000000000036
21
-30.500000000000057
31
25.0
  0
LINE
 8
Group#1
10
-6.522667025359409
20
-31.431748562369133
30
23.0
11
-6.522667025359409
21
-31.431748562369133
31
25.0
  0
LINE
 8
Group#1
10
5.831721685800957
20
-14.575906070226106
30
23.0
11
5.594543648263074
21
-14.305456351737107
31
23.0
  0
LINE
 8
Group#1
10
5.594543648263074
20
-14.305456351737107
30
23.0
11
5.594543648263074
21
-14.305456351737107
31
25.0
  0
LINE
 8
Group#1
10
-6.882308546376083
20
-32.300000000000054
30
23.0
11
-6.882308546376083
21
-32.300000000000054
31
25.0
  0
LINE
 8
Group#1
10
-7.454415587728472
20
-33.04558441227162
30
23.0
11
-7.454415587728472
21
-33.04558441227162
31
25.0
  0
LINE
 8
Group#1
10
-0.9705714191341756
20
37.872221848583955
30
23.0
11
-0.9705714191341756
21
37.872221848583955
31
25.0
  0
LINE
 8
Group#1
10
2.8199664825478976e-13
20
37.99999999999995
30
23.0
11
2.8199664825478976e-13
21
37.99999999999995
31
25.0
  0
LINE
 8
Group#1
10
6.306296022295014
20
-15.538247625968182
30
23.0
11
6.190668714406093
21
-15.197620560996096
31
23.0
  0
LINE
 8
Group#1
10
5.594543648263074
20
-14.305456351737107
30
23.0
11
5.324093929774054
21
-14.068278314199222
31
23.0
  0
LINE
 8
Group#1
10
2.8199664825478976e-13
20
37.99999999999995
30
23.0
11
0.9705714191347395
21
37.87222184858394
31
23.0
  0
LINE
 8
Group#1
10
0.9705714191347395
20
37.87222184858394
30
23.0
11
0.9705714191347395
21
37.87222184858394
31
25.0
  0
LINE
 8
Group#1
10
-8.200000000000044
20
-33.61769145362404
30
23.0
11
-8.200000000000044
21
-33.61769145362404
31
25.0
  0
LINE
 8
Group#1
10
-9.06825143763099
20
-33.97733297464069
30
23.0
11
-9.06825143763099
21
-33.97733297464069
31
25.0
  0
LINE
 8
Group#1
10
-6.399999999999971
20
-16.25000000000005
30
23.0
11
-6.399999999999971
21
-16.25000000000005
31
25.0
  0
LINE
 8
Group#1
10
-13.117691453623747
20
32.30000000000004
30
23.0
11
-13.117691453623747
21
32.30000000000004
31
25.0
  0
LINE
 8
Group#1
10
-10.000000000000066
20
-34.10000000000004
30
23.0
11
-10.000000000000066
21
-34.10000000000004
31
25.0
  0
LINE
 8
Group#1
10
-13.117691453624035
20
-32.30000000000007
30
23.0
11
-13.117691453624035
21
-32.30000000000007
31
25.0
  0
LINE
 8
Group#1
10
5.025000000000058
20
-13.868430139592903
30
23.0
11
4.702379439004065
21
-13.70933128559405
31
23.0
  0
LINE
 8
Group#1
10
-6.3764733687779716
20
-15.891052971394888
30
23.0
11
-6.3764733687779716
21
-15.891052971394888
31
25.0
  0
LINE
 8
Group#1
10
-1.874999999999723
20
37.49759526419163
30
23.0
11
-1.874999999999723
21
37.49759526419163
31
25.0
  0
LINE
 8
Group#1
10
6.40000000000005
20
-16.250000000000107
30
23.0
11
6.376473368778055
21
-15.891052971394943
31
23.0
  0
LINE
 8
Group#1
10
6.40000000000005
20
-16.250000000000107
30
23.0
11
6.40000000000005
21
-16.250000000000107
31
25.0
  0
LINE
 8
Group#1
10
6.399999999999987
20
-30.500000000000114
30
23.0
11
6.40000000000005
21
-16.250000000000107
31
23.0
  0
LINE
 8
Group#1
10
6.399999999999987
20
-30.500000000000114
30
23.0
11
6.399999999999987
21
-30.500000000000114
31
25.0
  0
LINE
 8
Group#1
10
6.399999999999987
20
-30.500000000000114
30
23.0
11
6.522667025359353
21
-31.43174856236919
31
23.0
  0
LINE
 8
Group#1
10
6.522667025359353
20
-31.43174856236919
30
23.0
11
6.522667025359353
21
-31.43174856236919
31
25.0
  0
LINE
 8
Group#1
10
6.522667025359353
20
-31.43174856236919
30
23.0
11
6.88230854637602
21
-32.30000000000011
31
23.0
  0
LINE
 8
Group#1
10
6.88230854637602
20
-32.30000000000011
30
23.0
11
6.88230854637602
21
-32.30000000000011
31
25.0
  0
LINE
 8
Group#1
10
6.88230854637602
20
-32.30000000000011
30
23.0
11
7.4544155877284
21
-33.045584412271694
31
23.0
  0
LINE
 8
Group#1
10
7.4544155877284
20
-33.045584412271694
30
23.0
11
7.4544155877284
21
-33.045584412271694
31
25.0
  0
LINE
 8
Group#1
10
7.4544155877284
20
-33.045584412271694
30
23.0
11
8.199999999999969
21
-33.61769145362412
31
23.0
  0
LINE
 8
Group#1
10
8.199999999999969
20
-33.61769145362412
30
23.0
11
8.199999999999969
21
-33.61769145362412
31
25.0
  0
LINE
 8
Group#1
10
8.199999999999969
20
-33.61769145362412
30
23.0
11
9.06825143763091
21
-33.977332974640774
31
23.0
  0
LINE
 8
Group#1
10
9.06825143763091
20
-33.977332974640774
30
23.0
11
9.06825143763091
21
-33.977332974640774
31
25.0
  0
LINE
 8
Group#1
10
9.06825143763091
20
-33.977332974640774
30
23.0
11
9.999999999999988
21
-34.10000000000013
31
23.0
  0
LINE
 8
Group#1
10
9.999999999999988
20
-34.10000000000013
30
23.0
11
9.999999999999988
21
-34.10000000000013
31
25.0
  0
LINE
 8
Group#1
10
9.999999999999988
20
-34.10000000000013
30
23.0
11
10.931748562369043
21
-33.97733297464078
31
23.0
  0
LINE
 8
Group#1
10
10.931748562369043
20
-33.97733297464078
30
23.0
11
10.931748562369043
21
-33.97733297464078
31
25.0
  0
LINE
 8
Group#1
10
10.931748562369043
20
-33.97733297464078
30
23.0
11
11.799999999999985
21
-33.61769145362413
31
23.0
  0
LINE
 8
Group#1
10
11.799999999999985
20
-33.61769145362413
30
23.0
11
11.799999999999985
21
-33.61769145362413
31
25.0
  0
LINE
 8
Group#1
10
11.799999999999985
20
-33.61769145362413
30
23.0
11
12.54558441227156
21
-33.04558441227176
31
23.0
  0
LINE
 8
Group#1
10
12.54558441227156
20
-33.04558441227176
30
23.0
11
12.54558441227156
21
-33.04558441227176
31
25.0
  0
LINE
 8
Group#1
10
12.54558441227156
20
-33.04558441227176
30
23.0
11
13.11769145362397
21
-32.30000000000019
31
23.0
  0
LINE
 8
Group#1
10
13.11769145362397
20
-32.30000000000019
30
23.0
11
13.11769145362397
21
-32.30000000000019
31
25.0
  0
LINE
 8
Group#1
10
13.11769145362397
20
-32.30000000000019
30
23.0
11
13.477332974640644
21
-31.43174856236927
31
23.0
  0
LINE
 8
Group#1
10
13.477332974640644
20
-31.43174856236927
30
23.0
11
13.477332974640644
21
-31.43174856236927
31
25.0
  0
LINE
 8
Group#1
10
13.477332974640644
20
-31.43174856236927
30
23.0
11
13.599999999999994
21
-30.500000000000146
31
23.0
  0
LINE
 8
Group#1
10
13.599999999999994
20
-30.500000000000146
30
23.0
11
13.599999999999994
21
-30.500000000000146
31
25.0
  0
LINE
 8
Group#1
10
13.599999999999994
20
-30.500000000000146
30
23.0
11
13.600000000000268
21
30.499999999999876
31
23.0
  0
LINE
 8
Group#1
10
13.600000000000268
20
30.499999999999876
30
23.0
11
13.600000000000268
21
30.499999999999876
31
25.0
  0
LINE
 8
Group#1
10
13.477332974640927
20
31.431748562369
30
23.0
11
13.600000000000268
21
30.499999999999876
31
23.0
  0
LINE
 8
Group#1
10
13.477332974640927
20
31.431748562369
30
23.0
11
13.477332974640927
21
31.431748562369
31
25.0
  0
LINE
 8
Group#1
10
13.117691453624257
20
32.29999999999992
30
23.0
11
13.477332974640927
21
31.431748562369
31
23.0
  0
LINE
 8
Group#1
10
13.117691453624257
20
32.29999999999992
30
23.0
11
13.117691453624257
21
32.29999999999992
31
25.0
  0
LINE
 8
Group#1
10
12.545584412271854
20
33.045584412271495
30
23.0
11
13.117691453624257
21
32.29999999999992
31
23.0
  0
LINE
 8
Group#1
10
12.545584412271854
20
33.045584412271495
30
23.0
11
12.545584412271854
21
33.045584412271495
31
25.0
  0
LINE
 8
Group#1
10
11.800000000000285
20
33.61769145362388
30
23.0
11
12.545584412271854
21
33.045584412271495
31
23.0
  0
LINE
 8
Group#1
10
11.800000000000285
20
33.61769145362388
30
23.0
11
11.800000000000285
21
33.61769145362388
31
25.0
  0
LINE
 8
Group#1
10
1.8750000000002813
20
37.49759526419162
30
23.0
11
11.800000000000285
21
33.61769145362388
31
23.0
  0
LINE
 8
Group#1
10
1.8750000000002813
20
37.49759526419162
30
23.0
11
1.8750000000002813
21
37.49759526419162
31
25.0
  0
LINE
 8
Group#1
10
0.9705714191347395
20
37.87222184858394
30
23.0
11
1.8750000000002813
21
37.49759526419162
31
23.0
  0
LINE
 8
Group#1
10
8.450000000000266
20
30.4999999999999
30
23.0
11
8.502814969252192
21
30.901169519908827
31
23.0
  0
LINE
 8
Group#1
10
8.502814969252192
20
30.901169519908827
30
23.0
11
8.502814969252192
21
30.901169519908827
31
25.0
  0
LINE
 8
Group#1
10
8.450000000000266
20
30.4999999999999
30
23.0
11
8.450000000000266
21
30.4999999999999
31
25.0
  0
LINE
 8
Group#1
10
8.502814969252192
20
30.901169519908827
30
23.0
11
8.657660624134376
21
31.274999999999903
31
23.0
  0
LINE
 8
Group#1
10
8.657660624134376
20
31.274999999999903
30
23.0
11
8.657660624134376
21
31.274999999999903
31
25.0
  0
LINE
 8
Group#1
10
8.657660624134376
20
31.274999999999903
30
23.0
11
8.903984489161122
21
31.596015510839056
31
23.0
  0
LINE
 8
Group#1
10
8.903984489161122
20
31.596015510839056
30
23.0
11
8.903984489161122
21
31.596015510839056
31
25.0
  0
LINE
 8
Group#1
10
8.903984489161122
20
31.596015510839056
30
23.0
11
9.225000000000277
21
31.8423393758658
31
23.0
  0
LINE
 8
Group#1
10
9.225000000000277
20
31.8423393758658
30
23.0
11
9.225000000000277
21
31.8423393758658
31
25.0
  0
LINE
 8
Group#1
10
9.225000000000277
20
31.8423393758658
30
23.0
11
9.598830480091355
21
31.99718503074798
31
23.0
  0
LINE
 8
Group#1
10
9.598830480091355
20
31.99718503074798
30
23.0
11
9.598830480091355
21
31.99718503074798
31
25.0
  0
LINE
 8
Group#1
10
9.598830480091355
20
31.99718503074798
30
23.0
11
10.000000000000282
21
32.049999999999905
31
23.0
  0
LINE
 8
Group#1
10
10.000000000000282
20
32.049999999999905
30
23.0
11
10.000000000000282
21
32.049999999999905
31
25.0
  0
LINE
 8
Group#1
10
10.000000000000282
20
32.049999999999905
30
23.0
11
10.40116951990921
21
31.997185030747975
31
23.0
  0
LINE
 8
Group#1
10
10.40116951990921
20
31.997185030747975
30
23.0
11
10.40116951990921
21
31.997185030747975
31
25.0
  0
LINE
 8
Group#1
10
10.40116951990921
20
31.997185030747975
30
23.0
11
10.775000000000285
21
31.842339375865787
31
23.0
  0
LINE
 8
Group#1
10
10.775000000000285
20
31.842339375865787
30
23.0
11
10.775000000000285
21
31.842339375865787
31
25.0
  0
LINE
 8
Group#1
10
10.775000000000285
20
31.842339375865787
30
23.0
11
11.09601551083944
21
31.596015510839045
31
23.0
  0
LINE
 8
Group#1
10
11.09601551083944
20
31.596015510839045
30
23.0
11
11.09601551083944
21
31.596015510839045
31
25.0
  0
LINE
 8
Group#1
10
11.09601551083944
20
31.596015510839045
30
23.0
11
11.34233937586618
21
31.274999999999892
31
23.0
  0
LINE
 8
Group#1
10
11.34233937586618
20
31.274999999999892
30
23.0
11
11.34233937586618
21
31.274999999999892
31
25.0
  0
LINE
 8
Group#1
10
11.34233937586618
20
31.274999999999892
30
23.0
11
11.497185030748364
21
30.901169519908816
31
23.0
  0
LINE
 8
Group#1
10
11.497185030748364
20
30.901169519908816
30
23.0
11
11.497185030748364
21
30.901169519908816
31
25.0
  0
LINE
 8
Group#1
10
11.497185030748364
20
30.901169519908816
30
23.0
11
11.550000000000283
21
30.499999999999886
31
23.0
  0
LINE
 8
Group#1
10
11.550000000000283
20
30.499999999999886
30
23.0
11
11.550000000000283
21
30.499999999999886
31
25.0
  0
LINE
 8
Group#1
10
11.550000000000283
20
30.499999999999886
30
23.0
11
11.49718503074836
21
30.098830480091006
31
23.0
  0
LINE
 8
Group#1
10
11.49718503074836
20
30.098830480091006
30
23.0
11
11.49718503074836
21
30.098830480091006
31
25.0
  0
LINE
 8
Group#1
10
11.49718503074836
20
30.098830480091006
30
23.0
11
11.342339375866173
21
29.72499999999993
31
23.0
  0
LINE
 8
Group#1
10
11.342339375866173
20
29.72499999999993
30
23.0
11
11.342339375866173
21
29.72499999999993
31
25.0
  0
LINE
 8
Group#1
10
11.342339375866173
20
29.72499999999993
30
23.0
11
11.096015510839429
21
29.403984489160774
31
23.0
  0
LINE
 8
Group#1
10
11.096015510839429
20
29.403984489160774
30
23.0
11
11.096015510839429
21
29.403984489160774
31
25.0
  0
LINE
 8
Group#1
10
11.096015510839429
20
29.403984489160774
30
23.0
11
10.775000000000274
21
29.15766062413403
31
23.0
  0
LINE
 8
Group#1
10
10.775000000000274
20
29.15766062413403
30
23.0
11
10.775000000000274
21
29.15766062413403
31
25.0
  0
LINE
 8
Group#1
10
10.775000000000274
20
29.15766062413403
30
23.0
11
10.401169519909198
21
29.002814969251848
31
23.0
  0
LINE
 8
Group#1
10
10.401169519909198
20
29.002814969251848
30
23.0
11
10.401169519909198
21
29.002814969251848
31
25.0
  0
LINE
 8
Group#1
10
10.401169519909198
20
29.002814969251848
30
23.0
11
10.00000000000027
21
28.949999999999932
31
23.0
  0
LINE
 8
Group#1
10
10.00000000000027
20
28.949999999999932
30
23.0
11
10.00000000000027
21
28.949999999999932
31
25.0
  0
LINE
 8
Group#1
10
10.00000000000027
20
28.949999999999932
30
23.0
11
9.598830480091342
21
29.00281496925185
31
23.0
  0
LINE
 8
Group#1
10
9.598830480091342
20
29.00281496925185
30
23.0
11
9.598830480091342
21
29.00281496925185
31
25.0
  0
LINE
 8
Group#1
10
9.598830480091342
20
29.00281496925185
30
23.0
11
9.225000000000264
21
29.157660624134042
31
23.0
  0
LINE
 8
Group#1
10
9.225000000000264
20
29.157660624134042
30
23.0
11
9.225000000000264
21
29.157660624134042
31
25.0
  0
LINE
 8
Group#1
10
9.225000000000264
20
29.157660624134042
30
23.0
11
8.903984489161113
21
29.403984489160784
31
23.0
  0
LINE
 8
Group#1
10
8.903984489161113
20
29.403984489160784
30
23.0
11
8.903984489161113
21
29.403984489160784
31
25.0
  0
LINE
 8
Group#1
10
8.903984489161113
20
29.403984489160784
30
23.0
11
8.65766062413437
21
29.72499999999994
31
23.0
  0
LINE
 8
Group#1
10
8.65766062413437
20
29.72499999999994
30
23.0
11
8.65766062413437
21
29.72499999999994
31
25.0
  0
LINE
 8
Group#1
10
8.65766062413437
20
29.72499999999994
30
23.0
11
8.502814969252187
21
30.098830480091017
31
23.0
  0
LINE
 8
Group#1
10
8.502814969252187
20
30.098830480091017
30
23.0
11
8.502814969252187
21
30.098830480091017
31
25.0
  0
LINE
 8
Group#1
10
8.502814969252187
20
30.098830480091017
30
23.0
11
8.450000000000266
21
30.4999999999999
31
23.0
  0
LINE
 8
Group#1
10
9.225000000000005
20
-29.15766062413427
30
23.0
11
8.903984489160848
21
-29.40398448916101
31
23.0
  0
LINE
 8
Group#1
10
9.225000000000005
20
-29.15766062413427
30
23.0
11
9.225000000000005
21
-29.15766062413427
31
25.0
  0
LINE
 8
Group#1
10
8.903984489160848
20
-29.40398448916101
30
23.0
11
8.903984489160848
21
-29.40398448916101
31
25.0
  0
LINE
 8
Group#1
10
9.598830480091083
20
-29.002814969252082
30
23.0
11
9.225000000000005
21
-29.15766062413427
31
23.0
  0
LINE
 8
Group#1
10
9.598830480091083
20
-29.002814969252082
30
23.0
11
9.598830480091083
21
-29.002814969252082
31
25.0
  0
LINE
 8
Group#1
10
10.00000000000001
20
-28.950000000000173
30
23.0
11
9.598830480091083
21
-29.002814969252082
31
23.0
  0
LINE
 8
Group#1
10
10.00000000000001
20
-28.950000000000173
30
23.0
11
10.00000000000001
21
-28.950000000000173
31
25.0
  0
LINE
 8
Group#1
10
10.401169519908938
20
-29.002814969252096
30
23.0
11
10.00000000000001
21
-28.950000000000173
31
23.0
  0
LINE
 8
Group#1
10
10.401169519908938
20
-29.002814969252096
30
23.0
11
10.401169519908938
21
-29.002814969252096
31
25.0
  0
LINE
 8
Group#1
10
10.775000000000013
20
-29.15766062413428
30
23.0
11
10.401169519908938
21
-29.002814969252096
31
23.0
  0
LINE
 8
Group#1
10
10.775000000000013
20
-29.15766062413428
30
23.0
11
10.775000000000013
21
-29.15766062413428
31
25.0
  0
LINE
 8
Group#1
10
11.096015510839166
20
-29.403984489161022
30
23.0
11
10.775000000000013
21
-29.15766062413428
31
23.0
  0
LINE
 8
Group#1
10
11.096015510839166
20
-29.403984489161022
30
23.0
11
11.096015510839166
21
-29.403984489161022
31
25.0
  0
LINE
 8
Group#1
10
11.342339375865906
20
-29.725000000000176
30
23.0
11
11.096015510839166
21
-29.403984489161022
31
23.0
  0
LINE
 8
Group#1
10
11.342339375865906
20
-29.725000000000176
30
23.0
11
11.342339375865906
21
-29.725000000000176
31
25.0
  0
LINE
 8
Group#1
10
11.49718503074809
20
-30.09883048009125
30
23.0
11
11.342339375865906
21
-29.725000000000176
31
23.0
  0
LINE
 8
Group#1
10
11.49718503074809
20
-30.09883048009125
30
23.0
11
11.49718503074809
21
-30.09883048009125
31
25.0
  0
LINE
 8
Group#1
10
11.550000000000011
20
-30.500000000000135
30
23.0
11
11.49718503074809
21
-30.09883048009125
31
23.0
  0
LINE
 8
Group#1
10
11.550000000000011
20
-30.500000000000135
30
23.0
11
11.550000000000011
21
-30.500000000000135
31
25.0
  0
LINE
 8
Group#1
10
11.497185030748087
20
-30.901169519909065
30
23.0
11
11.550000000000011
21
-30.500000000000135
31
23.0
  0
LINE
 8
Group#1
10
11.497185030748087
20
-30.901169519909065
30
23.0
11
11.497185030748087
21
-30.901169519909065
31
25.0
  0
LINE
 8
Group#1
10
11.3423393758659
20
-31.27500000000014
30
23.0
11
11.497185030748087
21
-30.901169519909065
31
23.0
  0
LINE
 8
Group#1
10
11.3423393758659
20
-31.27500000000014
30
23.0
11
11.3423393758659
21
-31.27500000000014
31
25.0
  0
LINE
 8
Group#1
10
11.096015510839157
20
-31.596015510839294
30
23.0
11
11.3423393758659
21
-31.27500000000014
31
23.0
  0
LINE
 8
Group#1
10
11.096015510839157
20
-31.596015510839294
30
23.0
11
11.096015510839157
21
-31.596015510839294
31
25.0
  0
LINE
 8
Group#1
10
10.775000000000002
20
-31.842339375866036
30
23.0
11
11.096015510839157
21
-31.596015510839294
31
23.0
  0
LINE
 8
Group#1
10
10.775000000000002
20
-31.842339375866036
30
23.0
11
10.775000000000002
21
-31.842339375866036
31
25.0
  0
LINE
 8
Group#1
10
10.401169519908924
20
-31.997185030748224
30
23.0
11
10.775000000000002
21
-31.842339375866036
31
23.0
  0
LINE
 8
Group#1
10
10.401169519908924
20
-31.997185030748224
30
23.0
11
10.401169519908924
21
-31.997185030748224
31
25.0
  0
LINE
 8
Group#1
10
9.999999999999996
20
-32.050000000000146
30
23.0
11
10.401169519908924
21
-31.997185030748224
31
23.0
  0
LINE
 8
Group#1
10
9.999999999999996
20
-32.050000000000146
30
23.0
11
9.999999999999996
21
-32.050000000000146
31
25.0
  0
LINE
 8
Group#1
10
9.598830480091069
20
-31.99718503074821
30
23.0
11
9.999999999999996
21
-32.050000000000146
31
23.0
  0
LINE
 8
Group#1
10
9.598830480091069
20
-31.99718503074821
30
23.0
11
9.598830480091069
21
-31.99718503074821
31
25.0
  0
LINE
 8
Group#1
10
9.22499999999999
20
-31.842339375866025
30
23.0
11
9.598830480091069
21
-31.99718503074821
31
23.0
  0
LINE
 8
Group#1
10
9.22499999999999
20
-31.842339375866025
30
23.0
11
9.22499999999999
21
-31.842339375866025
31
25.0
  0
LINE
 8
Group#1
10
8.903984489160841
20
-31.596015510839283
30
23.0
11
9.22499999999999
21
-31.842339375866025
31
23.0
  0
LINE
 8
Group#1
10
8.903984489160841
20
-31.596015510839283
30
23.0
11
8.903984489160841
21
-31.596015510839283
31
25.0
  0
LINE
 8
Group#1
10
8.657660624134097
20
-31.27500000000013
30
23.0
11
8.903984489160841
21
-31.596015510839283
31
23.0
  0
LINE
 8
Group#1
10
8.657660624134097
20
-31.27500000000013
30
23.0
11
8.657660624134097
21
-31.27500000000013
31
25.0
  0
LINE
 8
Group#1
10
8.502814969251915
20
-30.901169519909054
30
23.0
11
8.657660624134097
21
-31.27500000000013
31
23.0
  0
LINE
 8
Group#1
10
8.502814969251915
20
-30.901169519909054
30
23.0
11
8.502814969251915
21
-30.901169519909054
31
25.0
  0
LINE
 8
Group#1
10
8.449999999999994
20
-30.500000000000124
30
23.0
11
8.502814969251915
21
-30.901169519909054
31
23.0
  0
LINE
 8
Group#1
10
8.449999999999994
20
-30.500000000000124
30
23.0
11
8.449999999999994
21
-30.500000000000124
31
25.0
  0
LINE
 8
Group#1
10
8.502814969251919
20
-30.09883048009124
30
23.0
11
8.449999999999994
21
-30.500000000000124
31
23.0
  0
LINE
 8
Group#1
10
8.502814969251919
20
-30.09883048009124
30
23.0
11
8.502814969251919
21
-30.09883048009124
31
25.0
  0
LINE
 8
Group#1
10
8.657660624134106
20
-29.725000000000165
30
23.0
11
8.502814969251919
21
-30.09883048009124
31
23.0
  0
LINE
 8
Group#1
10
8.657660624134106
20
-29.725000000000165
30
23.0
11
8.657660624134106
21
-29.725000000000165
31
25.0
  0
LINE
 8
Group#1
10
8.903984489160848
20
-29.40398448916101
30
23.0
11
8.657660624134106
21
-29.725000000000165
31
23.0
  0
LINE
 8
Group#1
10
7.0000000000001945
20
16.249999999999897
30
23.0
11
6.965925826289278
21
15.99118095489741
31
23.0
  0
LINE
 8
Group#1
10
6.965925826289278
20
15.99118095489741
30
23.0
11
6.965925826289278
21
15.99118095489741
31
25.0
  0
LINE
 8
Group#1
10
7.0000000000001945
20
16.249999999999897
30
23.0
11
7.0000000000001945
21
16.249999999999897
31
25.0
  0
LINE
 8
Group#1
10
6.965925826289278
20
15.99118095489741
30
23.0
11
6.866025403784627
21
15.749999999999924
31
23.0
  0
LINE
 8
Group#1
10
6.866025403784627
20
15.749999999999924
30
23.0
11
6.866025403784627
21
15.749999999999924
31
25.0
  0
LINE
 8
Group#1
10
6.866025403784627
20
15.749999999999924
30
23.0
11
6.707106781186742
21
15.542893218813395
31
23.0
  0
LINE
 8
Group#1
10
6.707106781186742
20
15.542893218813395
30
23.0
11
6.707106781186742
21
15.542893218813395
31
25.0
  0
LINE
 8
Group#1
10
6.707106781186742
20
15.542893218813395
30
23.0
11
6.500000000000169
21
15.383974596215467
31
23.0
  0
LINE
 8
Group#1
10
6.500000000000169
20
15.383974596215467
30
23.0
11
6.500000000000169
21
15.383974596215467
31
25.0
  0
LINE
 8
Group#1
10
6.500000000000169
20
15.383974596215467
30
23.0
11
6.258819045102681
21
15.284074173710865
31
23.0
  0
LINE
 8
Group#1
10
6.258819045102681
20
15.284074173710865
30
23.0
11
6.258819045102681
21
15.284074173710865
31
25.0
  0
LINE
 8
Group#1
10
6.258819045102681
20
15.284074173710865
30
23.0
11
6.000000000000192
21
15.24999999999995
31
23.0
  0
LINE
 8
Group#1
10
6.000000000000192
20
15.24999999999995
30
23.0
11
6.000000000000192
21
15.24999999999995
31
25.0
  0
LINE
 8
Group#1
10
6.000000000000192
20
15.24999999999995
30
23.0
11
5.741180954897681
21
15.284074173710865
31
23.0
  0
LINE
 8
Group#1
10
5.741180954897681
20
15.284074173710865
30
23.0
11
5.741180954897681
21
15.284074173710865
31
25.0
  0
LINE
 8
Group#1
10
5.741180954897681
20
15.284074173710865
30
23.0
11
5.500000000000193
21
15.383974596215472
31
23.0
  0
LINE
 8
Group#1
10
5.500000000000193
20
15.383974596215472
30
23.0
11
5.500000000000193
21
15.383974596215472
31
25.0
  0
LINE
 8
Group#1
10
5.500000000000193
20
15.383974596215472
30
23.0
11
5.292893218813644
21
15.5428932188134
31
23.0
  0
LINE
 8
Group#1
10
5.292893218813644
20
15.5428932188134
30
23.0
11
5.292893218813644
21
15.5428932188134
31
25.0
  0
LINE
 8
Group#1
10
5.292893218813644
20
15.5428932188134
30
23.0
11
5.13397459621576
21
15.749999999999929
31
23.0
  0
LINE
 8
Group#1
10
5.13397459621576
20
15.749999999999929
30
23.0
11
5.13397459621576
21
15.749999999999929
31
25.0
  0
LINE
 8
Group#1
10
5.13397459621576
20
15.749999999999929
30
23.0
11
5.034074173711112
21
15.99118095489742
31
23.0
  0
LINE
 8
Group#1
10
5.034074173711112
20
15.99118095489742
30
23.0
11
5.034074173711112
21
15.99118095489742
31
25.0
  0
LINE
 8
Group#1
10
5.034074173711112
20
15.99118095489742
30
23.0
11
5.000000000000198
21
16.249999999999908
31
23.0
  0
LINE
 8
Group#1
10
5.000000000000198
20
16.249999999999908
30
23.0
11
5.000000000000198
21
16.249999999999908
31
25.0
  0
LINE
 8
Group#1
10
5.000000000000234
20
24.24999999999994
30
23.0
11
5.000000000000198
21
16.249999999999908
31
23.0
  0
LINE
 8
Group#1
10
5.000000000000234
20
24.24999999999994
30
23.0
11
5.000000000000234
21
24.24999999999994
31
25.0
  0
LINE
 8
Group#1
10
5.03407417371115
20
24.508819045102427
30
23.0
11
5.000000000000234
21
24.24999999999994
31
23.0
  0
LINE
 8
Group#1
10
5.03407417371115
20
24.508819045102427
30
23.0
11
5.03407417371115
21
24.508819045102427
31
25.0
  0
LINE
 8
Group#1
10
5.1339745962158005
20
24.749999999999957
30
23.0
11
5.03407417371115
21
24.508819045102427
31
23.0
  0
LINE
 8
Group#1
10
5.1339745962158005
20
24.749999999999957
30
23.0
11
5.1339745962158005
21
24.749999999999957
31
25.0
  0
LINE
 8
Group#1
10
5.292893218813687
20
24.957106781186486
30
23.0
11
5.1339745962158005
21
24.749999999999957
31
23.0
  0
LINE
 8
Group#1
10
5.292893218813687
20
24.957106781186486
30
23.0
11
5.292893218813687
21
24.957106781186486
31
25.0
  0
LINE
 8
Group#1
10
5.500000000000236
20
25.11602540378437
30
23.0
11
5.292893218813687
21
24.957106781186486
31
23.0
  0
LINE
 8
Group#1
10
5.500000000000236
20
25.11602540378437
30
23.0
11
5.500000000000236
21
25.11602540378437
31
25.0
  0
LINE
 8
Group#1
10
5.741180954897724
20
25.215925826289016
30
23.0
11
5.500000000000236
21
25.11602540378437
31
23.0
  0
LINE
 8
Group#1
10
5.741180954897724
20
25.215925826289016
30
23.0
11
5.741180954897724
21
25.215925826289016
31
25.0
  0
LINE
 8
Group#1
10
6.000000000000237
20
25.249999999999932
30
23.0
11
5.741180954897724
21
25.215925826289016
31
23.0
  0
LINE
 8
Group#1
10
6.000000000000237
20
25.249999999999932
30
23.0
11
6.000000000000237
21
25.249999999999932
31
25.0
  0
LINE
 8
Group#1
10
6.258819045102725
20
25.215925826289016
30
23.0
11
6.000000000000237
21
25.249999999999932
31
23.0
  0
LINE
 8
Group#1
10
6.258819045102725
20
25.215925826289016
30
23.0
11
6.258819045102725
21
25.215925826289016
31
25.0
  0
LINE
 8
Group#1
10
6.500000000000212
20
25.116025403784363
30
23.0
11
6.258819045102725
21
25.215925826289016
31
23.0
  0
LINE
 8
Group#1
10
6.500000000000212
20
25.116025403784363
30
23.0
11
6.500000000000212
21
25.116025403784363
31
25.0
  0
LINE
 8
Group#1
10
6.707106781186785
20
24.95710678118648
30
23.0
11
6.500000000000212
21
25.116025403784363
31
23.0
  0
LINE
 8
Group#1
10
6.707106781186785
20
24.95710678118648
30
23.0
11
6.707106781186785
21
24.95710678118648
31
25.0
  0
LINE
 8
Group#1
10
6.8660254037846675
20
24.74999999999995
30
23.0
11
6.707106781186785
21
24.95710678118648
31
23.0
  0
LINE
 8
Group#1
10
6.8660254037846675
20
24.74999999999995
30
23.0
11
6.8660254037846675
21
24.74999999999995
31
25.0
  0
LINE
 8
Group#1
10
6.9659258262893164
20
24.50881904510242
30
23.0
11
6.8660254037846675
21
24.74999999999995
31
23.0
  0
LINE
 8
Group#1
10
6.9659258262893164
20
24.50881904510242
30
23.0
11
6.9659258262893164
21
24.50881904510242
31
25.0
  0
LINE
 8
Group#1
10
7.00000000000023
20
24.24999999999993
30
23.0
11
6.9659258262893164
21
24.50881904510242
31
23.0
  0
LINE
 8
Group#1
10
7.00000000000023
20
24.24999999999993
30
23.0
11
7.00000000000023
21
24.24999999999993
31
25.0
  0
LINE
 8
Group#1
10
7.00000000000023
20
24.24999999999993
30
23.0
11
7.0000000000001945
21
16.249999999999897
31
23.0
  0
LINE
 8
Group#1
10
1.741180954897709
20
25.215925826289038
30
23.0
11
1.5000000000002214
21
25.116025403784388
31
23.0
  0
LINE
 8
Group#1
10
1.741180954897709
20
25.215925826289038
30
23.0
11
1.741180954897709
21
25.215925826289038
31
25.0
  0
LINE
 8
Group#1
10
1.5000000000002214
20
25.116025403784388
30
23.0
11
1.5000000000002214
21
25.116025403784388
31
25.0
  0
LINE
 8
Group#1
10
2.000000000000222
20
25.249999999999947
30
23.0
11
1.741180954897709
21
25.215925826289038
31
23.0
  0
LINE
 8
Group#1
10
2.000000000000222
20
25.249999999999947
30
23.0
11
2.000000000000222
21
25.249999999999947
31
25.0
  0
LINE
 8
Group#1
10
2.2588190451027548
20
25.215925826289034
30
23.0
11
2.000000000000222
21
25.249999999999947
31
23.0
  0
LINE
 8
Group#1
10
2.2588190451027548
20
25.215925826289034
30
23.0
11
2.2588190451027548
21
25.215925826289034
31
25.0
  0
LINE
 8
Group#1
10
2.50000000000022
20
25.116025403784384
30
23.0
11
2.2588190451027548
21
25.215925826289034
31
23.0
  0
LINE
 8
Group#1
10
2.50000000000022
20
25.116025403784384
30
23.0
11
2.50000000000022
21
25.116025403784384
31
25.0
  0
LINE
 8
Group#1
10
2.70710678118677
20
24.957106781186496
30
23.0
11
2.50000000000022
21
25.116025403784384
31
23.0
  0
LINE
 8
Group#1
10
2.70710678118677
20
24.957106781186496
30
23.0
11
2.70710678118677
21
24.957106781186496
31
25.0
  0
LINE
 8
Group#1
10
2.866025403784675
20
24.749999999999968
30
23.0
11
2.70710678118677
21
24.957106781186496
31
23.0
  0
LINE
 8
Group#1
10
2.866025403784675
20
24.749999999999968
30
23.0
11
2.866025403784675
21
24.749999999999968
31
25.0
  0
LINE
 8
Group#1
10
2.965925826289301
20
24.508819045102435
30
23.0
11
2.965925826289301
21
24.508819045102435
31
25.0
  0
LINE
 8
Group#1
10
1.5000000000002214
20
25.116025403784388
30
23.0
11
1.2928932188136713
21
24.957106781186503
31
23.0
  0
LINE
 8
Group#1
10
1.2928932188136713
20
24.957106781186503
30
23.0
11
1.1339745962157857
21
24.74999999999998
31
23.0
  0
LINE
 8
Group#1
10
1.1339745962157857
20
24.74999999999998
30
23.0
11
1.034074173711157
21
24.508819045102445
31
23.0
  0
LINE
 8
Group#1
10
1.034074173711157
20
24.508819045102445
30
23.0
11
1.000000000000218
21
24.249999999999954
31
23.0
  0
LINE
 8
Group#1
10
1.000000000000218
20
24.249999999999954
30
23.0
11
1.000000000000183
21
16.249999999999925
31
23.0
  0
LINE
 8
Group#1
10
1.0340741737111188
20
15.991180954897436
30
23.0
11
1.000000000000183
21
16.249999999999925
31
23.0
  0
LINE
 8
Group#1
10
1.1339745962157446
20
15.749999999999948
30
23.0
11
1.0340741737111188
21
15.991180954897436
31
23.0
  0
LINE
 8
Group#1
10
1.2928932188136288
20
15.54289321881342
30
23.0
11
1.1339745962157446
21
15.749999999999948
31
23.0
  0
LINE
 8
Group#1
10
1.5000000000001776
20
15.383974596215488
30
23.0
11
1.2928932188136288
21
15.54289321881342
31
23.0
  0
LINE
 8
Group#1
10
1.7411809548976653
20
15.284074173710884
30
23.0
11
1.5000000000001776
21
15.383974596215488
31
23.0
  0
LINE
 8
Group#1
10
2.0000000000001767
20
15.249999999999922
30
23.0
11
1.7411809548976653
21
15.284074173710884
31
23.0
  0
LINE
 8
Group#1
10
2.258819045102711
20
15.28407417371088
30
23.0
11
2.0000000000001767
21
15.249999999999922
31
23.0
  0
LINE
 8
Group#1
10
2.500000000000176
20
15.383974596215486
30
23.0
11
2.258819045102711
21
15.28407417371088
31
23.0
  0
LINE
 8
Group#1
10
2.7071067811867273
20
15.542893218813413
30
23.0
11
2.500000000000176
21
15.383974596215486
31
23.0
  0
LINE
 8
Group#1
10
2.8660254037846116
20
15.74999999999994
30
23.0
11
2.7071067811867273
21
15.542893218813413
31
23.0
  0
LINE
 8
Group#1
10
2.965925826289263
20
15.991180954897427
30
23.0
11
2.8660254037846116
21
15.74999999999994
31
23.0
  0
LINE
 8
Group#1
10
3.0000000000001794
20
16.24999999999992
30
23.0
11
2.965925826289263
21
15.991180954897427
31
23.0
  0
LINE
 8
Group#1
10
3.0000000000002145
20
24.249999999999947
30
23.0
11
3.0000000000001794
21
16.24999999999992
31
23.0
  0
LINE
 8
Group#1
10
3.0000000000002145
20
24.249999999999947
30
23.0
11
2.965925826289301
21
24.508819045102435
31
23.0
  0
LINE
 8
Group#1
10
2.965925826289301
20
24.508819045102435
30
23.0
11
2.866025403784675
21
24.749999999999968
31
23.0
  0
LINE
 8
Group#1
10
4.25881904510276
20
27.034074173710867
30
23.0
11
4.000000000000248
21
26.99999999999995
31
23.0
  0
LINE
 8
Group#1
10
4.500000000000226
20
27.13397459621551
30
23.0
11
4.25881904510276
21
27.034074173710867
31
23.0
  0
LINE
 8
Group#1
10
4.707106781186798
20
27.292893218813393
30
23.0
11
4.500000000000226
21
27.13397459621551
31
23.0
  0
LINE
 8
Group#1
10
4.866025403784684
20
27.499999999999968
30
23.0
11
4.707106781186798
21
27.292893218813393
31
23.0
  0
LINE
 8
Group#1
10
4.965925826289311
20
27.74118095489741
30
23.0
11
4.866025403784684
21
27.499999999999968
31
23.0
  0
LINE
 8
Group#1
10
5.0000000000002505
20
27.999999999999943
30
23.0
11
4.965925826289311
21
27.74118095489741
31
23.0
  0
LINE
 8
Group#1
10
5.0000000000002505
20
27.999999999999943
30
23.0
11
5.000000000000273
21
32.999999999999936
31
23.0
  0
LINE
 8
Group#1
10
5.000000000000273
20
32.999999999999936
30
23.0
11
4.965925826289337
21
33.25881904510247
31
23.0
  0
LINE
 8
Group#1
10
4.965925826289337
20
33.25881904510247
30
23.0
11
4.866025403784711
21
33.49999999999996
31
23.0
  0
LINE
 8
Group#1
10
4.866025403784711
20
33.49999999999996
30
23.0
11
4.707106781186827
21
33.70710678118648
31
23.0
  0
LINE
 8
Group#1
10
4.707106781186827
20
33.70710678118648
30
23.0
11
4.500000000000256
21
33.86602540378437
31
23.0
  0
LINE
 8
Group#1
10
4.500000000000256
20
33.86602540378437
30
23.0
11
4.258819045102791
21
33.965925826289016
31
23.0
  0
LINE
 8
Group#1
10
4.258819045102791
20
33.965925826289016
30
23.0
11
4.000000000000279
21
33.999999999999936
31
23.0
  0
LINE
 8
Group#1
10
4.000000000000279
20
33.999999999999936
30
23.0
11
3.741180954897745
21
33.96592582628902
31
23.0
  0
LINE
 8
Group#1
10
3.741180954897745
20
33.96592582628902
30
23.0
11
3.500000000000257
21
33.86602540378437
31
23.0
  0
LINE
 8
Group#1
10
3.500000000000257
20
33.86602540378437
30
23.0
11
3.2928932188137283
21
33.70710678118649
31
23.0
  0
LINE
 8
Group#1
10
3.2928932188137283
20
33.70710678118649
30
23.0
11
3.1339745962158214
21
33.499999999999964
31
23.0
  0
LINE
 8
Group#1
10
3.1339745962158214
20
33.499999999999964
30
23.0
11
3.034074173711193
21
33.25881904510247
31
23.0
  0
LINE
 8
Group#1
10
3.034074173711193
20
33.25881904510247
30
23.0
11
3.000000000000254
21
32.999999999999936
31
23.0
  0
LINE
 8
Group#1
10
3.0000000000002314
20
27.99999999999995
30
23.0
11
3.000000000000254
21
32.999999999999936
31
23.0
  0
LINE
 8
Group#1
10
3.034074173711167
20
27.741180954897416
30
23.0
11
3.0000000000002314
21
27.99999999999995
31
23.0
  0
LINE
 8
Group#1
10
3.1339745962157948
20
27.49999999999997
30
23.0
11
3.034074173711167
21
27.741180954897416
31
23.0
  0
LINE
 8
Group#1
10
3.2928932188137
20
27.2928932188134
30
23.0
11
3.1339745962157948
21
27.49999999999997
31
23.0
  0
LINE
 8
Group#1
10
3.500000000000228
20
27.133974596215516
30
23.0
11
3.2928932188137
21
27.2928932188134
31
23.0
  0
LINE
 8
Group#1
10
3.7411809548977137
20
27.034074173710867
30
23.0
11
3.500000000000228
21
27.133974596215516
31
23.0
  0
LINE
 8
Group#1
10
4.000000000000248
20
26.99999999999995
30
23.0
11
3.7411809548977137
21
27.034074173710867
31
23.0
  0
LINE
 8
Group#1
10
11.55000000000013
20
-4.000000000000128
30
23.0
11
11.55000000000022
21
15.999999999999872
31
23.0
  0
LINE
 8
Group#1
10
11.55000000000022
20
15.999999999999872
30
23.0
11
11.515925826289283
21
16.258819045102392
31
23.0
  0
LINE
 8
Group#1
10
11.515925826289283
20
16.258819045102392
30
23.0
11
11.416025403784657
21
16.499999999999872
31
23.0
  0
LINE
 8
Group#1
10
11.416025403784657
20
16.499999999999872
30
23.0
11
11.257106781186772
21
16.707106781186422
31
23.0
  0
LINE
 8
Group#1
10
11.257106781186772
20
16.707106781186422
30
23.0
11
11.050000000000225
21
16.86602540378431
31
23.0
  0
LINE
 8
Group#1
10
11.050000000000225
20
16.86602540378431
30
23.0
11
10.808819045102736
21
16.96592582628894
31
23.0
  0
LINE
 8
Group#1
10
10.808819045102736
20
16.96592582628894
30
23.0
11
10.550000000000226
21
16.999999999999876
31
23.0
  0
LINE
 8
Group#1
10
10.550000000000226
20
16.999999999999876
30
23.0
11
10.291180954897715
21
16.965925826288945
31
23.0
  0
LINE
 8
Group#1
10
10.291180954897715
20
16.965925826288945
30
23.0
11
10.050000000000226
21
16.866025403784317
31
23.0
  0
LINE
 8
Group#1
10
10.050000000000226
20
16.866025403784317
30
23.0
11
9.842893218813673
21
16.707106781186425
31
23.0
  0
LINE
 8
Group#1
10
9.842893218813673
20
16.707106781186425
30
23.0
11
9.683974596215789
21
16.49999999999988
31
23.0
  0
LINE
 8
Group#1
10
9.683974596215789
20
16.49999999999988
30
23.0
11
9.58407417371116
21
16.2588190451024
31
23.0
  0
LINE
 8
Group#1
10
9.58407417371116
20
16.2588190451024
30
23.0
11
9.550000000000223
21
15.999999999999881
31
23.0
  0
LINE
 8
Group#1
10
9.550000000000134
20
-4.000000000000123
30
23.0
11
9.550000000000223
21
15.999999999999881
31
23.0
  0
LINE
 8
Group#1
10
9.58407417371107
20
-4.25881904510264
30
23.0
11
9.550000000000134
21
-4.000000000000123
31
23.0
  0
LINE
 8
Group#1
10
9.683974596215696
20
-4.500000000000122
30
23.0
11
9.58407417371107
21
-4.25881904510264
31
23.0
  0
LINE
 8
Group#1
10
9.842893218813577
20
-4.707106781186666
30
23.0
11
9.683974596215696
21
-4.500000000000122
31
23.0
  0
LINE
 8
Group#1
10
10.050000000000129
20
-4.866025403784556
30
23.0
11
9.842893218813577
21
-4.707106781186666
31
23.0
  0
LINE
 8
Group#1
10
10.291180954897616
20
-4.965925826289183
30
23.0
11
10.050000000000129
21
-4.866025403784556
31
23.0
  0
LINE
 8
Group#1
10
10.550000000000127
20
-5.000000000000126
30
23.0
11
10.291180954897616
21
-4.965925826289183
31
23.0
  0
LINE
 8
Group#1
10
10.80881904510264
20
-4.9659258262891885
30
23.0
11
10.550000000000127
21
-5.000000000000126
31
23.0
  0
LINE
 8
Group#1
10
11.050000000000127
20
-4.866025403784562
30
23.0
11
10.80881904510264
21
-4.9659258262891885
31
23.0
  0
LINE
 8
Group#1
10
11.257106781186678
20
-4.707106781186671
30
23.0
11
11.050000000000127
21
-4.866025403784562
31
23.0
  0
LINE
 8
Group#1
10
11.416025403784563
20
-4.500000000000127
30
23.0
11
11.257106781186678
21
-4.707106781186671
31
23.0
  0
LINE
 8
Group#1
10
11.515925826289191
20
-4.258819045102645
30
23.0
11
11.416025403784563
21
-4.500000000000127
31
23.0
  0
LINE
 8
Group#1
10
11.55000000000013
20
-4.000000000000128
30
23.0
11
11.515925826289191
21
-4.258819045102645
31
23.0
  0
LINE
 8
Group#1
10
0.25881904510274556
20
27.034074173710877
30
23.0
11
2.340572180514755e-13
21
26.999999999999968
31
23.0
  0
LINE
 8
Group#1
10
0.5000000000002331
20
27.133974596215527
30
23.0
11
0.25881904510274556
21
27.034074173710877
31
23.0
  0
LINE
 8
Group#1
10
0.7071067811867834
20
27.29289321881341
30
23.0
11
0.5000000000002331
21
27.133974596215527
31
23.0
  0
LINE
 8
Group#1
10
0.8660254037846676
20
27.499999999999982
30
23.0
11
0.7071067811867834
21
27.29289321881341
31
23.0
  0
LINE
 8
Group#1
10
0.9659258262892962
20
27.741180954897427
30
23.0
11
0.8660254037846676
21
27.499999999999982
31
23.0
  0
LINE
 8
Group#1
10
1.0000000000002351
20
27.99999999999996
30
23.0
11
0.9659258262892962
21
27.741180954897427
31
23.0
  0
LINE
 8
Group#1
10
1.0000000000002351
20
27.99999999999996
30
23.0
11
1.0000000000002576
21
32.99999999999995
31
23.0
  0
LINE
 8
Group#1
10
1.0000000000002576
20
32.99999999999995
30
23.0
11
0.9659258262893217
21
33.258819045102484
31
23.0
  0
LINE
 8
Group#1
10
0.9659258262893217
20
33.258819045102484
30
23.0
11
0.8660254037846958
21
33.49999999999997
31
23.0
  0
LINE
 8
Group#1
10
0.8660254037846958
20
33.49999999999997
30
23.0
11
0.7071067811868116
21
33.7071067811865
31
23.0
  0
LINE
 8
Group#1
10
0.7071067811868116
20
33.7071067811865
30
23.0
11
0.5000000000002613
21
33.866025403784384
31
23.0
  0
LINE
 8
Group#1
10
0.5000000000002613
20
33.866025403784384
30
23.0
11
0.2588190451027766
21
33.96592582628904
31
23.0
  0
LINE
 8
Group#1
10
0.2588190451027766
20
33.96592582628904
30
23.0
11
2.6507684935950237e-13
21
33.99999999999996
31
23.0
  0
LINE
 8
Group#1
10
-5.741180954897319
20
15.284074173710918
30
23.0
11
-5.741180954897319
21
15.284074173710918
31
25.0
  0
LINE
 8
Group#1
10
-8.903984489160615
20
31.596015510839138
30
23.0
11
-8.903984489160615
21
31.596015510839138
31
25.0
  0
LINE
 8
Group#1
10
-10.775000000000048
20
-29.157660624134177
30
23.0
11
-10.775000000000048
21
-29.157660624134177
31
25.0
  0
LINE
 8
Group#1
10
0.9659258262893217
20
33.258819045102484
30
23.0
11
0.9659258262893217
21
33.258819045102484
31
25.0
  0
LINE
 8
Group#1
10
0.8660254037846958
20
33.49999999999997
30
23.0
11
0.8660254037846958
21
33.49999999999997
31
25.0
  0
LINE
 8
Group#1
10
-11.497185030747861
20
30.901169519908915
30
23.0
11
-11.497185030747861
21
30.901169519908915
31
25.0
  0
LINE
 8
Group#1
10
-11.549999999999788
20
30.49999999999999
30
23.0
11
-11.549999999999788
21
30.49999999999999
31
25.0
  0
LINE
 8
Group#1
10
-10.4011695199087
20
31.99718503074807
30
23.0
11
-10.4011695199087
21
31.99718503074807
31
25.0
  0
LINE
 8
Group#1
10
-10.774999999999777
20
31.842339375865883
30
23.0
11
-10.774999999999777
21
31.842339375865883
31
25.0
  0
LINE
 8
Group#1
10
-8.903984489160626
20
29.403984489160866
30
23.0
11
-8.903984489160626
21
29.403984489160866
31
25.0
  0
LINE
 8
Group#1
10
-8.65766062413388
20
29.72500000000002
30
23.0
11
-8.65766062413388
21
29.72500000000002
31
25.0
  0
LINE
 8
Group#1
10
1.0000000000002576
20
32.99999999999995
30
23.0
11
1.0000000000002576
21
32.99999999999995
31
25.0
  0
LINE
 8
Group#1
10
-8.44999999999977
20
30.49999999999998
30
23.0
11
-8.44999999999977
21
30.49999999999998
31
25.0
  0
LINE
 8
Group#1
10
-8.50281496925169
20
30.901169519908905
30
23.0
11
-8.50281496925169
21
30.901169519908905
31
25.0
  0
LINE
 8
Group#1
10
-0.25881904510227743
20
27.03407417371088
30
23.0
11
-0.25881904510227743
21
27.03407417371088
31
25.0
  0
LINE
 8
Group#1
10
2.340572180514755e-13
20
26.999999999999968
30
23.0
11
2.340572180514755e-13
21
26.999999999999968
31
25.0
  0
LINE
 8
Group#1
10
0.2588190451027766
20
33.96592582628904
30
23.0
11
0.2588190451027766
21
33.96592582628904
31
25.0
  0
LINE
 8
Group#1
10
2.6507684935950237e-13
20
33.99999999999996
30
23.0
11
2.6507684935950237e-13
21
33.99999999999996
31
25.0
  0
LINE
 8
Group#1
10
-8.657660624133875
20
31.27499999999998
30
23.0
11
-8.657660624133875
21
31.27499999999998
31
25.0
  0
LINE
 8
Group#1
10
0.9659258262892962
20
27.741180954897427
30
23.0
11
0.9659258262892962
21
27.741180954897427
31
25.0
  0
LINE
 8
Group#1
10
1.0000000000002351
20
27.99999999999996
30
23.0
11
1.0000000000002351
21
27.99999999999996
31
25.0
  0
LINE
 8
Group#1
10
-11.096015510838932
20
31.59601551083915
30
23.0
11
-11.096015510838932
21
31.59601551083915
31
25.0
  0
LINE
 8
Group#1
10
-11.342339375865677
20
31.274999999999995
30
23.0
11
-11.342339375865677
21
31.274999999999995
31
25.0
  0
LINE
 8
Group#1
10
-11.550000000000061
20
-30.500000000000036
30
23.0
11
-11.550000000000061
21
-30.500000000000036
31
25.0
  0
LINE
 8
Group#1
10
-11.497185030748138
20
-30.90116951990896
30
23.0
11
-11.497185030748138
21
-30.90116951990896
31
25.0
  0
LINE
 8
Group#1
10
-11.497185030748135
20
-30.098830480091152
30
23.0
11
-11.497185030748135
21
-30.098830480091152
31
25.0
  0
LINE
 8
Group#1
10
-10.000000000000044
20
-28.95000000000008
30
23.0
11
-10.000000000000044
21
-28.95000000000008
31
25.0
  0
LINE
 8
Group#1
10
-10.401169519908972
20
-29.002814969251993
30
23.0
11
-10.401169519908972
21
-29.002814969251993
31
25.0
  0
LINE
 8
Group#1
10
-9.999999999999785
20
28.95000000000002
30
23.0
11
-9.999999999999785
21
28.95000000000002
31
25.0
  0
LINE
 8
Group#1
10
-9.598830480090857
20
29.002814969251936
30
23.0
11
-9.598830480090857
21
29.002814969251936
31
25.0
  0
LINE
 8
Group#1
10
-8.502814969251695
20
30.098830480091095
30
23.0
11
-8.502814969251695
21
30.098830480091095
31
25.0
  0
LINE
 8
Group#1
10
-9.224999999999769
20
31.84233937586588
30
23.0
11
-9.224999999999769
21
31.84233937586588
31
25.0
  0
LINE
 8
Group#1
10
-11.342339375865683
20
29.72500000000003
30
23.0
11
-11.342339375865683
21
29.72500000000003
31
25.0
  0
LINE
 8
Group#1
10
-11.096015510838942
20
29.403984489160877
30
23.0
11
-11.096015510838942
21
29.403984489160877
31
25.0
  0
LINE
 8
Group#1
10
-9.225000000000039
20
-29.157660624134188
30
23.0
11
-9.225000000000039
21
-29.157660624134188
31
25.0
  0
LINE
 8
Group#1
10
-9.598830480091117
20
-29.002814969252004
30
23.0
11
-9.598830480091117
21
-29.002814969252004
31
25.0
  0
LINE
 8
Group#1
10
-0.499999999999765
20
27.13397459621553
30
23.0
11
-0.499999999999765
21
27.13397459621553
31
25.0
  0
LINE
 8
Group#1
10
0.5000000000002613
20
33.866025403784384
30
23.0
11
0.5000000000002613
21
33.866025403784384
31
25.0
  0
LINE
 8
Group#1
10
-0.8660254037841995
20
27.499999999999996
30
23.0
11
-0.8660254037841995
21
27.499999999999996
31
25.0
  0
LINE
 8
Group#1
10
-0.7071067811863152
20
27.292893218813415
30
23.0
11
-0.7071067811863152
21
27.292893218813415
31
25.0
  0
LINE
 8
Group#1
10
0.8660254037846676
20
27.499999999999982
30
23.0
11
0.8660254037846676
21
27.499999999999982
31
25.0
  0
LINE
 8
Group#1
10
-11.096015510839214
20
-31.59601551083919
30
23.0
11
-11.096015510839214
21
-31.59601551083919
31
25.0
  0
LINE
 8
Group#1
10
-10.775000000000063
20
-31.842339375865937
30
23.0
11
-10.775000000000063
21
-31.842339375865937
31
25.0
  0
LINE
 8
Group#1
10
-9.598830480090845
20
31.997185030748064
30
23.0
11
-9.598830480090845
21
31.997185030748064
31
25.0
  0
LINE
 8
Group#1
10
-9.99999999999977
20
32.04999999999999
30
23.0
11
-9.99999999999977
21
32.04999999999999
31
25.0
  0
LINE
 8
Group#1
10
-10.000000000000059
20
-32.050000000000054
30
23.0
11
-10.000000000000059
21
-32.050000000000054
31
25.0
  0
LINE
 8
Group#1
10
-9.59883048009113
20
-31.99718503074813
30
23.0
11
-9.59883048009113
21
-31.99718503074813
31
25.0
  0
LINE
 8
Group#1
10
-10.774999999999789
20
29.157660624134127
30
23.0
11
-10.774999999999789
21
29.157660624134127
31
25.0
  0
LINE
 8
Group#1
10
-10.401169519908986
20
-31.99718503074812
30
23.0
11
-10.401169519908986
21
-31.99718503074812
31
25.0
  0
LINE
 8
Group#1
10
-11.342339375865956
20
-31.275000000000038
30
23.0
11
-11.342339375865956
21
-31.275000000000038
31
25.0
  0
LINE
 8
Group#1
10
-11.342339375865947
20
-29.725000000000076
30
23.0
11
-11.342339375865947
21
-29.725000000000076
31
25.0
  0
LINE
 8
Group#1
10
-9.225000000000053
20
-31.842339375865947
30
23.0
11
-9.225000000000053
21
-31.842339375865947
31
25.0
  0
LINE
 8
Group#1
10
-8.903984489160896
20
-31.596015510839205
30
23.0
11
-8.903984489160896
21
-31.596015510839205
31
25.0
  0
LINE
 8
Group#1
10
-8.657660624134154
20
-31.27500000000005
30
23.0
11
-8.657660624134154
21
-31.27500000000005
31
25.0
  0
LINE
 8
Group#1
10
-8.502814969251967
20
-30.901169519908972
30
23.0
11
-8.502814969251967
21
-30.901169519908972
31
25.0
  0
LINE
 8
Group#1
10
-8.450000000000044
20
-30.500000000000046
30
23.0
11
-8.450000000000044
21
-30.500000000000046
31
25.0
  0
LINE
 8
Group#1
10
-11.497185030747868
20
30.098830480091106
30
23.0
11
-11.497185030747868
21
30.098830480091106
31
25.0
  0
LINE
 8
Group#1
10
0.5000000000002331
20
27.133974596215527
30
23.0
11
0.5000000000002331
21
27.133974596215527
31
25.0
  0
LINE
 8
Group#1
10
0.7071067811867834
20
27.29289321881341
30
23.0
11
0.7071067811867834
21
27.29289321881341
31
25.0
  0
LINE
 8
Group#1
10
-10.401169519908713
20
29.002814969251943
30
23.0
11
-10.401169519908713
21
29.002814969251943
31
25.0
  0
LINE
 8
Group#1
10
-11.096015510839205
20
-29.403984489160923
30
23.0
11
-11.096015510839205
21
-29.403984489160923
31
25.0
  0
LINE
 8
Group#1
10
-9.22499999999978
20
29.15766062413412
30
23.0
11
-9.22499999999978
21
29.15766062413412
31
25.0
  0
LINE
 8
Group#1
10
0.25881904510274556
20
27.034074173710877
30
23.0
11
0.25881904510274556
21
27.034074173710877
31
25.0
  0
LINE
 8
Group#1
10
0.7071067811868116
20
33.7071067811865
30
23.0
11
0.7071067811868116
21
33.7071067811865
31
25.0
  0
LINE
 8
Group#1
10
-0.2588190451022464
20
33.96592582628904
30
23.0
11
-0.2588190451022464
21
33.96592582628904
31
25.0
  0
LINE
 8
Group#1
10
-8.502814969251963
20
-30.098830480091163
30
23.0
11
-8.502814969251963
21
-30.098830480091163
31
25.0
  0
LINE
 8
Group#1
10
-8.657660624134145
20
-29.725000000000087
30
23.0
11
-8.657660624134145
21
-29.725000000000087
31
25.0
  0
LINE
 8
Group#1
10
-8.903984489160889
20
-29.403984489160933
30
23.0
11
-8.903984489160889
21
-29.403984489160933
31
25.0
  0
LINE
 8
Group#1
10
-6.965925826288911
20
15.991180954897473
30
23.0
11
-6.965925826288911
21
15.991180954897473
31
25.0
  0
LINE
 8
Group#1
10
-6.866025403784262
20
15.749999999999982
30
23.0
11
-6.866025403784262
21
15.749999999999982
31
25.0
  0
LINE
 8
Group#1
10
-6.70710678118638
20
15.542893218813456
30
23.0
11
-6.70710678118638
21
15.542893218813456
31
25.0
  0
LINE
 8
Group#1
10
-6.499999999999807
20
15.383974596215525
30
23.0
11
-6.499999999999807
21
15.383974596215525
31
25.0
  0
LINE
 8
Group#1
10
-6.25881904510232
20
15.284074173710918
30
23.0
11
-6.25881904510232
21
15.284074173710918
31
25.0
  0
LINE
 8
Group#1
10
-5.999999999999831
20
15.250000000000004
30
23.0
11
-5.999999999999831
21
15.250000000000004
31
25.0
  0
LINE
 8
Group#1
10
-5.499999999999832
20
15.38397459621552
30
23.0
11
-5.499999999999832
21
15.38397459621552
31
25.0
  0
LINE
 8
Group#1
10
-5.292893218813282
20
15.542893218813449
30
23.0
11
-5.292893218813282
21
15.542893218813449
31
25.0
  0
LINE
 8
Group#1
10
-5.133974596215395
20
15.749999999999977
30
23.0
11
-5.133974596215395
21
15.749999999999977
31
25.0
  0
LINE
 8
Group#1
10
-5.034074173710745
20
15.991180954897464
30
23.0
11
-5.034074173710745
21
15.991180954897464
31
25.0
  0
LINE
 8
Group#1
10
-4.999999999999828
20
16.24999999999995
30
23.0
11
-4.999999999999828
21
16.24999999999995
31
25.0
  0
LINE
 8
Group#1
10
-4.999999999999793
20
24.249999999999982
30
23.0
11
-4.999999999999793
21
24.249999999999982
31
25.0
  0
LINE
 8
Group#1
10
-5.034074173710706
20
24.508819045102474
30
23.0
11
-5.034074173710706
21
24.508819045102474
31
25.0
  0
LINE
 8
Group#1
10
-5.133974596215356
20
24.750000000000007
30
23.0
11
-5.133974596215356
21
24.750000000000007
31
25.0
  0
LINE
 8
Group#1
10
-5.29289321881324
20
24.957106781186532
30
23.0
11
-5.29289321881324
21
24.957106781186532
31
25.0
  0
LINE
 8
Group#1
10
-5.499999999999787
20
25.116025403784416
30
23.0
11
-5.499999999999787
21
25.116025403784416
31
25.0
  0
LINE
 8
Group#1
10
-5.741180954897274
20
25.21592582628907
30
23.0
11
-5.741180954897274
21
25.21592582628907
31
25.0
  0
LINE
 8
Group#1
10
-5.999999999999786
20
25.249999999999986
30
23.0
11
-5.999999999999786
21
25.249999999999986
31
25.0
  0
LINE
 8
Group#1
10
-6.258819045102275
20
25.21592582628907
30
23.0
11
-6.258819045102275
21
25.21592582628907
31
25.0
  0
LINE
 8
Group#1
10
-6.499999999999763
20
25.116025403784423
30
23.0
11
-6.499999999999763
21
25.116025403784423
31
25.0
  0
LINE
 8
Group#1
10
-6.707106781186338
20
24.95710678118654
30
23.0
11
-6.707106781186338
21
24.95710678118654
31
25.0
  0
LINE
 8
Group#1
10
-6.8660254037842225
20
24.75000000000001
30
23.0
11
-6.8660254037842225
21
24.75000000000001
31
25.0
  0
LINE
 8
Group#1
10
-6.965925826288872
20
24.50881904510248
30
23.0
11
-6.965925826288872
21
24.50881904510248
31
25.0
  0
LINE
 8
Group#1
10
-6.9999999999997895
20
24.249999999999993
30
23.0
11
-6.9999999999997895
21
24.249999999999993
31
25.0
  0
LINE
 8
Group#1
10
-6.999999999999823
20
16.24999999999996
30
23.0
11
-6.999999999999823
21
16.24999999999996
31
25.0
  0
LINE
 8
Group#1
10
-1.7411809548972592
20
25.21592582628905
30
23.0
11
-1.7411809548972592
21
25.21592582628905
31
25.0
  0
LINE
 8
Group#1
10
-1.9999999999997706
20
25.249999999999968
30
23.0
11
-1.9999999999997706
21
25.249999999999968
31
25.0
  0
LINE
 8
Group#1
10
-2.258819045102305
20
25.21592582628905
30
23.0
11
-2.258819045102305
21
25.21592582628905
31
25.0
  0
LINE
 8
Group#1
10
-2.49999999999977
20
25.116025403784406
30
23.0
11
-2.49999999999977
21
25.116025403784406
31
25.0
  0
LINE
 8
Group#1
10
-2.7071067811863228
20
24.95710678118652
30
23.0
11
-2.7071067811863228
21
24.95710678118652
31
25.0
  0
LINE
 8
Group#1
10
-2.8660254037842297
20
24.749999999999993
30
23.0
11
-2.8660254037842297
21
24.749999999999993
31
25.0
  0
LINE
 8
Group#1
10
-2.965925826288857
20
24.508819045102463
30
23.0
11
-2.965925826288857
21
24.508819045102463
31
25.0
  0
LINE
 8
Group#1
10
-2.9999999999997744
20
24.24999999999997
30
23.0
11
-2.9999999999997744
21
24.24999999999997
31
25.0
  0
LINE
 8
Group#1
10
-2.9999999999998086
20
16.249999999999943
30
23.0
11
-2.9999999999998086
21
16.249999999999943
31
25.0
  0
LINE
 8
Group#1
10
-2.9659258262888963
20
15.991180954897454
30
23.0
11
-2.9659258262888963
21
15.991180954897454
31
25.0
  0
LINE
 8
Group#1
10
-2.8660254037842465
20
15.749999999999966
30
23.0
11
-2.8660254037842465
21
15.749999999999966
31
25.0
  0
LINE
 8
Group#1
10
-2.707106781186365
20
15.542893218813438
30
23.0
11
-2.707106781186365
21
15.542893218813438
31
25.0
  0
LINE
 8
Group#1
10
-2.499999999999815
20
15.38397459621551
30
23.0
11
-2.499999999999815
21
15.38397459621551
31
25.0
  0
LINE
 8
Group#1
10
-2.2588190451023498
20
15.2840741737109
30
23.0
11
-2.2588190451023498
21
15.2840741737109
31
25.0
  0
LINE
 8
Group#1
10
-1.999999999999816
20
15.249999999999941
30
23.0
11
-1.999999999999816
21
15.249999999999941
31
25.0
  0
LINE
 8
Group#1
10
-1.7411809548973043
20
15.284074173710898
30
23.0
11
-1.7411809548973043
21
15.284074173710898
31
25.0
  0
LINE
 8
Group#1
10
-1.4999999999998168
20
15.383974596215502
30
23.0
11
-1.4999999999998168
21
15.383974596215502
31
25.0
  0
LINE
 8
Group#1
10
-1.2928932188132665
20
15.542893218813433
30
23.0
11
-1.2928932188132665
21
15.542893218813433
31
25.0
  0
LINE
 8
Group#1
10
-1.1339745962153795
20
15.749999999999957
30
23.0
11
-1.1339745962153795
21
15.749999999999957
31
25.0
  0
LINE
 8
Group#1
10
-1.0340741737107522
20
15.991180954897445
30
23.0
11
-1.0340741737107522
21
15.991180954897445
31
25.0
  0
LINE
 8
Group#1
10
-0.999999999999812
20
16.249999999999932
30
23.0
11
-0.999999999999812
21
16.249999999999932
31
25.0
  0
LINE
 8
Group#1
10
-0.9999999999997782
20
24.249999999999964
30
23.0
11
-0.9999999999997782
21
24.249999999999964
31
25.0
  0
LINE
 8
Group#1
10
-1.0340741737107129
20
24.508819045102452
30
23.0
11
-1.0340741737107129
21
24.508819045102452
31
25.0
  0
LINE
 8
Group#1
10
-1.13397459621534
20
24.749999999999986
30
23.0
11
-1.13397459621534
21
24.749999999999986
31
25.0
  0
LINE
 8
Group#1
10
-1.2928932188132243
20
24.957106781186518
30
23.0
11
-1.2928932188132243
21
24.957106781186518
31
25.0
  0
LINE
 8
Group#1
10
-1.4999999999997717
20
25.116025403784402
30
23.0
11
-1.4999999999997717
21
25.116025403784402
31
25.0
  0
LINE
 8
Group#1
10
-3.999999999999781
20
26.999999999999986
30
23.0
11
-3.999999999999781
21
26.999999999999986
31
25.0
  0
LINE
 8
Group#1
10
-3.741180954897247
20
27.0340741737109
30
23.0
11
-3.741180954897247
21
27.0340741737109
31
25.0
  0
LINE
 8
Group#1
10
-3.4999999999997597
20
27.13397459621555
30
23.0
11
-3.4999999999997597
21
27.13397459621555
31
25.0
  0
LINE
 8
Group#1
10
-3.292893218813232
20
27.292893218813433
30
23.0
11
-3.292893218813232
21
27.292893218813433
31
25.0
  0
LINE
 8
Group#1
10
-3.133974596215325
20
27.5
30
23.0
11
-3.133974596215325
21
27.5
31
25.0
  0
LINE
 8
Group#1
10
-3.034074173710695
20
27.741180954897445
30
23.0
11
-3.034074173710695
21
27.741180954897445
31
25.0
  0
LINE
 8
Group#1
10
-2.9999999999997575
20
27.999999999999975
30
23.0
11
-2.9999999999997575
21
27.999999999999975
31
25.0
  0
LINE
 8
Group#1
10
-2.999999999999735
20
32.999999999999964
30
23.0
11
-2.999999999999735
21
32.999999999999964
31
25.0
  0
LINE
 8
Group#1
10
-3.0340741737106725
20
33.2588190451025
30
23.0
11
-3.0340741737106725
21
33.2588190451025
31
25.0
  0
LINE
 8
Group#1
10
-3.133974596215297
20
33.49999999999999
30
23.0
11
-3.133974596215297
21
33.49999999999999
31
25.0
  0
LINE
 8
Group#1
10
-3.292893218813204
20
33.70710678118652
30
23.0
11
-3.292893218813204
21
33.70710678118652
31
25.0
  0
LINE
 8
Group#1
10
-3.4999999999997313
20
33.866025403784406
30
23.0
11
-3.4999999999997313
21
33.866025403784406
31
25.0
  0
LINE
 8
Group#1
10
-3.741180954897216
20
33.96592582628906
30
23.0
11
-3.741180954897216
21
33.96592582628906
31
25.0
  0
LINE
 8
Group#1
10
-3.99999999999975
20
33.99999999999997
30
23.0
11
-3.99999999999975
21
33.99999999999997
31
25.0
  0
LINE
 8
Group#1
10
-4.258819045102261
20
33.96592582628906
30
23.0
11
-4.258819045102261
21
33.96592582628906
31
25.0
  0
LINE
 8
Group#1
10
-4.499999999999729
20
33.866025403784406
30
23.0
11
-4.499999999999729
21
33.866025403784406
31
25.0
  0
LINE
 8
Group#1
10
-4.707106781186302
20
33.707106781186525
30
23.0
11
-4.707106781186302
21
33.707106781186525
31
25.0
  0
LINE
 8
Group#1
10
-4.866025403784186
20
33.5
30
23.0
11
-4.866025403784186
21
33.5
31
25.0
  0
LINE
 8
Group#1
10
-4.965925826288816
20
33.25881904510251
30
23.0
11
-4.965925826288816
21
33.25881904510251
31
25.0
  0
LINE
 8
Group#1
10
-4.999999999999754
20
32.99999999999998
30
23.0
11
-4.999999999999754
21
32.99999999999998
31
25.0
  0
LINE
 8
Group#1
10
-4.999999999999776
20
27.99999999999999
30
23.0
11
-4.999999999999776
21
27.99999999999999
31
25.0
  0
LINE
 8
Group#1
10
-4.9659258262888395
20
27.741180954897455
30
23.0
11
-4.9659258262888395
21
27.741180954897455
31
25.0
  0
LINE
 8
Group#1
10
-4.8660254037842146
20
27.50000000000001
30
23.0
11
-4.8660254037842146
21
27.50000000000001
31
25.0
  0
LINE
 8
Group#1
10
-4.70710678118633
20
27.292893218813433
30
23.0
11
-4.70710678118633
21
27.292893218813433
31
25.0
  0
LINE
 8
Group#1
10
-4.4999999999997575
20
27.13397459621555
30
23.0
11
-4.4999999999997575
21
27.13397459621555
31
25.0
  0
LINE
 8
Group#1
10
-4.2588190451022925
20
27.0340741737109
30
23.0
11
-4.2588190451022925
21
27.0340741737109
31
25.0
  0
LINE
 8
Group#1
10
-11.549999999999942
20
-4.000000000000027
30
23.0
11
-11.549999999999942
21
-4.000000000000027
31
25.0
  0
LINE
 8
Group#1
10
-11.515925826289005
20
-4.258819045102544
30
23.0
11
-11.515925826289005
21
-4.258819045102544
31
25.0
  0
LINE
 8
Group#1
10
-11.416025403784378
20
-4.500000000000026
30
23.0
11
-11.416025403784378
21
-4.500000000000026
31
25.0
  0
LINE
 8
Group#1
10
-11.257106781186495
20
-4.70710678118657
30
23.0
11
-11.257106781186495
21
-4.70710678118657
31
25.0
  0
LINE
 8
Group#1
10
-11.049999999999946
20
-4.86602540378446
30
23.0
11
-11.049999999999946
21
-4.86602540378446
31
25.0
  0
LINE
 8
Group#1
10
-10.808819045102458
20
-4.965925826289093
30
23.0
11
-10.808819045102458
21
-4.965925826289093
31
25.0
  0
LINE
 8
Group#1
10
-10.549999999999947
20
-5.00000000000003
30
23.0
11
-10.549999999999947
21
-5.00000000000003
31
25.0
  0
LINE
 8
Group#1
10
-10.291180954897435
20
-4.965925826289093
30
23.0
11
-10.291180954897435
21
-4.965925826289093
31
25.0
  0
LINE
 8
Group#1
10
-10.049999999999947
20
-4.866025403784466
30
23.0
11
-10.049999999999947
21
-4.866025403784466
31
25.0
  0
LINE
 8
Group#1
10
-9.842893218813398
20
-4.707106781186575
30
23.0
11
-9.842893218813398
21
-4.707106781186575
31
25.0
  0
LINE
 8
Group#1
10
-9.68397459621551
20
-4.500000000000037
30
23.0
11
-9.68397459621551
21
-4.500000000000037
31
25.0
  0
LINE
 8
Group#1
10
-9.584074173710883
20
-4.2588190451025545
30
23.0
11
-9.584074173710883
21
-4.2588190451025545
31
25.0
  0
LINE
 8
Group#1
10
-9.549999999999946
20
-4.000000000000038
30
23.0
11
-9.549999999999946
21
-4.000000000000038
31
25.0
  0
LINE
 8
Group#1
10
-9.549999999999855
20
15.999999999999968
30
23.0
11
-9.549999999999855
21
15.999999999999968
31
25.0
  0
LINE
 8
Group#1
10
-9.58407417371079
20
16.258819045102488
30
23.0
11
-9.58407417371079
21
16.258819045102488
31
25.0
  0
LINE
 8
Group#1
10
-9.683974596215418
20
16.499999999999968
30
23.0
11
-9.683974596215418
21
16.499999999999968
31
25.0
  0
LINE
 8
Group#1
10
-9.842893218813302
20
16.707106781186514
30
23.0
11
-9.842893218813302
21
16.707106781186514
31
25.0
  0
LINE
 8
Group#1
10
-10.04999999999985
20
16.866025403784406
30
23.0
11
-10.04999999999985
21
16.866025403784406
31
25.0
  0
LINE
 8
Group#1
10
-10.291180954897337
20
16.965925826289038
30
23.0
11
-10.291180954897337
21
16.965925826289038
31
25.0
  0
LINE
 8
Group#1
10
-10.549999999999848
20
16.999999999999968
30
23.0
11
-10.549999999999848
21
16.999999999999968
31
25.0
  0
LINE
 8
Group#1
10
-10.808819045102359
20
16.96592582628904
30
23.0
11
-10.808819045102359
21
16.96592582628904
31
25.0
  0
LINE
 8
Group#1
10
-11.049999999999848
20
16.86602540378441
30
23.0
11
-11.049999999999848
21
16.86602540378441
31
25.0
  0
LINE
 8
Group#1
10
-11.2571067811864
20
16.70710678118652
30
23.0
11
-11.2571067811864
21
16.70710678118652
31
25.0
  0
LINE
 8
Group#1
10
-11.416025403784284
20
16.499999999999975
30
23.0
11
-11.416025403784284
21
16.499999999999975
31
25.0
  0
LINE
 8
Group#1
10
-11.515925826288912
20
16.258819045102495
30
23.0
11
-11.515925826288912
21
16.258819045102495
31
25.0
  0
LINE
 8
Group#1
10
-11.549999999999851
20
15.999999999999977
30
23.0
11
-11.549999999999851
21
15.999999999999977
31
25.0
  0
LINE
 8
Group#1
10
11.55000000000022
20
15.999999999999872
30
23.0
11
11.55000000000022
21
15.999999999999872
31
25.0
  0
LINE
 8
Group#1
10
11.515925826289283
20
16.258819045102392
30
23.0
11
11.515925826289283
21
16.258819045102392
31
25.0
  0
LINE
 8
Group#1
10
11.416025403784657
20
16.499999999999872
30
23.0
11
11.416025403784657
21
16.499999999999872
31
25.0
  0
LINE
 8
Group#1
10
11.257106781186772
20
16.707106781186422
30
23.0
11
11.257106781186772
21
16.707106781186422
31
25.0
  0
LINE
 8
Group#1
10
11.050000000000225
20
16.86602540378431
30
23.0
11
11.050000000000225
21
16.86602540378431
31
25.0
  0
LINE
 8
Group#1
10
10.808819045102736
20
16.96592582628894
30
23.0
11
10.808819045102736
21
16.96592582628894
31
25.0
  0
LINE
 8
Group#1
10
10.550000000000226
20
16.999999999999876
30
23.0
11
10.550000000000226
21
16.999999999999876
31
25.0
  0
LINE
 8
Group#1
10
10.291180954897715
20
16.965925826288945
30
23.0
11
10.291180954897715
21
16.965925826288945
31
25.0
  0
LINE
 8
Group#1
10
10.050000000000226
20
16.866025403784317
30
23.0
11
10.050000000000226
21
16.866025403784317
31
25.0
  0
LINE
 8
Group#1
10
9.842893218813673
20
16.707106781186425
30
23.0
11
9.842893218813673
21
16.707106781186425
31
25.0
  0
LINE
 8
Group#1
10
9.683974596215789
20
16.49999999999988
30
23.0
11
9.683974596215789
21
16.49999999999988
31
25.0
  0
LINE
 8
Group#1
10
9.58407417371116
20
16.2588190451024
30
23.0
11
9.58407417371116
21
16.2588190451024
31
25.0
  0
LINE
 8
Group#1
10
9.550000000000223
20
15.999999999999881
30
23.0
11
9.550000000000223
21
15.999999999999881
31
25.0
  0
LINE
 8
Group#1
10
9.550000000000134
20
-4.000000000000123
30
23.0
11
9.550000000000134
21
-4.000000000000123
31
25.0
  0
LINE
 8
Group#1
10
9.58407417371107
20
-4.25881904510264
30
23.0
11
9.58407417371107
21
-4.25881904510264
31
25.0
  0
LINE
 8
Group#1
10
9.683974596215696
20
-4.500000000000122
30
23.0
11
9.683974596215696
21
-4.500000000000122
31
25.0
  0
LINE
 8
Group#1
10
9.842893218813577
20
-4.707106781186666
30
23.0
11
9.842893218813577
21
-4.707106781186666
31
25.0
  0
LINE
 8
Group#1
10
10.050000000000129
20
-4.866025403784556
30
23.0
11
10.050000000000129
21
-4.866025403784556
31
25.0
  0
LINE
 8
Group#1
10
10.291180954897616
20
-4.965925826289183
30
23.0
11
10.291180954897616
21
-4.965925826289183
31
25.0
  0
LINE
 8
Group#1
10
10.550000000000127
20
-5.000000000000126
30
23.0
11
10.550000000000127
21
-5.000000000000126
31
25.0
  0
LINE
 8
Group#1
10
10.80881904510264
20
-4.9659258262891885
30
23.0
11
10.80881904510264
21
-4.9659258262891885
31
25.0
  0
LINE
 8
Group#1
10
11.050000000000127
20
-4.866025403784562
30
23.0
11
11.050000000000127
21
-4.866025403784562
31
25.0
  0
LINE
 8
Group#1
10
11.257106781186678
20
-4.707106781186671
30
23.0
11
11.257106781186678
21
-4.707106781186671
31
25.0
  0
LINE
 8
Group#1
10
11.416025403784563
20
-4.500000000000127
30
23.0
11
11.416025403784563
21
-4.500000000000127
31
25.0
  0
LINE
 8
Group#1
10
11.515925826289191
20
-4.258819045102645
30
23.0
11
11.515925826289191
21
-4.258819045102645
31
25.0
  0
LINE
 8
Group#1
10
11.55000000000013
20
-4.000000000000128
30
23.0
11
11.55000000000013
21
-4.000000000000128
31
25.0
  0
LINE
 8
Group#1
10
4.25881904510276
20
27.034074173710867
30
23.0
11
4.25881904510276
21
27.034074173710867
31
25.0
  0
LINE
 8
Group#1
10
4.500000000000226
20
27.13397459621551
30
23.0
11
4.500000000000226
21
27.13397459621551
31
25.0
  0
LINE
 8
Group#1
10
4.707106781186798
20
27.292893218813393
30
23.0
11
4.707106781186798
21
27.292893218813393
31
25.0
  0
LINE
 8
Group#1
10
4.866025403784684
20
27.499999999999968
30
23.0
11
4.866025403784684
21
27.499999999999968
31
25.0
  0
LINE
 8
Group#1
10
4.965925826289311
20
27.74118095489741
30
23.0
11
4.965925826289311
21
27.74118095489741
31
25.0
  0
LINE
 8
Group#1
10
5.0000000000002505
20
27.999999999999943
30
23.0
11
5.0000000000002505
21
27.999999999999943
31
25.0
  0
LINE
 8
Group#1
10
5.000000000000273
20
32.999999999999936
30
23.0
11
5.000000000000273
21
32.999999999999936
31
25.0
  0
LINE
 8
Group#1
10
4.965925826289337
20
33.25881904510247
30
23.0
11
4.965925826289337
21
33.25881904510247
31
25.0
  0
LINE
 8
Group#1
10
4.866025403784711
20
33.49999999999996
30
23.0
11
4.866025403784711
21
33.49999999999996
31
25.0
  0
LINE
 8
Group#1
10
4.707106781186827
20
33.70710678118648
30
23.0
11
4.707106781186827
21
33.70710678118648
31
25.0
  0
LINE
 8
Group#1
10
4.500000000000256
20
33.86602540378437
30
23.0
11
4.500000000000256
21
33.86602540378437
31
25.0
  0
LINE
 8
Group#1
10
4.258819045102791
20
33.965925826289016
30
23.0
11
4.258819045102791
21
33.965925826289016
31
25.0
  0
LINE
 8
Group#1
10
4.000000000000279
20
33.999999999999936
30
23.0
11
4.000000000000279
21
33.999999999999936
31
25.0
  0
LINE
 8
Group#1
10
3.741180954897745
20
33.96592582628902
30
23.0
11
3.741180954897745
21
33.96592582628902
31
25.0
  0
LINE
 8
Group#1
10
3.500000000000257
20
33.86602540378437
30
23.0
11
3.500000000000257
21
33.86602540378437
31
25.0
  0
LINE
 8
Group#1
10
3.2928932188137283
20
33.70710678118649
30
23.0
11
3.2928932188137283
21
33.70710678118649
31
25.0
  0
LINE
 8
Group#1
10
3.1339745962158214
20
33.499999999999964
30
23.0
11
3.1339745962158214
21
33.499999999999964
31
25.0
  0
LINE
 8
Group#1
10
3.034074173711193
20
33.25881904510247
30
23.0
11
3.034074173711193
21
33.25881904510247
31
25.0
  0
LINE
 8
Group#1
10
3.000000000000254
20
32.999999999999936
30
23.0
11
3.000000000000254
21
32.999999999999936
31
25.0
  0
LINE
 8
Group#1
10
3.0000000000002314
20
27.99999999999995
30
23.0
11
3.0000000000002314
21
27.99999999999995
31
25.0
  0
LINE
 8
Group#1
10
3.034074173711167
20
27.741180954897416
30
23.0
11
3.034074173711167
21
27.741180954897416
31
25.0
  0
LINE
 8
Group#1
10
3.1339745962157948
20
27.49999999999997
30
23.0
11
3.1339745962157948
21
27.49999999999997
31
25.0
  0
LINE
 8
Group#1
10
3.2928932188137
20
27.2928932188134
30
23.0
11
3.2928932188137
21
27.2928932188134
31
25.0
  0
LINE
 8
Group#1
10
3.500000000000228
20
27.133974596215516
30
23.0
11
3.500000000000228
21
27.133974596215516
31
25.0
  0
LINE
 8
Group#1
10
3.7411809548977137
20
27.034074173710867
30
23.0
11
3.7411809548977137
21
27.034074173710867
31
25.0
  0
LINE
 8
Group#1
10
4.000000000000248
20
26.99999999999995
30
23.0
11
4.000000000000248
21
26.99999999999995
31
25.0
  0
LINE
 8
Group#1
10
1.2928932188136713
20
24.957106781186503
30
23.0
11
1.2928932188136713
21
24.957106781186503
31
25.0
  0
LINE
 8
Group#1
10
1.1339745962157857
20
24.74999999999998
30
23.0
11
1.1339745962157857
21
24.74999999999998
31
25.0
  0
LINE
 8
Group#1
10
1.034074173711157
20
24.508819045102445
30
23.0
11
1.034074173711157
21
24.508819045102445
31
25.0
  0
LINE
 8
Group#1
10
1.000000000000218
20
24.249999999999954
30
23.0
11
1.000000000000218
21
24.249999999999954
31
25.0
  0
LINE
 8
Group#1
10
1.000000000000183
20
16.249999999999925
30
23.0
11
1.000000000000183
21
16.249999999999925
31
25.0
  0
LINE
 8
Group#1
10
1.0340741737111188
20
15.991180954897436
30
23.0
11
1.0340741737111188
21
15.991180954897436
31
25.0
  0
LINE
 8
Group#1
10
1.1339745962157446
20
15.749999999999948
30
23.0
11
1.1339745962157446
21
15.749999999999948
31
25.0
  0
LINE
 8
Group#1
10
1.2928932188136288
20
15.54289321881342
30
23.0
11
1.2928932188136288
21
15.54289321881342
31
25.0
  0
LINE
 8
Group#1
10
1.5000000000001776
20
15.383974596215488
30
23.0
11
1.5000000000001776
21
15.383974596215488
31
25.0
  0
LINE
 8
Group#1
10
1.7411809548976653
20
15.284074173710884
30
23.0
11
1.7411809548976653
21
15.284074173710884
31
25.0
  0
LINE
 8
Group#1
10
2.0000000000001767
20
15.249999999999922
30
23.0
11
2.0000000000001767
21
15.249999999999922
31
25.0
  0
LINE
 8
Group#1
10
2.258819045102711
20
15.28407417371088
30
23.0
11
2.258819045102711
21
15.28407417371088
31
25.0
  0
LINE
 8
Group#1
10
2.500000000000176
20
15.383974596215486
30
23.0
11
2.500000000000176
21
15.383974596215486
31
25.0
  0
LINE
 8
Group#1
10
2.7071067811867273
20
15.542893218813413
30
23.0
11
2.7071067811867273
21
15.542893218813413
31
25.0
  0
LINE
 8
Group#1
10
2.8660254037846116
20
15.74999999999994
30
23.0
11
2.8660254037846116
21
15.74999999999994
31
25.0
  0
LINE
 8
Group#1
10
2.965925826289263
20
15.991180954897427
30
23.0
11
2.965925826289263
21
15.991180954897427
31
25.0
  0
LINE
 8
Group#1
10
3.0000000000001794
20
16.24999999999992
30
23.0
11
3.0000000000001794
21
16.24999999999992
31
25.0
  0
LINE
 8
Group#1
10
3.0000000000002145
20
24.249999999999947
30
23.0
11
3.0000000000002145
21
24.249999999999947
31
25.0
  0
LINE
 8
Group#1
10
-0.965925826288824
20
27.741180954897438
30
23.0
11
-0.965925826288824
21
27.741180954897438
31
25.0
  0
LINE
 8
Group#1
10
-0.9999999999997613
20
27.99999999999997
30
23.0
11
-0.9999999999997613
21
27.99999999999997
31
25.0
  0
LINE
 8
Group#1
10
-0.9999999999997388
20
32.999999999999964
30
23.0
11
-0.9999999999997388
21
32.999999999999964
31
25.0
  0
LINE
 8
Group#1
10
-0.9659258262888013
20
33.2588190451025
30
23.0
11
-0.9659258262888013
21
33.2588190451025
31
25.0
  0
LINE
 8
Group#1
10
-0.8660254037841713
20
33.499999999999986
30
23.0
11
-0.8660254037841713
21
33.499999999999986
31
25.0
  0
LINE
 8
Group#1
10
-0.707106781186287
20
33.7071067811865
30
23.0
11
-0.707106781186287
21
33.7071067811865
31
25.0
  0
LINE
 8
Group#1
10
-0.4999999999997368
20
33.86602540378439
30
23.0
11
-0.4999999999997368
21
33.86602540378439
31
25.0
 0
ENDSEC
 0
EOF
