  0
SECTION
  2
HEADER
  9
$ACADVER
  1
AC1009
  9
$INSBASE
 10
0.0
 20
0.0
 30
0.0
  9
$EXTMIN
 10
0.0
 20
0.0
 30
0.0
  9
$EXTMAX
 10
0.0
 20
0.0
 30
0.0
  0
ENDSEC
  0
SECTION
  2
TABLES
  0
TABLE
  2
VPORT
 70
0
  0
ENDTAB
  0
TABLE
  2
LTYPE
 70
1
  0
LTYPE
  2
CONTINUOUS
 70
0
  3
Solid line
 72
65
 73
0
 40
0.0
  0
ENDTAB
  0
TABLE
  2
LAYER
 70
1
  0
LAYER
  2
0
 70
64
 62
7
  6
continuous
  0
ENDTAB
  0
TABLE
  2
STYLE
 70
1
  0
STYLE
  2
STANDARD
 70
0
 40
0
 41
1.0
 50
0.0
 71
0
 42
1
 3
ARIAL.TTF
 4

  0
ENDTAB
  0
TABLE
  2
VIEW
 70
0
  0
ENDTAB
  0
ENDSEC
  0
SECTION
  2
BLOCKS
  0
BLOCK
  8
0
  2
SKETCH002
 70
0
 10
0.0
 20
0.0
 30
0.0
  3
SKETCH002
  0
CIRCLE
  8
0
 62
7
 10
46.0407428263
 20
-19.5
 30
0.0
 40
1.5
  0
CIRCLE
  8
0
 62
7
 10
44.5407428263
 20
-26.3373971656
 30
0.0
 40
1.5
  0
POLYLINE
  8
0
 62
7
 70
1
 66
1
 10
0.0
 20
0.0
 30
0.0
  0
VERTEX
  8
0
 10
23.343134833
 20
-4.0
 30
0.0
  0
VERTEX
  8
0
 10
19.843134833
 20
-4.0
 30
0.0
 42
0.15939623103
  0
VERTEX
  8
0
 10
8.91011099346
 20
-7.57622736288
 30
0.0
  0
VERTEX
  8
0
 10
0.972922977231
 20
-13.390941619
 30
0.0
 42
-0.89098064785
  0
VERTEX
  8
0
 10
-3.07864853938
 20
-9.01952205598
 30
0.0
  0
VERTEX
  8
0
 10
3.06846869493
 20
-1.84134818885
 30
0.0
 42
0.481405546304
  0
VERTEX
  8
0
 10
2.18665526157
 20
2.764967784
 30
0.0
  0
VERTEX
  8
0
 10
-5.69187178485
 20
6.91002969724
 30
0.0
 42
-1.00000004276
  0
VERTEX
  8
0
 10
-2.93191198736
 20
12.2375640159
 30
0.0
  0
VERTEX
  8
0
 10
6.70363935137
 20
7.2458112216
 30
0.0
 42
0.120068843604
  0
VERTEX
  8
0
 10
7.78209159687
 20
6.98304597561
 30
0.0
  0
VERTEX
  8
0
 10
19.843134833
 20
6.98304597561
 30
0.0
 42
-0.359397064625
  0
VERTEX
  8
0
 10
49.6020976832
 20
-15.929455443
 30
0.0
 42
-0.110592461389
  0
VERTEX
  8
0
 10
49.607776217
 20
-17.2405173369
 30
0.0
  0
VERTEX
  8
0
 10
47.4710558973
 20
-26.9802543084
 30
0.0
 42
-0.951478143774
  0
VERTEX
  8
0
 10
41.5610866829
 20
-25.9886146157
 30
0.0
  0
VERTEX
  8
0
 10
41.7176810778
 20
-24.6508254921
 30
0.0
 42
0.448769499214
  0
SEQEND
  8
0
  0
CIRCLE
  8
0
 62
7
 10
-4.311892
 20
9.57379691556
 30
0.0
 40
1.52
  0
CIRCLE
  8
0
 62
7
 10
10.307764064
 20
2.0
 30
0.0
 40
1.52
  0
CIRCLE
  8
0
 62
7
 10
-0.8
 20
-10.9708705215
 30
0.0
 40
1.52
  0
CIRCLE
  8
0
 62
7
 10
28.6707165842
 20
-0.872957577898
 30
0.0
 40
1.75
  0
CIRCLE
  8
0
 62
7
 10
20.7893994449
 20
0.499937228351
 30
0.0
 40
1.75
  0
CIRCLE
  8
0
 62
7
 10
35.6050295042
 20
-4.86235657132
 30
0.0
 40
1.75
  0
ENDBLK
  0
ENDSEC
  0
SECTION
  2
ENTITIES
  0
INSERT
  2
SKETCH002
  8
0
 62
7
 10
0.0
 20
0.0
 30
0.0
  0
ENDSEC
  0
EOF
