  0
SECTION
  2
HEADER
  9
$ACADVER
  1
AC1009
  9
$INSBASE
 10
0.0
 20
0.0
 30
0.0
  9
$EXTMIN
 10
0.0
 20
0.0
 30
0.0
  9
$EXTMAX
 10
0.0
 20
0.0
 30
0.0
  0
ENDSEC
  0
SECTION
  2
TABLES
  0
TABLE
  2
VPORT
 70
0
  0
ENDTAB
  0
TABLE
  2
LTYPE
 70
1
  0
LTYPE
  2
CONTINUOUS
 70
0
  3
Solid line
 72
65
 73
0
 40
0.0
  0
ENDTAB
  0
TABLE
  2
LAYER
 70
1
  0
LAYER
  2
0
 70
64
 62
7
  6
continuous
  0
ENDTAB
  0
TABLE
  2
STYLE
 70
1
  0
STYLE
  2
STANDARD
 70
0
 40
0
 41
1.0
 50
0.0
 71
0
 42
1
 3
ARIAL.TTF
 4

  0
ENDTAB
  0
TABLE
  2
VIEW
 70
0
  0
ENDTAB
  0
ENDSEC
  0
SECTION
  2
BLOCKS
  0
BLOCK
  8
0
  2
SKETCH003
 70
0
 10
0.0
 20
0.0
 30
0.0
  3
SKETCH003
  0
POLYLINE
  8
0
 62
7
 70
1
 66
1
 10
0.0
 20
0.0
 30
0.0
  0
VERTEX
  8
0
 10
19.6418236484
 20
8.74349837111
 30
0.0
 42
1.79509256049
  0
VERTEX
  8
0
 10
-0.933369625123
 20
-21.4797304718
 30
0.0
 42
-0.374432560542
  0
VERTEX
  8
0
 10
1.92307032614
 20
-24.194487554
 30
0.0
 42
0.109385104134
  0
VERTEX
  8
0
 10
4.3133862157
 20
-31.6009289572
 30
0.0
 42
0.266211791384
  0
VERTEX
  8
0
 10
8.5
 20
-34.0
 30
0.0
 42
-0.414213562373
  0
VERTEX
  8
0
 10
10.5
 20
-36.0
 30
0.0
 42
0.414213288252
  0
VERTEX
  8
0
 10
14.9999955194
 20
-40.5
 30
0.0
  0
VERTEX
  8
0
 10
23.8431379183
 20
-40.5
 30
0.0
 42
0.282455024266
  0
VERTEX
  8
0
 10
39.8941267203
 20
-30.6465121024
 30
0.0
 42
-0.375241602563
  0
VERTEX
  8
0
 10
43.5550174294
 20
-29.1708306732
 30
0.0
 42
0.4494633935
  0
VERTEX
  8
0
 10
47.4710558973
 20
-26.9802543084
 30
0.0
  0
VERTEX
  8
0
 10
49.6077749627
 20
-17.2405230541
 30
0.0
 42
0.110591064214
  0
VERTEX
  8
0
 10
49.6021026761
 20
-15.9294772966
 30
0.0
 42
0.336613359426
  0
VERTEX
  8
0
 10
22.2404445824
 20
6.96688862884
 30
0.0
 42
-0.283390988364
  0
SEQEND
  8
0
  0
POLYLINE
  8
0
 62
7
 70
1
 66
1
 10
0.0
 20
0.0
 30
0.0
  0
VERTEX
  8
0
 10
19.8431331909
 20
-16.0441793409
 30
0.0
 42
0.999999961697
  0
VERTEX
  8
0
 10
19.8431359805
 20
-28.9558206591
 30
0.0
  0
VERTEX
  8
0
 10
23.8431345632
 20
-28.9558206591
 30
0.0
 42
0.99999960861
  0
VERTEX
  8
0
 10
23.8431401563
 20
-16.0441793409
 30
0.0
  0
SEQEND
  8
0
  0
CIRCLE
  8
0
 62
7
 10
46.0407428263
 20
-19.5
 30
0.0
 40
1.5
  0
CIRCLE
  8
0
 62
7
 10
44.5407428263
 20
-26.3373971656
 30
0.0
 40
1.5
  0
CIRCLE
  8
0
 62
7
 10
0.0
 20
0.0
 30
0.0
 40
6.385
  0
CIRCLE
  8
0
 62
7
 10
-4.21647270005
 20
9.6162028873
 30
0.0
 40
1.52
  0
CIRCLE
  8
0
 62
7
 10
10.307764064
 20
2.0
 30
0.0
 40
1.52
  0
CIRCLE
  8
0
 62
7
 10
-0.8
 20
-10.9708705216
 30
0.0
 40
1.52
  0
POLYLINE
  8
0
 62
7
 70
1
 66
1
 10
0.0
 20
0.0
 30
0.0
  0
VERTEX
  8
0
 10
20.6078967692
 20
-36.0940728286
 30
0.0
 42
1.0
  0
VERTEX
  8
0
 10
20.6078967692
 20
-33.0540728286
 30
0.0
  0
VERTEX
  8
0
 10
16.6078967692
 20
-33.0540728286
 30
0.0
 42
1.0
  0
VERTEX
  8
0
 10
16.6078967692
 20
-36.0940728286
 30
0.0
  0
SEQEND
  8
0
  0
POLYLINE
  8
0
 62
7
 70
1
 66
1
 10
0.0
 20
0.0
 30
0.0
  0
VERTEX
  8
0
 10
27.0783728968
 20
-11.9459271714
 30
0.0
 42
1.0
  0
VERTEX
  8
0
 10
27.0783728968
 20
-8.90592717139
 30
0.0
  0
VERTEX
  8
0
 10
23.0783728968
 20
-8.90592717139
 30
0.0
 42
1.0
  0
VERTEX
  8
0
 10
23.0783728968
 20
-11.9459271714
 30
0.0
  0
SEQEND
  8
0
  0
ENDBLK
  0
ENDSEC
  0
SECTION
  2
ENTITIES
  0
INSERT
  2
SKETCH003
  8
0
 62
7
 10
0.0
 20
0.0
 30
0.0
  0
ENDSEC
  0
EOF
