  0
SECTION
  2
HEADER
  9
$ACADVER
  1
AC1024
  9
$ACADMAINTVER
 70
     6
  9
$DWGCODEPAGE
  3
UNDEFINED
  9
$INSBASE
 10
0.0
 20
0.0
 30
0.0
  9
$EXTMIN
 10
1.000000000000000E+20
 20
1.000000000000000E+20
 30
1.000000000000000E+20
  9
$EXTMAX
 10
-1.000000000000000E+20
 20
-1.000000000000000E+20
 30
-1.000000000000000E+20
  9
$LIMMIN
 10
0.0
 20
0.0
  9
$LIMMAX
 10
12.0
 20
9.0
  9
$ORTHOMODE
 70
     0
  9
$REGENMODE
 70
     1
  9
$FILLMODE
 70
     1
  9
$QTEXTMODE
 70
     0
  9
$MIRRTEXT
 70
     1
  9
$LTSCALE
 40
1.0
  9
$ATTMODE
 70
     1
  9
$TEXTSIZE
 40
0.2
  9
$TRACEWID
 40
0.05
  9
$TEXTSTYLE
  7
Standard
  9
$CLAYER
  8
0
  9
$CELTYPE
  6
ByLayer
  9
$CECOLOR
 62
   256
  9
$CELTSCALE
 40
1.0
  9
$DISPSILH
 70
     0
  9
$DIMSCALE
 40
1.0
  9
$DIMASZ
 40
0.18
  9
$DIMEXO
 40
0.0625
  9
$DIMDLI
 40
0.38
  9
$DIMRND
 40
0.0
  9
$DIMDLE
 40
0.0
  9
$DIMEXE
 40
0.18
  9
$DIMTP
 40
0.0
  9
$DIMTM
 40
0.0
  9
$DIMTXT
 40
0.18
  9
$DIMCEN
 40
0.09
  9
$DIMTSZ
 40
0.0
  9
$DIMTOL
 70
     0
  9
$DIMLIM
 70
     0
  9
$DIMTIH
 70
     1
  9
$DIMTOH
 70
     1
  9
$DIMSE1
 70
     0
  9
$DIMSE2
 70
     0
  9
$DIMTAD
 70
     0
  9
$DIMZIN
 70
     0
  9
$DIMBLK
  1

  9
$DIMASO
 70
     1
  9
$DIMSHO
 70
     1
  9
$DIMPOST
  1

  9
$DIMAPOST
  1

  9
$DIMALT
 70
     0
  9
$DIMALTD
 70
     2
  9
$DIMALTF
 40
25.4
  9
$DIMLFAC
 40
1.0
  9
$DIMTOFL
 70
     0
  9
$DIMTVP
 40
0.0
  9
$DIMTIX
 70
     0
  9
$DIMSOXD
 70
     0
  9
$DIMSAH
 70
     0
  9
$DIMBLK1
  1

  9
$DIMBLK2
  1

  9
$DIMSTYLE
  2
Standard
  9
$DIMCLRD
 70
     0
  9
$DIMCLRE
 70
     0
  9
$DIMCLRT
 70
     0
  9
$DIMTFAC
 40
1.0
  9
$DIMGAP
 40
0.09
  9
$DIMJUST
 70
     0
  9
$DIMSD1
 70
     0
  9
$DIMSD2
 70
     0
  9
$DIMTOLJ
 70
     1
  9
$DIMTZIN
 70
     0
  9
$DIMALTZ
 70
     0
  9
$DIMALTTZ
 70
     0
  9
$DIMUPT
 70
     0
  9
$DIMDEC
 70
     4
  9
$DIMTDEC
 70
     4
  9
$DIMALTU
 70
     2
  9
$DIMALTTD
 70
     2
  9
$DIMTXSTY
  7
Standard
  9
$DIMAUNIT
 70
     0
  9
$DIMADEC
 70
     0
  9
$DIMALTRND
 40
0.0
  9
$DIMAZIN
 70
     0
  9
$DIMDSEP
 70
    46
  9
$DIMATFIT
 70
     3
  9
$DIMFRAC
 70
     0
  9
$DIMLDRBLK
  1

  9
$DIMLUNIT
 70
     2
  9
$DIMLWD
 70
    -2
  9
$DIMLWE
 70
    -2
  9
$DIMTMOVE
 70
     0
  9
$DIMFXL
 40
1.0
  9
$DIMFXLON
 70
     0
  9
$DIMJOGANG
 40
0.7853981633974483
  9
$DIMTFILL
 70
     0
  9
$DIMTFILLCLR
 70
     0
  9
$DIMARCSYM
 70
     0
  9
$DIMLTYPE
  6

  9
$DIMLTEX1
  6

  9
$DIMLTEX2
  6

  9
$DIMTXTDIRECTION
 70
     0
  9
$LUNITS
 70
     2
  9
$LUPREC
 70
     4
  9
$SKETCHINC
 40
0.1
  9
$FILLETRAD
 40
0.5
  9
$AUNITS
 70
     0
  9
$AUPREC
 70
     0
  9
$MENU
  1
.
  9
$ELEVATION
 40
0.0
  9
$PELEVATION
 40
0.0
  9
$THICKNESS
 40
0.0
  9
$LIMCHECK
 70
     0
  9
$CHAMFERA
 40
0.5
  9
$CHAMFERB
 40
0.5
  9
$CHAMFERC
 40
1.0
  9
$CHAMFERD
 40
0.0
  9
$SKPOLY
 70
     0
  9
$TDCREATE
 40
2457862.792719896
  9
$TDUCREATE
 40
2457863.001053241
  9
$TDUPDATE
 40
2457862.792719896
  9
$TDUUPDATE
 40
2457863.001053241
  9
$TDINDWG
 40
0.0000000116
  9
$TDUSRTIMER
 40
0.0000000116
  9
$USRTIMER
 70
     1
  9
$ANGBASE
 50
0.0
  9
$ANGDIR
 70
     0
  9
$PDMODE
 70
     0
  9
$PDSIZE
 40
0.0
  9
$PLINEWID
 40
0.0
  9
$SPLFRAME
 70
     0
  9
$SPLINETYPE
 70
     6
  9
$SPLINESEGS
 70
     8
  9
$HANDSEED
  5
54
  9
$SURFTAB1
 70
     6
  9
$SURFTAB2
 70
     6
  9
$SURFTYPE
 70
     6
  9
$SURFU
 70
     6
  9
$SURFV
 70
     6
  9
$UCSBASE
  2

  9
$UCSNAME
  2

  9
$UCSORG
 10
0.0
 20
0.0
 30
0.0
  9
$UCSXDIR
 10
1.0
 20
0.0
 30
0.0
  9
$UCSYDIR
 10
0.0
 20
1.0
 30
0.0
  9
$UCSORTHOREF
  2

  9
$UCSORTHOVIEW
 70
     0
  9
$UCSORGTOP
 10
0.0
 20
0.0
 30
0.0
  9
$UCSORGBOTTOM
 10
0.0
 20
0.0
 30
0.0
  9
$UCSORGLEFT
 10
0.0
 20
0.0
 30
0.0
  9
$UCSORGRIGHT
 10
0.0
 20
0.0
 30
0.0
  9
$UCSORGFRONT
 10
0.0
 20
0.0
 30
0.0
  9
$UCSORGBACK
 10
0.0
 20
0.0
 30
0.0
  9
$PUCSBASE
  2

  9
$PUCSNAME
  2

  9
$PUCSORG
 10
0.0
 20
0.0
 30
0.0
  9
$PUCSXDIR
 10
1.0
 20
0.0
 30
0.0
  9
$PUCSYDIR
 10
0.0
 20
1.0
 30
0.0
  9
$PUCSORTHOREF
  2

  9
$PUCSORTHOVIEW
 70
     0
  9
$PUCSORGTOP
 10
0.0
 20
0.0
 30
0.0
  9
$PUCSORGBOTTOM
 10
0.0
 20
0.0
 30
0.0
  9
$PUCSORGLEFT
 10
0.0
 20
0.0
 30
0.0
  9
$PUCSORGRIGHT
 10
0.0
 20
0.0
 30
0.0
  9
$PUCSORGFRONT
 10
0.0
 20
0.0
 30
0.0
  9
$PUCSORGBACK
 10
0.0
 20
0.0
 30
0.0
  9
$USERI1
 70
     0
  9
$USERI2
 70
     0
  9
$USERI3
 70
     0
  9
$USERI4
 70
     0
  9
$USERI5
 70
     0
  9
$USERR1
 40
0.0
  9
$USERR2
 40
0.0
  9
$USERR3
 40
0.0
  9
$USERR4
 40
0.0
  9
$USERR5
 40
0.0
  9
$WORLDVIEW
 70
     1
  9
$SHADEDGE
 70
     3
  9
$SHADEDIF
 70
    70
  9
$TILEMODE
 70
     1
  9
$MAXACTVP
 70
    64
  9
$PINSBASE
 10
0.0
 20
0.0
 30
0.0
  9
$PLIMCHECK
 70
     0
  9
$PEXTMIN
 10
1.000000000000000E+20
 20
1.000000000000000E+20
 30
1.000000000000000E+20
  9
$PEXTMAX
 10
-1.000000000000000E+20
 20
-1.000000000000000E+20
 30
-1.000000000000000E+20
  9
$PLIMMIN
 10
0.0
 20
0.0
  9
$PLIMMAX
 10
12.0
 20
9.0
  9
$UNITMODE
 70
     0
  9
$VISRETAIN
 70
     1
  9
$PLINEGEN
 70
     0
  9
$PSLTSCALE
 70
     1
  9
$TREEDEPTH
 70
  3020
  9
$CMLSTYLE
  2
Standard
  9
$CMLJUST
 70
     0
  9
$CMLSCALE
 40
1.0
  9
$PROXYGRAPHICS
 70
     1
  9
$MEASUREMENT
 70
     0
  9
$CELWEIGHT
370
    -1
  9
$ENDCAPS
280
     0
  9
$JOINSTYLE
280
     0
  9
$LWDISPLAY
290
     1
  9
$INSUNITS
 70
     1
  9
$HYPERLINKBASE
  1

  9
$STYLESHEET
  1

  9
$XEDIT
290
     1
  9
$CEPSNTYPE
380
     0
  9
$PSTYLEMODE
290
     1
  9
$FINGERPRINTGUID
  2
{F5E9DDD0-BBAA-D114-6496-71968FE651C9}
  9
$VERSIONGUID
  2
{FAEB1C32-E019-11D5-929B-00C0DF256EC4}
  9
$EXTNAMES
290
     1
  9
$PSVPSCALE
 40
0.0
  9
$OLESTARTUP
290
     0
  9
$SORTENTS
280
   127
  9
$INDEXCTL
280
     0
  9
$HIDETEXT
280
     1
  9
$XCLIPFRAME
280
     2
  9
$HALOGAP
280
     0
  9
$OBSCOLOR
 70
   257
  9
$OBSLTYPE
280
     0
  9
$INTERSECTIONDISPLAY
280
     0
  9
$INTERSECTIONCOLOR
 70
   257
  9
$DIMASSOC
280
     2
  9
$PROJECTNAME
  1

  9
$CAMERADISPLAY
290
     0
  9
$LENSLENGTH
 40
50.0
  9
$CAMERAHEIGHT
 40
0.0
  9
$STEPSPERSEC
 40
2.0
  9
$STEPSIZE
 40
6.0
  9
$3DDWFPREC
 40
2.0
  9
$PSOLWIDTH
 40
0.25
  9
$PSOLHEIGHT
 40
4.0
  9
$LOFTANG1
 40
1.570796326794897
  9
$LOFTANG2
 40
1.570796326794897
  9
$LOFTMAG1
 40
0.0
  9
$LOFTMAG2
 40
0.0
  9
$LOFTPARAM
 70
     7
  9
$LOFTNORMALS
280
     1
  9
$LATITUDE
 40
37.795
  9
$LONGITUDE
 40
-122.394
  9
$NORTHDIRECTION
 40
0.0
  9
$TIMEZONE
 70
 -8000
  9
$LIGHTGLYPHDISPLAY
280
     1
  9
$TILEMODELIGHTSYNCH
280
     1
  9
$CMATERIAL
347
3C
  9
$SOLIDHIST
280
     1
  9
$SHOWHIST
280
     1
  9
$DWFFRAME
280
     2
  9
$DGNFRAME
280
     2
  9
$REALWORLDSCALE
290
     1
  9
$INTERFERECOLOR
 62
   256
  9
$CSHADOW
280
     0
  9
$SHADOWPLANELOCATION
 40
0.0
  0
ENDSEC
  0
SECTION
  2
CLASSES
  0
CLASS
  1
ACDBDICTIONARYWDFLT
  2
AcDbDictionaryWithDefault
  3
ObjectDBX Classes
 90
        0
 91
        4
280
     0
281
     0
  0
CLASS
  1
VISUALSTYLE
  2
AcDbVisualStyle
  3
ObjectDBX Classes
 90
     4095
 91
        4
280
     0
281
     0
  0
CLASS
  1
MATERIAL
  2
AcDbMaterial
  3
ObjectDBX Classes
 90
     1153
 91
        4
280
     0
281
     0
  0
CLASS
  1
SUN
  2
AcDbSun
  3
SCENEOE
 90
     1024
 91
        4
280
     0
281
     0
  0
ENDSEC
  0
SECTION
  2
TABLES
  0
TABLE
  2
VPORT
  5
8
330
0
100
AcDbSymbolTable
 70
     1
  0
VPORT
  5
29
330
8
100
AcDbSymbolTableRecord
100
AcDbViewportTableRecord
  2
*Active
 70
     0
 10
0.0
 20
0.0
 11
1.0
 21
1.0
 12
0.0
 22
0.0
 13
0.0
 23
0.0
 14
0.5
 24
0.5
 15
0.5
 25
0.5
 16
0.0
 26
0.0
 36
1.0
 17
107.9638886118967
 27
-139.8891983028631
 37
0.0
 40
91.01601987791511
 41
0.9988687618694828
 42
50.0
 43
0.0
 44
0.0
 50
0.0
 51
0.0
 71
     0
 72
   100
 73
     1
 74
     3
 75
     0
 76
     0
 77
     0
 78
     0
281
     0
 65
     1
110
0.0
120
0.0
130
0.0
111
1.0
121
0.0
131
0.0
112
0.0
122
1.0
132
0.0
 79
     0
146
0.0
 60
     3
 61
     5
292
     1
282
     1
141
0.0
142
0.0
 63
   250
361
3F
  0
ENDTAB
  0
TABLE
  2
LTYPE
  5
5
330
0
100
AcDbSymbolTable
 70
     1
  0
LTYPE
  5
14
330
5
100
AcDbSymbolTableRecord
100
AcDbLinetypeTableRecord
  2
ByBlock
 70
     0
  3

 72
    65
 73
     0
 40
0.0
  0
LTYPE
  5
15
330
5
100
AcDbSymbolTableRecord
100
AcDbLinetypeTableRecord
  2
ByLayer
 70
     0
  3

 72
    65
 73
     0
 40
0.0
  0
LTYPE
  5
16
330
5
100
AcDbSymbolTableRecord
100
AcDbLinetypeTableRecord
  2
Continuous
 70
     0
  3
Solid line
 72
    65
 73
     0
 40
0.0
  0
ENDTAB
  0
TABLE
  2
LAYER
  5
2
330
0
100
AcDbSymbolTable
 70
     2
  0
LAYER
  5
10
330
2
100
AcDbSymbolTableRecord
100
AcDbLayerTableRecord
  2
0
 70
     0
 62
     7
  6
Continuous
370
    -3
390
F
347
3E
  0
LAYER
  5
40
330
2
100
AcDbSymbolTableRecord
100
AcDbLayerTableRecord
  2
Layer 1
 70
     0
 62
     7
  6
Continuous
370
    -3
390
F
347
3E
  0
ENDTAB
  0
TABLE
  2
STYLE
  5
3
330
0
100
AcDbSymbolTable
 70
     1
  0
STYLE
  5
11
330
3
100
AcDbSymbolTableRecord
100
AcDbTextStyleTableRecord
  2
Standard
 70
     0
 40
0.0
 41
1.0
 50
0.0
 71
     0
 42
0.2
  3
txt
  4

  0
ENDTAB
  0
TABLE
  2
VIEW
  5
6
330
0
100
AcDbSymbolTable
 70
     0
  0
ENDTAB
  0
TABLE
  2
UCS
  5
7
330
0
100
AcDbSymbolTable
 70
     0
  0
ENDTAB
  0
TABLE
  2
APPID
  5
9
330
0
100
AcDbSymbolTable
 70
     1
  0
APPID
  5
12
330
9
100
AcDbSymbolTableRecord
100
AcDbRegAppTableRecord
  2
ACAD
 70
     0
  0
ENDTAB
  0
TABLE
  2
DIMSTYLE
  5
A
330
0
100
AcDbSymbolTable
 70
     1
100
AcDbDimStyleTable
  0
DIMSTYLE
105
27
330
A
100
AcDbSymbolTableRecord
100
AcDbDimStyleTableRecord
  2
Standard
 70
     0
178
     0
340
11
  0
ENDTAB
  0
TABLE
  2
BLOCK_RECORD
  5
1
330
0
100
AcDbSymbolTable
 70
     1
  0
BLOCK_RECORD
  5
1F
330
1
100
AcDbSymbolTableRecord
100
AcDbBlockTableRecord
  2
*Model_Space
340
22
 70
     0
280
     1
281
     0
  0
BLOCK_RECORD
  5
1B
330
1
100
AcDbSymbolTableRecord
100
AcDbBlockTableRecord
  2
*Paper_Space
340
1E
 70
     0
280
     1
281
     0
  0
BLOCK_RECORD
  5
23
330
1
100
AcDbSymbolTableRecord
100
AcDbBlockTableRecord
  2
*Paper_Space0
340
26
 70
     0
280
     1
281
     0
  0
ENDTAB
  0
ENDSEC
  0
SECTION
  2
BLOCKS
  0
BLOCK
  5
20
330
1F
100
AcDbEntity
  8
0
100
AcDbBlockBegin
  2
*Model_Space
 70
     0
 10
0.0
 20
0.0
 30
0.0
  3
*Model_Space
  1

  0
ENDBLK
  5
21
330
1F
100
AcDbEntity
  8
0
100
AcDbBlockEnd
  0
BLOCK
  5
1C
330
1B
100
AcDbEntity
 67
     1
  8
0
100
AcDbBlockBegin
  2
*Paper_Space
 70
     0
 10
0.0
 20
0.0
 30
0.0
  3
*Paper_Space
  1

  0
ENDBLK
  5
1D
330
1B
100
AcDbEntity
 67
     1
  8
0
100
AcDbBlockEnd
  0
BLOCK
  5
24
330
23
100
AcDbEntity
  8
0
100
AcDbBlockBegin
  2
*Paper_Space0
 70
     0
 10
0.0
 20
0.0
 30
0.0
  3
*Paper_Space0
  1

  0
ENDBLK
  5
25
330
23
100
AcDbEntity
  8
0
100
AcDbBlockEnd
  0
ENDSEC
  0
SECTION
  2
ENTITIES
  0
SPLINE
  5
41
330
1F
100
AcDbEntity
  8
Layer 1
 62
     1
420
 15597568
370
    18
100
AcDbSpline
210
0.0
220
0.0
230
1.0
 70
    11
 71
     3
 72
   443
 73
   439
 74
     0
 42
0.0000000001
 43
0.0000000001
 12
1.0
 22
0.0
 32
0.0
 13
1.0
 23
0.0
 33
0.0
 40
0.0
 40
0.0
 40
0.0
 40
0.0
 40
1.0
 40
1.0
 40
1.0
 40
2.0
 40
2.0
 40
2.0
 40
3.0
 40
3.0
 40
3.0
 40
4.0
 40
4.0
 40
4.0
 40
5.0
 40
5.0
 40
5.0
 40
6.0
 40
6.0
 40
6.0
 40
7.0
 40
7.0
 40
7.0
 40
8.0
 40
8.0
 40
8.0
 40
9.0
 40
9.0
 40
9.0
 40
10.0
 40
10.0
 40
10.0
 40
11.0
 40
11.0
 40
11.0
 40
12.0
 40
12.0
 40
12.0
 40
13.0
 40
13.0
 40
13.0
 40
14.0
 40
14.0
 40
14.0
 40
15.0
 40
15.0
 40
15.0
 40
16.0
 40
16.0
 40
16.0
 40
17.0
 40
17.0
 40
17.0
 40
18.0
 40
18.0
 40
18.0
 40
19.0
 40
19.0
 40
19.0
 40
20.0
 40
20.0
 40
20.0
 40
21.0
 40
21.0
 40
21.0
 40
22.0
 40
22.0
 40
22.0
 40
23.0
 40
23.0
 40
23.0
 40
24.0
 40
24.0
 40
24.0
 40
25.0
 40
25.0
 40
25.0
 40
26.0
 40
26.0
 40
26.0
 40
27.0
 40
27.0
 40
27.0
 40
28.0
 40
28.0
 40
28.0
 40
29.0
 40
29.0
 40
29.0
 40
30.0
 40
30.0
 40
30.0
 40
31.0
 40
31.0
 40
31.0
 40
32.0
 40
32.0
 40
32.0
 40
33.0
 40
33.0
 40
33.0
 40
34.0
 40
34.0
 40
34.0
 40
35.0
 40
35.0
 40
35.0
 40
36.0
 40
36.0
 40
36.0
 40
37.0
 40
37.0
 40
37.0
 40
38.0
 40
38.0
 40
38.0
 40
39.0
 40
39.0
 40
39.0
 40
40.0
 40
40.0
 40
40.0
 40
41.0
 40
41.0
 40
41.0
 40
42.0
 40
42.0
 40
42.0
 40
43.0
 40
43.0
 40
43.0
 40
44.0
 40
44.0
 40
44.0
 40
45.0
 40
45.0
 40
45.0
 40
46.0
 40
46.0
 40
46.0
 40
47.0
 40
47.0
 40
47.0
 40
48.0
 40
48.0
 40
48.0
 40
49.0
 40
49.0
 40
49.0
 40
50.0
 40
50.0
 40
50.0
 40
51.0
 40
51.0
 40
51.0
 40
52.0
 40
52.0
 40
52.0
 40
53.0
 40
53.0
 40
53.0
 40
54.0
 40
54.0
 40
54.0
 40
55.0
 40
55.0
 40
55.0
 40
56.0
 40
56.0
 40
56.0
 40
57.0
 40
57.0
 40
57.0
 40
58.0
 40
58.0
 40
58.0
 40
59.0
 40
59.0
 40
59.0
 40
60.0
 40
60.0
 40
60.0
 40
61.0
 40
61.0
 40
61.0
 40
62.0
 40
62.0
 40
62.0
 40
63.0
 40
63.0
 40
63.0
 40
64.0
 40
64.0
 40
64.0
 40
65.0
 40
65.0
 40
65.0
 40
66.0
 40
66.0
 40
66.0
 40
67.0
 40
67.0
 40
67.0
 40
68.0
 40
68.0
 40
68.0
 40
69.0
 40
69.0
 40
69.0
 40
70.0
 40
70.0
 40
70.0
 40
71.0
 40
71.0
 40
71.0
 40
72.0
 40
72.0
 40
72.0
 40
73.0
 40
73.0
 40
73.0
 40
74.0
 40
74.0
 40
74.0
 40
75.0
 40
75.0
 40
75.0
 40
76.0
 40
76.0
 40
76.0
 40
77.0
 40
77.0
 40
77.0
 40
78.0
 40
78.0
 40
78.0
 40
79.0
 40
79.0
 40
79.0
 40
80.0
 40
80.0
 40
80.0
 40
81.0
 40
81.0
 40
81.0
 40
82.0
 40
82.0
 40
82.0
 40
83.0
 40
83.0
 40
83.0
 40
84.0
 40
84.0
 40
84.0
 40
85.0
 40
85.0
 40
85.0
 40
86.0
 40
86.0
 40
86.0
 40
87.0
 40
87.0
 40
87.0
 40
88.0
 40
88.0
 40
88.0
 40
89.0
 40
89.0
 40
89.0
 40
90.0
 40
90.0
 40
90.0
 40
91.0
 40
91.0
 40
91.0
 40
92.0
 40
92.0
 40
92.0
 40
93.0
 40
93.0
 40
93.0
 40
94.0
 40
94.0
 40
94.0
 40
95.0
 40
95.0
 40
95.0
 40
96.0
 40
96.0
 40
96.0
 40
97.0
 40
97.0
 40
97.0
 40
98.0
 40
98.0
 40
98.0
 40
99.0
 40
99.0
 40
99.0
 40
100.0
 40
100.0
 40
100.0
 40
101.0
 40
101.0
 40
101.0
 40
102.0
 40
102.0
 40
102.0
 40
103.0
 40
103.0
 40
103.0
 40
104.0
 40
104.0
 40
104.0
 40
105.0
 40
105.0
 40
105.0
 40
106.0
 40
106.0
 40
106.0
 40
107.0
 40
107.0
 40
107.0
 40
108.0
 40
108.0
 40
108.0
 40
109.0
 40
109.0
 40
109.0
 40
110.0
 40
110.0
 40
110.0
 40
111.0
 40
111.0
 40
111.0
 40
112.0
 40
112.0
 40
112.0
 40
113.0
 40
113.0
 40
113.0
 40
114.0
 40
114.0
 40
114.0
 40
115.0
 40
115.0
 40
115.0
 40
116.0
 40
116.0
 40
116.0
 40
117.0
 40
117.0
 40
117.0
 40
118.0
 40
118.0
 40
118.0
 40
119.0
 40
119.0
 40
119.0
 40
120.0
 40
120.0
 40
120.0
 40
121.0
 40
121.0
 40
121.0
 40
122.0
 40
122.0
 40
122.0
 40
123.0
 40
123.0
 40
123.0
 40
124.0
 40
124.0
 40
124.0
 40
125.0
 40
125.0
 40
125.0
 40
126.0
 40
126.0
 40
126.0
 40
127.0
 40
127.0
 40
127.0
 40
128.0
 40
128.0
 40
128.0
 40
129.0
 40
129.0
 40
129.0
 40
130.0
 40
130.0
 40
130.0
 40
131.0
 40
131.0
 40
131.0
 40
132.0
 40
132.0
 40
132.0
 40
133.0
 40
133.0
 40
133.0
 40
134.0
 40
134.0
 40
134.0
 40
135.0
 40
135.0
 40
135.0
 40
136.0
 40
136.0
 40
136.0
 40
137.0
 40
137.0
 40
137.0
 40
138.0
 40
138.0
 40
138.0
 40
139.0
 40
139.0
 40
139.0
 40
140.0
 40
140.0
 40
140.0
 40
141.0
 40
141.0
 40
141.0
 40
142.0
 40
142.0
 40
142.0
 40
143.0
 40
143.0
 40
143.0
 40
144.0
 40
144.0
 40
144.0
 40
145.0
 40
145.0
 40
145.0
 40
146.0
 40
146.0
 40
146.0
 40
146.0
 10
149.6137954302745
 20
-174.3641439334024
 30
0.0
 10
149.6853233906098
 20
-174.0385310716796
 30
0.0
 10
149.7112628030445
 20
-173.6960158633108
 30
0.0
 10
149.6844742130195
 20
-173.3435211766865
 30
0.0
 10
149.5561476178579
 20
-171.654949926583
 30
0.0
 10
148.191313859112
 20
-170.3499664258411
 30
0.0
 10
146.5419166875701
 20
-170.143346730936
 30
0.0
 10
146.2310006514611
 20
-170.1043983335303
 30
0.0
 10
145.9397034998034
 20
-169.9708476151258
 30
0.0
 10
145.7181999110611
 20
-169.7492129622808
 30
0.0
 10
145.7181999110611
 20
-169.7492129622808
 30
0.0
 10
145.560013996233
 20
-169.5909334485455
 30
0.0
 10
145.560013996233
 20
-169.5909334485455
 30
0.0
 10
145.3387182635749
 20
-169.3695067747767
 30
0.0
 10
145.2053440208357
 20
-169.0784612409871
 30
0.0
 10
145.1664705400737
 20
-168.7678321605027
 30
0.0
 10
144.9600047975215
 20
-167.1180117043785
 30
0.0
 10
143.654454135258
 20
-165.7529683816798
 30
0.0
 10
141.9654419268394
 20
-165.625044482077
 30
0.0
 10
141.6130042025439
 20
-165.5983512421842
 30
0.0
 10
141.270584845584
 20
-165.6243414863937
 30
0.0
 10
140.9450845992941
 20
-165.6958813399444
 30
0.0
 10
139.5704760231014
 20
-165.9979987648923
 30
0.0
 10
138.1402205202678
 20
-165.5044915898952
 30
0.0
 10
137.1450509401599
 20
-164.5092724265797
 30
0.0
 10
137.1450509401599
 20
-164.5092724265797
 30
0.0
 10
126.3582983476425
 20
-153.7219823962704
 30
0.0
 10
126.3582983476425
 20
-153.7219823962704
 30
0.0
 10
123.5453459417351
 20
-150.9088898381836
 30
0.0
 10
121.9650575164805
 20
-147.0936016778613
 30
0.0
 10
121.9650575164805
 20
-143.1153871313261
 30
0.0
 10
121.9650575164805
 20
-143.1153871313261
 30
0.0
 10
121.9650575164805
 20
-142.9888579648819
 30
0.0
 10
121.9650575164805
 20
-142.9888579648819
 30
0.0
 10
121.9650575164805
 20
-142.4365593571297
 30
0.0
 10
122.4127840007117
 20
-141.9888328728985
 30
0.0
 10
122.9650826084595
 20
-141.9888328728985
 30
0.0
 10
122.9650826084595
 20
-141.9888328728985
 30
0.0
 10
123.4650520907583
 20
-141.9888328728985
 30
0.0
 10
123.4650520907583
 20
-141.9888328728985
 30
0.0
 10
124.0173031316651
 20
-141.9888328728985
 30
0.0
 10
124.4649910553521
 20
-142.4365207965861
 30
0.0
 10
124.4649910553521
 20
-142.9887718374922
 30
0.0
 10
124.4649910553521
 20
-142.9887718374922
 30
0.0
 10
124.4649910553521
 20
-143.3182952206564
 30
0.0
 10
124.4649910553521
 20
-143.3182952206564
 30
0.0
 10
124.4649910553521
 20
-143.8705700449837
 30
0.0
 10
124.9126982593114
 20
-144.3182772489425
 30
0.0
 10
125.4649730836388
 20
-144.3182772489425
 30
0.0
 10
125.4649730836388
 20
-144.3182772489425
 30
0.0
 10
125.9649856296299
 20
-144.3182772489425
 30
0.0
 10
125.9649856296299
 20
-144.3182772489425
 30
0.0
 10
126.5172366705367
 20
-144.3182772489425
 30
0.0
 10
126.9649245942236
 20
-143.8705893252562
 30
0.0
 10
126.9649245942236
 20
-143.3183382843487
 30
0.0
 10
126.9649245942236
 20
-143.3183382843487
 30
0.0
 10
126.9649245942236
 20
-141.9888328728985
 30
0.0
 10
126.9649245942236
 20
-141.9888328728985
 30
0.0
 10
126.9649245942236
 20
-141.9888328728985
 30
0.0
 10
126.9649245942236
 20
-137.7567053240437
 30
0.0
 10
126.9649245942236
 20
-137.7567053240437
 30
0.0
 10
126.9649245942236
 20
-137.7567053240437
 30
0.0
 10
126.9649245942236
 20
-136.4298267978997
 30
0.0
 10
126.9649245942236
 20
-136.4298267978997
 30
0.0
 10
126.9649245942236
 20
-135.8775281901512
 30
0.0
 10
126.5171981099924
 20
-135.4298017059207
 30
0.0
 10
125.9648995022408
 20
-135.4298017059207
 30
0.0
 10
125.9648995022408
 20
-135.4298017059207
 30
0.0
 10
125.4649300199458
 20
-135.4298017059207
 30
0.0
 10
125.4649300199458
 20
-135.4298017059207
 30
0.0
 10
124.912678979039
 20
-135.4298017059207
 30
0.0
 10
124.4649910553521
 20
-135.877489629607
 30
0.0
 10
124.4649910553521
 20
-136.4297406705145
 30
0.0
 10
124.4649910553521
 20
-136.4297406705145
 30
0.0
 10
124.4649910553521
 20
-136.7567663594499
 30
0.0
 10
124.4649910553521
 20
-136.7567663594499
 30
0.0
 10
124.4649910553521
 20
-137.3090174003567
 30
0.0
 10
124.0173031316651
 20
-137.7567053240437
 30
0.0
 10
123.4650520907583
 20
-137.7567053240437
 30
0.0
 10
123.4650520907583
 20
-137.7567053240437
 30
0.0
 10
122.9650826084595
 20
-137.7567053240437
 30
0.0
 10
122.9650826084595
 20
-137.7567053240437
 30
0.0
 10
122.4127840007117
 20
-137.7567053240468
 30
0.0
 10
121.9650575164805
 20
-137.3089788398157
 30
0.0
 10
121.9650575164805
 20
-136.7566802320647
 30
0.0
 10
121.9650575164805
 20
-136.7566802320647
 30
0.0
 10
121.9650575164805
 20
-136.6802554990887
 30
0.0
 10
121.9650575164805
 20
-136.6802554990887
 30
0.0
 10
121.9650575164805
 20
-132.7029199509601
 30
0.0
 10
123.5446496308983
 20
-128.8884006593553
 30
0.0
 10
126.3565048643281
 20
-126.0754541243832
 30
0.0
 10
126.3565048643281
 20
-126.0754541243832
 30
0.0
 10
137.1800866541928
 20
-115.2476716234223
 30
0.0
 10
137.1800866541928
 20
-115.2476716234223
 30
0.0
 10
138.1715058900017
 20
-114.2558676105736
 30
0.0
 10
139.5942298686355
 20
-113.7605723649178
 30
0.0
 10
140.965555634921
 20
-114.0539201853454
 30
0.0
 10
141.2895605820863
 20
-114.1232298617155
 30
0.0
 10
141.6301596071101
 20
-114.1473751155977
 30
0.0
 10
141.9806518304006
 20
-114.1192816304182
 30
0.0
 10
143.6631230473906
 20
-113.9844242011827
 30
0.0
 10
144.96044965377
 20
-112.6226010226017
 30
0.0
 10
145.1664090174003
 20
-110.9785309410699
 30
0.0
 10
145.2053487266624
 20
-110.6676948137107
 30
0.0
 10
145.3386700045666
 20
-110.3764160361515
 30
0.0
 10
145.5601378721142
 20
-110.1548593105166
 30
0.0
 10
145.5601378721142
 20
-110.1548593105166
 30
0.0
 10
145.7186589196007
 20
-109.9962746606755
 30
0.0
 10
145.7186589196007
 20
-109.9962746606755
 30
0.0
 10
145.9402571545255
 20
-109.7745875153578
 30
0.0
 10
146.2316892690727
 20
-109.6411399500547
 30
0.0
 10
146.5427053619761
 20
-109.6021533103169
 30
0.0
 10
148.1869550844331
 20
-109.3960425236692
 30
0.0
 10
149.5488826334096
 20
-108.0984016238603
 30
0.0
 10
149.6833925219805
 20
-106.4156914107558
 30
0.0
 10
149.7118769144797
 20
-106.0593534591203
 30
0.0
 10
149.6863555202796
 20
-105.7132233694753
 30
0.0
 10
149.614271653449
 20
-105.3843596650287
 30
0.0
 10
149.3326187845809
 20
-104.099392447094
 30
0.0
 10
149.6648199538332
 20
-102.758291928697
 30
0.0
 10
150.5948095290913
 20
-101.8279218519948
 30
0.0
 10
150.5948095290913
 20
-101.8279218519948
 30
0.0
 10
152.4146759020691
 20
-100.0073108881067
 30
0.0
 10
152.4146759020691
 20
-100.0073108881067
 30
0.0
 10
153.6381286425059
 20
-98.78335757696829
 30
0.0
 10
153.7831454148984
 20
-96.79148955175272
 30
0.0
 10
152.6411826872536
 20
-95.49117441894778
 30
0.0
 10
151.3895479498968
 20
-94.06597940134316
 30
0.0
 10
149.2163667482582
 20
-94.01302116813982
 30
0.0
 10
147.896291233956
 20
-95.33345500912861
 30
0.0
 10
147.896291233956
 20
-95.33345500912861
 30
0.0
 10
146.2155404693996
 20
-97.01481886843538
 30
0.0
 10
146.2155404693996
 20
-97.01481886843538
 30
0.0
 10
145.2232782806582
 20
-98.00744300896572
 30
0.0
 10
143.7990577981952
 20
-98.50273057071193
 30
0.0
 10
142.4267933557895
 20
-98.20815080954962
 30
0.0
 10
142.1024997454802
 20
-98.13853570380324
 30
0.0
 10
141.7615815347185
 20
-98.11416734248718
 30
0.0
 10
141.4107861044911
 20
-98.14214060921275
 30
0.0
 10
139.7277322511041
 20
-98.27635134942493
 30
0.0
 10
138.4297292115045
 20
-99.63856108692589
 30
0.0
 10
138.223669925424
 20
-101.2831463719008
 30
0.0
 10
138.1847142051554
 20
-101.5940569139058
 30
0.0
 10
138.0513283521721
 20
-101.8853954920069
 30
0.0
 10
137.8297659838427
 20
-102.1069649624026
 30
0.0
 10
137.8297659838427
 20
-102.1069649624026
 30
0.0
 10
137.671298660662
 20
-102.2654373651735
 30
0.0
 10
137.671298660662
 20
-102.2654373651735
 30
0.0
 10
137.4497370861708
 20
-102.487006041706
 30
0.0
 10
137.1584044813695
 20
-102.6204089932293
 30
0.0
 10
136.8474950080912
 20
-102.6593642128879
 30
0.0
 10
135.2023983275633
 20
-102.8654856342539
 30
0.0
 10
133.8399524349132
 20
-104.1642548501507
 30
0.0
 10
133.7063403183801
 20
-105.8479025900957
 30
0.0
 10
133.6784890505179
 20
-106.1988567206201
 30
0.0
 10
133.7030013357303
 20
-106.5399160042235
 30
0.0
 10
133.7727843243323
 20
-106.8643215836447
 30
0.0
 10
134.0680771445808
 20
-108.237072169061
 30
0.0
 10
133.5731188442869
 20
-109.6621324213995
 30
0.0
 10
132.580423971072
 20
-110.6552079009845
 30
0.0
 10
132.580423971072
 20
-110.6552079009845
 30
0.0
 10
121.7745225343252
 20
-121.4652523982636
 30
0.0
 10
121.7745225343252
 20
-121.4652523982636
 30
0.0
 10
118.961243390834
 20
-124.279610173266
 30
0.0
 10
115.1449705993701
 20
-125.8607906134759
 30
0.0
 10
111.165630299152
 20
-125.8607906134759
 30
0.0
 10
111.165630299152
 20
-125.8607906134759
 30
0.0
 10
104.7120622343545
 20
-125.8607906134759
 30
0.0
 10
104.7120622343545
 20
-125.8607906134759
 30
0.0
 10
100.7335628101638
 20
-125.8607906134759
 30
0.0
 10
96.91802547637381
 20
-124.2802764814007
 30
0.0
 10
94.10488565999613
 20
-121.4669684567047
 30
0.0
 10
94.10488565999613
 20
-121.4669684567047
 30
0.0
 10
83.31788979509786
 20
-110.6793275963218
 30
0.0
 10
83.31788979509786
 20
-110.6793275963218
 30
0.0
 10
82.32258560352369
 20
-109.6839638917255
 30
0.0
 10
81.82871763073389
 20
-108.2537189498169
 30
0.0
 10
82.1301862748415
 20
-106.8787658615955
 30
0.0
 10
82.20154725646296
 20
-106.5532991705262
 30
0.0
 10
82.22736078441957
 20
-106.2109518935447
 30
0.0
 10
82.20049634841406
 20
-105.8586230358892
 30
0.0
 10
82.07177106474214
 20
-104.1703824140095
 30
0.0
 10
80.70708321637025
 20
-102.8658249743488
 30
0.0
 10
79.05795577003539
 20
-102.6593267482726
 30
0.0
 10
78.74716427251131
 20
-102.6204104758801
 30
0.0
 10
78.45597184858819
 20
-102.4869519672507
 30
0.0
 10
78.23449498854045
 20
-102.2654709711094
 30
0.0
 10
78.23449498854045
 20
-102.2654709711094
 30
0.0
 10
78.07636816087928
 20
-102.107341190423
 30
0.0
 10
78.07636816087928
 20
-102.107341190423
 30
0.0
 10
77.8548952284718
 20
-101.8858641219932
 30
0.0
 10
77.721442099475
 20
-101.5946755786012
 30
0.0
 10
77.68252951262578
 20
-101.2838892175494
 30
0.0
 10
77.47604686484932
 20
-99.63475725485138
 30
0.0
 10
76.1715657968683
 20
-98.26999847735294
 30
0.0
 10
74.48333982050818
 20
-98.14119549238235
 30
0.0
 10
74.13102769894438
 20
-98.11431588412113
 30
0.0
 10
73.78869193465458
 20
-98.14012181163902
 30
0.0
 10
73.46323018722889
 20
-98.21147334574114
 30
0.0
 10
72.08833964772487
 20
-98.51289294417705
 30
0.0
 10
70.65818206111886
 20
-98.01898701315841
 30
0.0
 10
69.6629329334595
 20
-97.02366950410634
 30
0.0
 10
69.6629329334595
 20
-97.02366950410634
 30
0.0
 10
68.00935006469167
 20
-95.36997302127226
 30
0.0
 10
68.00935006469167
 20
-95.36997302127226
 30
0.0
 10
66.74017688792563
 20
-94.10011082540917
 30
0.0
 10
64.68173233548885
 20
-94.1004553349577
 30
0.0
 10
63.41324817781986
 20
-95.36962851172373
 30
0.0
 10
62.14373049150529
 20
-96.63880168848978
 30
0.0
 10
62.14373049150529
 20
-98.69655722182951
 30
0.0
 10
63.41290366827133
 20
-99.96573039859554
 30
0.0
 10
63.41290366827133
 20
-99.96573039859554
 30
0.0
 10
65.30187811114078
 20
-101.8547915069033
 30
0.0
 10
65.30187811114078
 20
-101.8547915069033
 30
0.0
 10
66.2291960689194
 20
-102.782152009685
 30
0.0
 10
66.56355096216079
 20
-104.1178165531337
 30
0.0
 10
66.28839967256404
 20
-105.4000832433268
 30
0.0
 10
66.21806772851176
 20
-105.7278458689324
 30
0.0
 10
66.19399871532495
 20
-106.0726304244668
 30
0.0
 10
66.2235729205836
 20
-106.4275332874478
 30
0.0
 10
66.36336985135134
 20
-108.1051550708825
 30
0.0
 10
67.72268622127419
 20
-109.3965246710946
 30
0.0
 10
69.36247757596576
 20
-109.6021386966525
 30
0.0
 10
69.67348237821304
 20
-109.6411357002501
 30
0.0
 10
69.9649461495135
 20
-109.7744314406058
 30
0.0
 10
70.18660048790235
 20
-109.9960484696968
 30
0.0
 10
70.18660048790235
 20
-109.9960484696968
 30
0.0
 10
70.34573781515782
 20
-110.1551590106447
 30
0.0
 10
70.34573781515782
 20
-110.1551590106447
 30
0.0
 10
70.56745736583103
 20
-110.3768412410451
 30
0.0
 10
70.70080030540541
 20
-110.6683863419607
 30
0.0
 10
70.73982010121347
 20
-110.9794812245286
 30
0.0
 10
70.94545084216249
 20
-112.6189226897259
 30
0.0
 10
72.2362894665427
 20
-113.9780997696145
 30
0.0
 10
73.91351164589538
 20
-114.1182951047834
 30
0.0
 10
74.26837222078716
 20
-114.1479571244278
 30
0.0
 10
74.6131492873928
 20
-114.1239664643467
 30
0.0
 10
74.94092908089706
 20
-114.0537021536367
 30
0.0
 10
76.22367250556655
 20
-113.7787276605849
 30
0.0
 10
77.5597124389703
 20
-114.1132752457645
 30
0.0
 10
78.48733204044933
 20
-115.0409408861273
 30
0.0
 10
78.48733204044933
 20
-115.0409408861273
 30
0.0
 10
89.57180212487822
 20
-126.125961106252
 30
0.0
 10
89.57180212487822
 20
-126.125961106252
 30
0.0
 10
92.38475514451619
 20
-128.9390537361571
 30
0.0
 10
93.96504396011247
 20
-132.754342319132
 30
0.0
 10
93.96504396011247
 20
-136.7325573504131
 30
0.0
 10
93.96504396011247
 20
-136.7325573504131
 30
0.0
 10
93.96504396011247
 20
-136.7325645636679
 30
0.0
 10
93.96504396011247
 20
-136.7325645636679
 30
0.0
 10
93.96504396011247
 20
-137.2849107379852
 30
0.0
 10
93.51727891562325
 20
-137.7326757825771
 30
0.0
 10
92.96493274130208
 20
-137.7326757827003
 30
0.0
 10
92.96493274130208
 20
-137.7326757827003
 30
0.0
 10
92.46509244952762
 20
-137.7326757828101
 30
0.0
 10
92.46509244952762
 20
-137.7326757828101
 30
0.0
 10
91.91281762523495
 20
-137.7326757829333
 30
0.0
 10
91.46511042124092
 20
-137.2849685790381
 30
0.0
 10
91.46511042124092
 20
-136.7326937547454
 30
0.0
 10
91.46511042124092
 20
-136.7326937547454
 30
0.0
 10
91.46511042124092
 20
-136.403213435278
 30
0.0
 10
91.46511042124092
 20
-136.403213435278
 30
0.0
 10
91.46511042124092
 20
-135.8509386109501
 30
0.0
 10
91.01740321728155
 20
-135.4032314069875
 30
0.0
 10
90.46512839295423
 20
-135.4032314069875
 30
0.0
 10
90.46512839295423
 20
-135.4032314069875
 30
0.0
 10
89.96511584696314
 20
-135.4032314069875
 30
0.0
 10
89.96511584696314
 20
-135.4032314069875
 30
0.0
 10
89.4128648060563
 20
-135.4032314069875
 30
0.0
 10
88.96517688236938
 20
-135.8509193306783
 30
0.0
 10
88.96517688236938
 20
-136.4031703715813
 30
0.0
 10
88.96517688236938
 20
-136.4031703715813
 30
0.0
 10
88.96517688236938
 20
-137.7326757830359
 30
0.0
 10
88.96517688236938
 20
-137.7326757830359
 30
0.0
 10
88.96517688236938
 20
-137.7326757830359
 30
0.0
 10
88.96517688236938
 20
-141.9648033318914
 30
0.0
 10
88.96517688236938
 20
-141.9648033318914
 30
0.0
 10
88.96517688236938
 20
-141.9648033318914
 30
0.0
 10
88.96517688236938
 20
-143.2916818580354
 30
0.0
 10
88.96517688236938
 20
-143.2916818580354
 30
0.0
 10
88.96517688236938
 20
-143.8439804657826
 30
0.0
 10
89.41290336660055
 20
-144.2917069500137
 30
0.0
 10
89.96520197434835
 20
-144.2917069500137
 30
0.0
 10
89.96520197434835
 20
-144.2917069500137
 30
0.0
 10
90.4650853292581
 20
-144.2917069500137
 30
0.0
 10
90.4650853292581
 20
-144.2917069500137
 30
0.0
 10
91.01738393700975
 20
-144.2917069500137
 30
0.0
 10
91.46511042124092
 20
-143.8439804657826
 30
0.0
 10
91.46511042124092
 20
-143.2916818580354
 30
0.0
 10
91.46511042124092
 20
-143.2916818580354
 30
0.0
 10
91.46511042124092
 20
-142.9648284238698
 30
0.0
 10
91.46511042124092
 20
-142.9648284238698
 30
0.0
 10
91.46511042124092
 20
-142.4125298161213
 30
0.0
 10
91.91283690547209
 20
-141.9648033318914
 30
0.0
 10
92.46513551321989
 20
-141.9648033318914
 30
0.0
 10
92.46513551321989
 20
-141.9648033318914
 30
0.0
 10
92.96493274074444
 20
-141.9648033318914
 30
0.0
 10
92.96493274074444
 20
-141.9648033318914
 30
0.0
 10
93.51727891533704
 20
-141.9648033318914
 30
0.0
 10
93.96504396011247
 20
-142.4125683766662
 30
0.0
 10
93.96504396011247
 20
-142.9649145512595
 30
0.0
 10
93.96504396011247
 20
-142.9649145512595
 30
0.0
 10
93.96504396011247
 20
-143.0737546292682
 30
0.0
 10
93.96504396011247
 20
-143.0737546292682
 30
0.0
 10
93.96504396011247
 20
-147.0510970498748
 30
0.0
 10
92.3854464046406
 20
-150.8656223536458
 30
0.0
 10
89.57358259681286
 20
-153.6785700348169
 30
0.0
 10
89.57358259681286
 20
-153.6785700348169
 30
0.0
 10
78.75202945601002
 20
-164.504294498902
 30
0.0
 10
78.75202945601002
 20
-164.504294498902
 30
0.0
 10
77.75744272145705
 20
-165.4992646112148
 30
0.0
 10
76.32858825241902
 20
-165.993883618134
 30
0.0
 10
74.95399468675845
 20
-165.6944494414062
 30
0.0
 10
74.62876503427054
 20
-165.6236031376879
 30
0.0
 10
74.28673780079629
 20
-165.5982444084396
 30
0.0
 10
73.93479110729635
 20
-165.6255007706045
 30
0.0
 10
72.24831542383691
 20
-165.7561091634583
 30
0.0
 10
70.94604827820427
 20
-167.1200576833885
 30
0.0
 10
70.73972862917408
 20
-168.7676591371809
 30
0.0
 10
70.700808340798
 20
-169.0784638715271
 30
0.0
 10
70.56739423443805
 20
-169.3696828797285
 30
0.0
 10
70.34592000874392
 20
-169.5911857896251
 30
0.0
 10
70.34592000874392
 20
-169.5911857896251
 30
0.0
 10
70.18771820071701
 20
-169.7494080871305
 30
0.0
 10
70.18771820071701
 20
-169.7494080871305
 30
0.0
 10
69.96621428303335
 20
-169.9709406928617
 30
0.0
 10
69.67496597223823
 20
-170.1044037342118
 30
0.0
 10
69.36412016218016
 20
-170.1433339707878
 30
0.0
 10
67.71588843445585
 20
-170.3497580209579
 30
0.0
 10
66.35163743828421
 20
-171.6529657024989
 30
0.0
 10
66.22177437796766
 20
-173.3401754272112
 30
0.0
 10
66.19467631368644
 20
-173.6922394973919
 30
0.0
 10
66.22020884744364
 20
-174.0343524757737
 30
0.0
 10
66.29123834175068
 20
-174.3596359766348
 30
0.0
 10
66.59142787231794
 20
-175.7343705481778
 30
0.0
 10
66.09732437542834
 20
-177.1637687669288
 30
0.0
 10
65.10252634693217
 20
-178.1589500463684
 30
0.0
 10
65.10252634693217
 20
-178.1589500463684
 30
0.0
 10
63.49303586891758
 20
-179.7690605886792
 30
0.0
 10
63.49303586891758
 20
-179.7690605886792
 30
0.0
 10
62.21314435894995
 20
-181.0494451832869
 30
0.0
 10
62.14661984065302
 20
-183.2107190053904
 30
0.0
 10
63.44285461724797
 20
-184.4745553837801
 30
0.0
 10
64.07361272025327
 20
-185.0895481697598
 30
0.0
 10
64.89220276835559
 20
-185.3972082418207
 30
0.0
 10
65.71112686648151
 20
-185.3972082418207
 30
0.0
 10
66.54311742616933
 20
-185.3972082418207
 30
0.0
 10
67.37510798585717
 20
-185.0795704380807
 30
0.0
 10
68.0096945742402
 20
-184.4446393401491
 30
0.0
 10
68.0096945742402
 20
-184.4446393401491
 30
0.0
 10
69.93125155101787
 20
-182.5223846130214
 30
0.0
 10
69.93125155101787
 20
-182.5223846130214
 30
0.0
 10
70.85867307745123
 20
-181.5946263238986
 30
0.0
 10
72.19494810050912
 20
-181.2606019466825
 30
0.0
 10
73.47732864811036
 20
-181.5369102199104
 30
0.0
 10
73.80525866319418
 20
-181.6075676985951
 30
0.0
 10
74.15026456013162
 20
-181.6319143873719
 30
0.0
 10
74.50541891348733
 20
-181.6025588004991
 30
0.0
 10
76.18413202968036
 20
-181.4638033319268
 30
0.0
 10
77.47680906771458
 20
-180.1038917746982
 30
0.0
 10
77.68246904000945
 20
-178.4631247744369
 30
0.0
 10
77.72144206808437
 20
-178.152195731449
 30
0.0
 10
77.85471770423828
 20
-177.8608059891011
 30
0.0
 10
78.0762548683312
 20
-177.6391823179457
 30
0.0
 10
78.0762548683312
 20
-177.6391823179457
 30
0.0
 10
78.23509046407618
 20
-177.480284699201
 30
0.0
 10
78.23509046407618
 20
-177.480284699201
 30
0.0
 10
78.45675354091208
 20
-177.2585350661356
 30
0.0
 10
78.74829095416413
 20
-177.1251359323501
 30
0.0
 10
79.05939380542448
 20
-177.0861175349608
 30
0.0
 10
80.70037627107452
 20
-176.8803061587816
 30
0.0
 10
82.06040769565841
 20
-175.5872619600698
 30
0.0
 10
82.19877671503234
 20
-173.9082681171811
 30
0.0
 10
82.22805426514289
 20
-173.5530092117419
 30
0.0
 10
82.20358865461397
 20
-173.2078887959977
 30
0.0
 10
82.13278266699247
 20
-172.8798511119647
 30
0.0
 10
81.85582367514844
 20
-171.5967253579445
 30
0.0
 10
82.18948556007443
 20
-170.2594435065616
 30
0.0
 10
83.11750777321788
 20
-169.3310617124139
 30
0.0
 10
83.11750777321788
 20
-169.3310617124139
 30
0.0
 10
94.18795916108722
 20
-158.2563208539446
 30
0.0
 10
94.18795916108722
 20
-158.2563208539446
 30
0.0
 10
97.0012400448002
 20
-155.441949907576
 30
0.0
 10
100.8175220586754
 20
-153.8607611061514
 30
0.0
 10
104.7968729045319
 20
-153.8607611061514
 30
0.0
 10
104.7968729045319
 20
-153.8607611061514
 30
0.0
 10
111.0914656963855
 20
-153.8607611061514
 30
0.0
 10
111.0914656963855
 20
-153.8607611061514
 30
0.0
 10
115.0699451757872
 20
-153.8607611061514
 30
0.0
 10
118.8854650625176
 20
-155.4412594456674
 30
0.0
 10
121.6986015573975
 20
-158.254542586268
 30
0.0
 10
121.6986015573975
 20
-158.254542586268
 30
0.0
 10
132.7848350346389
 20
-169.3413539767158
 30
0.0
 10
132.7848350346389
 20
-169.3413539767158
 30
0.0
 10
133.7118925948238
 20
-170.2684598633966
 30
0.0
 10
134.0464725317194
 20
-171.6036162134816
 30
0.0
 10
133.7719763565735
 20
-172.8856508833909
 30
0.0
 10
133.7018211341394
 20
-173.2133109223223
 30
0.0
 10
133.677898692616
 20
-173.5579664237601
 30
0.0
 10
133.7075822564669
 20
-173.9127303245329
 30
0.0
 10
133.8479087892748
 20
-175.5898466037964
 30
0.0
 10
135.206970375886
 20
-176.8805935095926
 30
0.0
 10
136.8463242156447
 20
-177.0861378630957
 30
0.0
 10
137.1572987361951
 20
-177.125128259941
 30
0.0
 10
137.4487404553182
 20
-177.2583896408316
 30
0.0
 10
137.6703931393209
 20
-177.4799646645916
 30
0.0
 10
137.6703931393209
 20
-177.4799646645916
 30
0.0
 10
137.8295608475652
 20
-177.6390766054008
 30
0.0
 10
137.8295608475652
 20
-177.6390766054008
 30
0.0
 10
138.0513433757289
 20
-177.8607814278342
 30
0.0
 10
138.1847066105241
 20
-178.1523828451675
 30
0.0
 10
138.2237423223665
 20
-178.4635367159292
 30
0.0
 10
138.4293478525176
 20
-180.1024195116054
 30
0.0
 10
139.7193762610561
 20
-181.4613054987811
 30
0.0
 10
141.3959600967495
 20
-181.602165079417
 30
0.0
 10
141.7506959941144
 20
-181.6319685098654
 30
0.0
 10
142.0953711784171
 20
-181.6081406355551
 30
0.0
 10
142.4230706795087
 20
-181.538062654274
 30
0.0
 10
143.7057205721206
 20
-181.2637701549962
 30
0.0
 10
145.0413734957684
 20
-181.5985497014747
 30
0.0
 10
145.9688294741377
 20
-182.5260476962808
 30
0.0
 10
145.9688294741377
 20
-182.5260476962808
 30
0.0
 10
147.8921571193737
 20
-184.4494624738285
 30
0.0
 10
147.8921571193737
 20
-184.4494624738285
 30
0.0
 10
148.5267437077568
 20
-185.08439357176
 30
0.0
 10
149.3583897578961
 20
-185.4016868659515
 30
0.0
 10
150.1903803175839
 20
-185.4016868659515
 30
0.0
 10
151.0094940494844
 20
-185.4016868659515
 30
0.0
 10
151.8289419861363
 20
-185.0938842910713
 30
0.0
 10
152.4594501029056
 20
-184.4782775648913
 30
0.0
 10
153.754617817476
 20
-183.2137197655315
 30
0.0
 10
153.6862827536159
 20
-181.0514345119007
 30
0.0
 10
152.4063570148973
 20
-179.7714517228936
 30
0.0
 10
152.4063570148973
 20
-179.7714517228936
 30
0.0
 10
150.8011974087374
 20
-178.1662205697569
 30
0.0
 10
150.8011974087374
 20
-178.1662205697569
 30
0.0
 10
149.8054993108939
 20
-177.1704780905421
 30
0.0
 10
149.3116660021292
 20
-175.7395113736233
 30
0.0
 10
149.6137954302745
 20
-174.3641439334024
 30
0.0
  0
SPLINE
  5
42
330
1F
100
AcDbEntity
  8
Layer 1
 62
     1
420
 15597568
370
    18
100
AcDbSpline
210
0.0
220
0.0
230
1.0
 70
    11
 71
     3
 72
    17
 73
    13
 74
     0
 42
0.0000000001
 43
0.0000000001
 12
1.0
 22
0.0
 32
0.0
 13
1.0
 23
0.0
 33
0.0
 40
0.0
 40
0.0
 40
0.0
 40
0.0
 40
1.0
 40
1.0
 40
1.0
 40
2.0
 40
2.0
 40
2.0
 40
3.0
 40
3.0
 40
3.0
 40
4.0
 40
4.0
 40
4.0
 40
4.0
 10
150.1948589417147
 20
-96.13086542288197
 30
0.0
 10
151.023232151143
 20
-96.13086542288197
 30
0.0
 10
151.6948535159925
 20
-96.80244372403915
 30
0.0
 10
151.6948535159925
 20
-97.63085999715975
 30
0.0
 10
151.6948535159925
 20
-98.45927627028485
 30
0.0
 10
151.023232151143
 20
-99.13085457143752
 30
0.0
 10
150.1948589417147
 20
-99.13085457143752
 30
0.0
 10
149.3664857322864
 20
-99.13085457143752
 30
0.0
 10
148.694864367437
 20
-98.45927627028485
 30
0.0
 10
148.694864367437
 20
-97.63085999715975
 30
0.0
 10
148.694864367437
 20
-96.80244372403915
 30
0.0
 10
149.3664857322864
 20
-96.13086542288197
 30
0.0
 10
150.1948589417147
 20
-96.13086542288197
 30
0.0
  0
SPLINE
  5
43
330
1F
100
AcDbEntity
  8
Layer 1
 62
     1
420
 15597568
370
    18
100
AcDbSpline
210
0.0
220
0.0
230
1.0
 70
    11
 71
     3
 72
   203
 73
   199
 74
     0
 42
0.0000000001
 43
0.0000000001
 12
1.0
 22
0.0
 32
0.0
 13
1.0
 23
0.0
 33
0.0
 40
0.0
 40
0.0
 40
0.0
 40
0.0
 40
1.0
 40
1.0
 40
1.0
 40
2.0
 40
2.0
 40
2.0
 40
3.0
 40
3.0
 40
3.0
 40
4.0
 40
4.0
 40
4.0
 40
5.0
 40
5.0
 40
5.0
 40
6.0
 40
6.0
 40
6.0
 40
7.0
 40
7.0
 40
7.0
 40
8.0
 40
8.0
 40
8.0
 40
9.0
 40
9.0
 40
9.0
 40
10.0
 40
10.0
 40
10.0
 40
11.0
 40
11.0
 40
11.0
 40
12.0
 40
12.0
 40
12.0
 40
13.0
 40
13.0
 40
13.0
 40
14.0
 40
14.0
 40
14.0
 40
15.0
 40
15.0
 40
15.0
 40
16.0
 40
16.0
 40
16.0
 40
17.0
 40
17.0
 40
17.0
 40
18.0
 40
18.0
 40
18.0
 40
19.0
 40
19.0
 40
19.0
 40
20.0
 40
20.0
 40
20.0
 40
21.0
 40
21.0
 40
21.0
 40
22.0
 40
22.0
 40
22.0
 40
23.0
 40
23.0
 40
23.0
 40
24.0
 40
24.0
 40
24.0
 40
25.0
 40
25.0
 40
25.0
 40
26.0
 40
26.0
 40
26.0
 40
27.0
 40
27.0
 40
27.0
 40
28.0
 40
28.0
 40
28.0
 40
29.0
 40
29.0
 40
29.0
 40
30.0
 40
30.0
 40
30.0
 40
31.0
 40
31.0
 40
31.0
 40
32.0
 40
32.0
 40
32.0
 40
33.0
 40
33.0
 40
33.0
 40
34.0
 40
34.0
 40
34.0
 40
35.0
 40
35.0
 40
35.0
 40
36.0
 40
36.0
 40
36.0
 40
37.0
 40
37.0
 40
37.0
 40
38.0
 40
38.0
 40
38.0
 40
39.0
 40
39.0
 40
39.0
 40
40.0
 40
40.0
 40
40.0
 40
41.0
 40
41.0
 40
41.0
 40
42.0
 40
42.0
 40
42.0
 40
43.0
 40
43.0
 40
43.0
 40
44.0
 40
44.0
 40
44.0
 40
45.0
 40
45.0
 40
45.0
 40
46.0
 40
46.0
 40
46.0
 40
47.0
 40
47.0
 40
47.0
 40
48.0
 40
48.0
 40
48.0
 40
49.0
 40
49.0
 40
49.0
 40
50.0
 40
50.0
 40
50.0
 40
51.0
 40
51.0
 40
51.0
 40
52.0
 40
52.0
 40
52.0
 40
53.0
 40
53.0
 40
53.0
 40
54.0
 40
54.0
 40
54.0
 40
55.0
 40
55.0
 40
55.0
 40
56.0
 40
56.0
 40
56.0
 40
57.0
 40
57.0
 40
57.0
 40
58.0
 40
58.0
 40
58.0
 40
59.0
 40
59.0
 40
59.0
 40
60.0
 40
60.0
 40
60.0
 40
61.0
 40
61.0
 40
61.0
 40
62.0
 40
62.0
 40
62.0
 40
63.0
 40
63.0
 40
63.0
 40
64.0
 40
64.0
 40
64.0
 40
65.0
 40
65.0
 40
65.0
 40
66.0
 40
66.0
 40
66.0
 40
66.0
 10
136.195024418305
 20
-106.1308148968392
 30
0.0
 10
136.195024418305
 20
-106.0617407323599
 30
0.0
 10
136.2020868640497
 20
-105.9943460519265
 30
0.0
 10
136.2153504816679
 20
-105.9292768109521
 30
0.0
 10
136.2420499716786
 20
-105.7990522016096
 30
0.0
 10
136.2938986587316
 20
-105.6780432226883
 30
0.0
 10
136.3657288995991
 20
-105.5716758995831
 30
0.0
 10
136.4735603882874
 20
-105.412081851227
 30
0.0
 10
136.6263503730582
 20
-105.2853023373698
 30
0.0
 10
136.8058398478398
 20
-105.2093810456123
 30
0.0
 10
136.9253846611779
 20
-105.158781205676
 30
0.0
 10
137.0569873087145
 20
-105.1307898048564
 30
0.0
 10
137.1949633828987
 20
-105.1307898048564
 30
0.0
 10
137.2158062105845
 20
-105.1307898048564
 30
0.0
 10
137.5610047782065
 20
-105.1307898048564
 30
0.0
 10
138.1027460432621
 20
-105.1307898048564
 30
0.0
 10
138.4622417571479
 20
-105.1307898048564
 30
0.0
 10
138.9071758390679
 20
-105.1307898048564
 30
0.0
 10
139.4043031175894
 20
-105.1307898048564
 30
0.0
 10
139.6563118523355
 20
-104.5545545212554
 30
0.0
 10
140.1188159212303
 20
-104.0920935160535
 30
0.0
 10
140.6950081411383
 20
-103.8401709086966
 30
0.0
 10
140.6950081411383
 20
-103.3425268658522
 30
0.0
 10
140.6950081411383
 20
-102.8971190833017
 30
0.0
 10
140.6950081411383
 20
-102.5375372420268
 30
0.0
 10
140.6950081411383
 20
-101.9971740151654
 30
0.0
 10
140.6950081411383
 20
-101.6525783392552
 30
0.0
 10
140.6950081411383
 20
-101.6307881103091
 30
0.0
 10
140.6950081411383
 20
-101.6307881103091
 30
0.0
 10
140.6950081411383
 20
-101.6307450466168
 30
0.0
 10
140.6950081411383
 20
-101.6307450466168
 30
0.0
 10
140.6950081411383
 20
-101.4236517442604
 30
0.0
 10
140.7580533885184
 20
-101.2312862251021
 30
0.0
 10
140.8657126224325
 20
-101.0716921767498
 30
0.0
 10
141.0095453589416
 20
-100.8588714031466
 30
0.0
 10
141.2331320559343
 20
-100.7043588706331
 30
0.0
 10
141.493409019845
 20
-100.651132145386
 30
0.0
 10
141.5585213245162
 20
-100.6377824003826
 30
0.0
 10
141.6258729412528
 20
-100.630806082023
 30
0.0
 10
141.6949471057321
 20
-100.630806082023
 30
0.0
 10
141.6949471057321
 20
-100.630806082023
 30
0.0
 10
141.6985644559916
 20
-100.6311505915716
 30
0.0
 10
141.6985644559916
 20
-100.6311505915716
 30
0.0
 10
141.7622987224687
 20
-100.6314089737349
 30
0.0
 10
141.8243104412032
 20
-100.6379546551568
 30
0.0
 10
141.8845996121951
 20
-100.6499263619662
 30
0.0
 10
141.9271465414379
 20
-100.6581084637456
 30
0.0
 10
141.9672819038411
 20
-100.6722333552351
 30
0.0
 10
142.0077617757928
 20
-100.6856692276276
 30
0.0
 10
142.0237814697992
 20
-100.6910952530149
 30
0.0
 10
142.0404901829026
 20
-100.6944542211149
 30
0.0
 10
142.0559931125863
 20
-100.7006553929884
 30
0.0
 10
142.1083585639621
 20
-100.7209814563514
 30
0.0
 10
142.1576234294011
 20
-100.7466043540197
 30
0.0
 10
142.2053380018718
 20
-100.7750694554698
 30
0.0
 10
142.2068882948402
 20
-100.7761029841154
 30
0.0
 10
142.2087830973571
 20
-100.7768350669047
 30
0.0
 10
142.2087830973571
 20
-100.7768350669047
 30
0.0
 10
142.2602872748616
 20
-100.8080993084314
 30
0.0
 10
142.3066238091382
 20
-100.8427225180582
 30
0.0
 10
142.3503765218009
 20
-100.8810061416412
 30
0.0
 10
142.3503765218009
 20
-100.8810061416412
 30
0.0
 10
142.3507210313494
 20
-100.8812645238007
 30
0.0
 10
142.3507210313494
 20
-100.8812645238007
 30
0.0
 10
142.3507210313494
 20
-100.8812645238007
 30
0.0
 10
142.3507210313494
 20
-100.8812645238007
 30
0.0
 10
142.3507210313494
 20
-100.8812645238007
 30
0.0
 10
142.5600105820783
 20
-101.0645866673083
 30
0.0
 10
142.6950583251001
 20
-101.3306772298515
 30
0.0
 10
142.6950583251001
 20
-101.6307881103091
 30
0.0
 10
142.6950583251001
 20
-101.6667032307447
 30
0.0
 10
142.6950583251001
 20
-102.5945966360045
 30
0.0
 10
142.6950583251001
 20
-103.8402570360818
 30
0.0
 10
143.2712505450081
 20
-104.0921796434426
 30
0.0
 10
143.7335823591287
 20
-104.5545975849483
 30
0.0
 10
143.9855910938747
 20
-105.1307898048564
 30
0.0
 10
145.2320266404381
 20
-105.1307898048564
 30
0.0
 10
146.1603076189386
 20
-105.1307898048564
 30
0.0
 10
146.1949308285654
 20
-105.1307898048564
 30
0.0
 10
146.5587329118078
 20
-105.1307898048564
 30
0.0
 10
146.8741314034824
 20
-105.3270741201304
 30
0.0
 10
147.0489699993589
 20
-105.6175817969222
 30
0.0
 10
147.0489699993589
 20
-105.6175817969222
 30
0.0
 10
147.0515538209728
 20
-105.6222326758272
 30
0.0
 10
147.0515538209728
 20
-105.6222326758272
 30
0.0
 10
147.0798036039518
 20
-105.6697749935237
 30
0.0
 10
147.1052973105427
 20
-105.7187814768033
 30
0.0
 10
147.1254511191314
 20
-105.7709746734048
 30
0.0
 10
147.1316522910049
 20
-105.7865637304737
 30
0.0
 10
147.1350973864901
 20
-105.8033585709662
 30
0.0
 10
147.1404372844922
 20
-105.8192921375835
 30
0.0
 10
147.1537009021104
 20
-105.8595566910681
 30
0.0
 10
147.1676535388257
 20
-105.8993906076156
 30
0.0
 10
147.175749513216
 20
-105.9417222183912
 30
0.0
 10
147.1879796021887
 20
-106.0027865358654
 30
0.0
 10
147.1948697931592
 20
-106.065702592168
 30
0.0
 10
147.1948697931592
 20
-106.1304703872907
 30
0.0
 10
147.1948697931592
 20
-106.1304703872907
 30
0.0
 10
147.1948697931592
 20
-106.1308148968392
 30
0.0
 10
147.1948697931592
 20
-106.1308148968392
 30
0.0
 10
147.1948697931592
 20
-106.1308148968392
 30
0.0
 10
147.1948697931592
 20
-106.1308148968392
 30
0.0
 10
147.1948697931592
 20
-106.1308148968392
 30
0.0
 10
147.1948697931592
 20
-106.1308148968392
 30
0.0
 10
147.1948697931592
 20
-106.1308148968392
 30
0.0
 10
147.1948697931592
 20
-106.1308148968392
 30
0.0
 10
147.1948697931592
 20
-106.1998459976217
 30
0.0
 10
147.1879796021887
 20
-106.2672406780551
 30
0.0
 10
147.1745437297962
 20
-106.3323529827263
 30
0.0
 10
147.1213170045491
 20
-106.5927160740221
 30
0.0
 10
146.9668044720356
 20
-106.8162166436296
 30
0.0
 10
146.7540698258215
 20
-106.9599632527498
 30
0.0
 10
146.5943896500801
 20
-107.0677947414381
 30
0.0
 10
146.4019810672289
 20
-107.130753861433
 30
0.0
 10
146.1949308285654
 20
-107.130753861433
 30
0.0
 10
146.1603076189386
 20
-107.130753861433
 30
0.0
 10
145.2320266404381
 20
-107.130753861433
 30
0.0
 10
143.9855910938747
 20
-107.130753861433
 30
0.0
 10
143.7335823591287
 20
-107.706946081341
 30
0.0
 10
143.2712505450081
 20
-108.1693640228467
 30
0.0
 10
142.6950583251001
 20
-108.4213296938998
 30
0.0
 10
142.6950583251001
 20
-108.9221173863738
 30
0.0
 10
142.6950583251001
 20
-109.3699367357634
 30
0.0
 10
142.6950583251001
 20
-109.7306812967619
 30
0.0
 10
142.6950583251001
 20
-110.2671687912044
 30
0.0
 10
142.6950583251001
 20
-110.6091806455007
 30
0.0
 10
142.6950583251001
 20
-110.6307986196725
 30
0.0
 10
142.6950583251001
 20
-110.6307986196725
 30
0.0
 10
142.6950583251001
 20
-110.6307986196725
 30
0.0
 10
142.6950583251001
 20
-110.6307986196725
 30
0.0
 10
142.6950583251001
 20
-110.699829720455
 30
0.0
 10
142.6879958793554
 20
-110.7672244008884
 30
0.0
 10
142.6747322617371
 20
-110.8323367055596
 30
0.0
 10
142.5815424288611
 20
-111.2880367108691
 30
0.0
 10
142.1781217475384
 20
-111.6307806479586
 30
0.0
 10
141.6949471057321
 20
-111.6307806479586
 30
0.0
 10
141.6927077936667
 20
-111.6307806479586
 30
0.0
 10
141.6904684816012
 20
-111.6301346925544
 30
0.0
 10
141.6882291695358
 20
-111.6301346925544
 30
0.0
 10
141.6258729412528
 20
-111.6297040556207
 30
0.0
 10
141.5648947511639
 20
-111.6234167563582
 30
0.0
 10
141.5059836183661
 20
-111.6117034317084
 30
0.0
 10
141.4648147273174
 20
-111.6038227757846
 30
0.0
 10
141.4262296578826
 20
-111.5901715849255
 30
0.0
 10
141.3869555693507
 20
-111.5774247316301
 30
0.0
 10
141.3699023466988
 20
-111.5716972603865
 30
0.0
 10
141.3519878501754
 20
-111.5680368464347
 30
0.0
 10
141.335279137072
 20
-111.5613619739308
 30
0.0
 10
141.2842917238903
 20
-111.5416818659726
 30
0.0
 10
141.2365771514196
 20
-111.5167910510897
 30
0.0
 10
141.1900683623687
 20
-111.489402541982
 30
0.0
 10
141.1874845407548
 20
-111.4878091853207
 30
0.0
 10
141.1845562095923
 20
-111.4866464655938
 30
0.0
 10
141.1819723879784
 20
-111.4850100452402
 30
0.0
 10
141.132535267765
 20
-111.455296096678
 30
0.0
 10
141.0868877525855
 20
-111.4212757787631
 30
0.0
 10
141.0434795494713
 20
-111.3837673016662
 30
0.0
 10
141.0434795494713
 20
-111.3837673016662
 30
0.0
 10
141.0429627851485
 20
-111.3833797284254
 30
0.0
 10
141.0429627851485
 20
-111.3833797284254
 30
0.0
 10
141.0429627851485
 20
-111.3833797284254
 30
0.0
 10
141.0429627851485
 20
-111.3833797284254
 30
0.0
 10
141.0429627851485
 20
-111.3833797284254
 30
0.0
 10
140.8316061771285
 20
-111.200014521221
 30
0.0
 10
140.6950081411383
 20
-110.9326320478727
 30
0.0
 10
140.6950081411383
 20
-110.6307986196725
 30
0.0
 10
140.6950081411383
 20
-110.5948834992369
 30
0.0
 10
140.6950081411383
 20
-109.6670331576739
 30
0.0
 10
140.6950081411383
 20
-108.4213727575927
 30
0.0
 10
140.1188159212303
 20
-108.1694501502358
 30
0.0
 10
139.6563118523355
 20
-107.7070322087262
 30
0.0
 10
139.4043031175894
 20
-107.130753861433
 30
0.0
 10
138.1578675710261
 20
-107.130753861433
 30
0.0
 10
137.2295865925255
 20
-107.130753861433
 30
0.0
 10
137.1949633828987
 20
-107.130753861433
 30
0.0
 10
136.8325393378504
 20
-107.130753861433
 30
0.0
 10
136.5181743748214
 20
-106.9360198391273
 30
0.0
 10
136.3426467598479
 20
-106.6473208374633
 30
0.0
 10
136.3416132312024
 20
-106.6455121623355
 30
0.0
 10
136.340751957331
 20
-106.6434881687366
 30
0.0
 10
136.3395461739112
 20
-106.6416364299127
 30
0.0
 10
136.3111241361579
 20
-106.5940941122162
 30
0.0
 10
136.285630429567
 20
-106.5450445652437
 30
0.0
 10
136.2651321114298
 20
-106.4928083049499
 30
0.0
 10
136.2585864300078
 20
-106.4764441013949
 30
0.0
 10
136.2551413345226
 20
-106.458787987035
 30
0.0
 10
136.2494569269719
 20
-106.4419500828495
 30
0.0
 10
136.2361933093537
 20
-106.4021161663026
 30
0.0
 10
136.2222406726384
 20
-106.3627559503817
 30
0.0
 10
136.2141446982481
 20
-106.3208980402359
 30
0.0
 10
136.2019146092755
 20
-106.2594030858242
 30
0.0
 10
136.195024418305
 20
-106.1960133288956
 30
0.0
 10
136.195024418305
 20
-106.1308148968392
 30
0.0
 10
136.195024418305
 20
-106.1308148968392
 30
0.0
 10
136.195024418305
 20
-106.1308148968392
 30
0.0
 10
136.195024418305
 20
-106.1308148968392
 30
0.0
 10
136.195024418305
 20
-106.1308148968392
 30
0.0
 10
136.195024418305
 20
-106.1308148968392
 30
0.0
 10
136.195024418305
 20
-106.1308148968392
 30
0.0
  0
SPLINE
  5
44
330
1F
100
AcDbEntity
  8
Layer 1
 62
     1
420
 15597568
370
    18
100
AcDbSpline
210
0.0
220
0.0
230
1.0
 70
    11
 71
     3
 72
    17
 73
    13
 74
     0
 42
0.0000000001
 43
0.0000000001
 12
1.0
 22
0.0
 32
0.0
 13
1.0
 23
0.0
 33
0.0
 40
0.0
 40
0.0
 40
0.0
 40
0.0
 40
1.0
 40
1.0
 40
1.0
 40
2.0
 40
2.0
 40
2.0
 40
3.0
 40
3.0
 40
3.0
 40
4.0
 40
4.0
 40
4.0
 40
4.0
 10
65.71095461170724
 20
-99.16784628421168
 30
0.0
 10
64.88258140227892
 20
-99.16784628421168
 30
0.0
 10
64.21096003742946
 20
-98.49631104675129
 30
0.0
 10
64.21096003742946
 20
-97.6678517099339
 30
0.0
 10
64.21096003742946
 20
-96.83943543681265
 30
0.0
 10
64.88258140227892
 20
-96.16785713565612
 30
0.0
 10
65.71095461170724
 20
-96.16785713565612
 30
0.0
 10
66.53950007590983
 20
-96.16785713565612
 30
0.0
 10
67.21112144075929
 20
-96.83943543681265
 30
0.0
 10
67.21112144075929
 20
-97.6678517099339
 30
0.0
 10
67.21112144075929
 20
-98.49631104675129
 30
0.0
 10
66.53950007590983
 20
-99.16784628421168
 30
0.0
 10
65.71095461170724
 20
-99.16784628421168
 30
0.0
  0
SPLINE
  5
45
330
1F
100
AcDbEntity
  8
Layer 1
 62
     1
420
 15597568
370
    18
100
AcDbSpline
210
0.0
220
0.0
230
1.0
 70
    11
 71
     3
 72
   161
 73
   157
 74
     0
 42
0.0000000001
 43
0.0000000001
 12
1.0
 22
0.0
 32
0.0
 13
1.0
 23
0.0
 33
0.0
 40
0.0
 40
0.0
 40
0.0
 40
0.0
 40
1.0
 40
1.0
 40
1.0
 40
2.0
 40
2.0
 40
2.0
 40
3.0
 40
3.0
 40
3.0
 40
4.0
 40
4.0
 40
4.0
 40
5.0
 40
5.0
 40
5.0
 40
6.0
 40
6.0
 40
6.0
 40
7.0
 40
7.0
 40
7.0
 40
8.0
 40
8.0
 40
8.0
 40
9.0
 40
9.0
 40
9.0
 40
10.0
 40
10.0
 40
10.0
 40
11.0
 40
11.0
 40
11.0
 40
12.0
 40
12.0
 40
12.0
 40
13.0
 40
13.0
 40
13.0
 40
14.0
 40
14.0
 40
14.0
 40
15.0
 40
15.0
 40
15.0
 40
16.0
 40
16.0
 40
16.0
 40
17.0
 40
17.0
 40
17.0
 40
18.0
 40
18.0
 40
18.0
 40
19.0
 40
19.0
 40
19.0
 40
20.0
 40
20.0
 40
20.0
 40
21.0
 40
21.0
 40
21.0
 40
22.0
 40
22.0
 40
22.0
 40
23.0
 40
23.0
 40
23.0
 40
24.0
 40
24.0
 40
24.0
 40
25.0
 40
25.0
 40
25.0
 40
26.0
 40
26.0
 40
26.0
 40
27.0
 40
27.0
 40
27.0
 40
28.0
 40
28.0
 40
28.0
 40
29.0
 40
29.0
 40
29.0
 40
30.0
 40
30.0
 40
30.0
 40
31.0
 40
31.0
 40
31.0
 40
32.0
 40
32.0
 40
32.0
 40
33.0
 40
33.0
 40
33.0
 40
34.0
 40
34.0
 40
34.0
 40
35.0
 40
35.0
 40
35.0
 40
36.0
 40
36.0
 40
36.0
 40
37.0
 40
37.0
 40
37.0
 40
38.0
 40
38.0
 40
38.0
 40
39.0
 40
39.0
 40
39.0
 40
40.0
 40
40.0
 40
40.0
 40
41.0
 40
41.0
 40
41.0
 40
42.0
 40
42.0
 40
42.0
 40
43.0
 40
43.0
 40
43.0
 40
44.0
 40
44.0
 40
44.0
 40
45.0
 40
45.0
 40
45.0
 40
46.0
 40
46.0
 40
46.0
 40
47.0
 40
47.0
 40
47.0
 40
48.0
 40
48.0
 40
48.0
 40
49.0
 40
49.0
 40
49.0
 40
50.0
 40
50.0
 40
50.0
 40
51.0
 40
51.0
 40
51.0
 40
52.0
 40
52.0
 40
52.0
 40
52.0
 10
79.4444832541072
 20
-106.8057952297848
 30
0.0
 10
79.4444832541072
 20
-106.8057952297848
 30
0.0
 10
79.4444832541072
 20
-106.8057952297848
 30
0.0
 10
79.4444832541072
 20
-106.8057952297848
 30
0.0
 10
79.26172093861469
 20
-107.0043188571243
 30
0.0
 10
79.00196073902686
 20
-107.130753861433
 30
0.0
 10
78.71085017052324
 20
-107.130753861433
 30
0.0
 10
78.67639921567074
 20
-107.130753861433
 30
0.0
 10
77.7479459823959
 20
-107.130753861433
 30
0.0
 10
76.50151043583251
 20
-107.130753861433
 30
0.0
 10
76.24967395586076
 20
-107.706946081341
 30
0.0
 10
75.78734214174023
 20
-108.1693640228467
 30
0.0
 10
75.21097766705793
 20
-108.4213296938998
 30
0.0
 10
75.21097766705793
 20
-109.6669900939771
 30
0.0
 10
75.21097766705793
 20
-110.5948834992369
 30
0.0
 10
75.21097766705793
 20
-110.6307986196725
 30
0.0
 10
75.21097766705793
 20
-110.9410725318116
 30
0.0
 10
75.06662816622595
 20
-111.2148714954999
 30
0.0
 10
74.84493627175013
 20
-111.3982797663971
 30
0.0
 10
74.84493627175013
 20
-111.3982797663971
 30
0.0
 10
74.84493627175013
 20
-111.3983228300894
 30
0.0
 10
74.84493627175013
 20
-111.3983228300894
 30
0.0
 10
74.84493627175013
 20
-111.3983228300894
 30
0.0
 10
74.84424725265308
 20
-111.3987965307199
 30
0.0
 10
74.84424725265308
 20
-111.3987965307199
 30
0.0
 10
74.8023893425073
 20
-111.4333336129615
 30
0.0
 10
74.75846437507036
 20
-111.4644255997139
 30
0.0
 10
74.71126656692243
 20
-111.491943299903
 30
0.0
 10
74.70627117846882
 20
-111.4948285673732
 30
0.0
 10
74.70127579001522
 20
-111.4971970705161
 30
0.0
 10
74.69628040156161
 20
-111.4999962106011
 30
0.0
 10
74.65338896277024
 20
-111.5240257516087
 30
0.0
 10
74.60963625010757
 20
-111.5460743627144
 30
0.0
 10
74.5631274610567
 20
-111.5637304770782
 30
0.0
 10
74.5438349263393
 20
-111.5712235597567
 30
0.0
 10
74.52333660820206
 20
-111.5758744386618
 30
0.0
 10
74.50352730916187
 20
-111.5821617379243
 30
0.0
 10
74.46821508043806
 20
-111.593099916088
 30
0.0
 10
74.4335918708113
 20
-111.6050716229012
 30
0.0
 10
74.39655709434487
 20
-111.6120479412569
 30
0.0
 10
74.3376459615471
 20
-111.6235459474396
 30
0.0
 10
74.27718453578096
 20
-111.6301346925544
 30
0.0
 10
74.21482830749794
 20
-111.6303930747178
 30
0.0
 10
74.21345026930383
 20
-111.6303930747178
 30
0.0
 10
74.212244485884
 20
-111.6307806479586
 30
0.0
 10
74.212244485884
 20
-111.6307806479586
 30
0.0
 10
73.65861764140435
 20
-111.6307806479586
 30
0.0
 10
73.2110997378704
 20
-111.1830474259581
 30
0.0
 10
73.2110997378704
 20
-110.6307986196725
 30
0.0
 10
73.2110997378704
 20
-110.5948834992369
 30
0.0
 10
73.2110997378704
 20
-109.6670331576739
 30
0.0
 10
73.2110997378704
 20
-108.4213727575927
 30
0.0
 10
72.6347352631881
 20
-108.1694501502358
 30
0.0
 10
72.17240344906757
 20
-107.7070322087262
 30
0.0
 10
71.92022245954729
 20
-107.130753861433
 30
0.0
 10
70.67378691298389
 20
-107.130753861433
 30
0.0
 10
69.74567818925759
 20
-107.130753861433
 30
0.0
 10
69.71088272485656
 20
-107.130753861433
 30
0.0
 10
69.15863391857101
 20
-107.130753861433
 30
0.0
 10
68.71111601503706
 20
-106.6830637031247
 30
0.0
 10
68.71111601503706
 20
-106.1308148968392
 30
0.0
 10
68.71111601503706
 20
-106.1308148968392
 30
0.0
 10
68.71197728890837
 20
-106.1244845338838
 30
0.0
 10
68.71197728890837
 20
-106.1212116931728
 30
0.0
 10
68.71249405323115
 20
-106.0609655858738
 30
0.0
 10
68.71869522510461
 20
-106.0022697715426
 30
0.0
 10
68.7297195306574
 20
-105.9452965049585
 30
0.0
 10
68.73678197640217
 20
-105.9079602826358
 30
0.0
 10
68.74901206537481
 20
-105.8728633723792
 30
0.0
 10
68.76003637092761
 20
-105.8370774430249
 30
0.0
 10
68.76623754280105
 20
-105.81765571723
 30
0.0
 10
68.77071616693188
 20
-105.7976741634155
 30
0.0
 10
68.77812312222517
 20
-105.7787692019389
 30
0.0
 10
68.7958653639742
 20
-105.7318297759505
 30
0.0
 10
68.8179139750798
 20
-105.6877325537393
 30
0.0
 10
68.84237415302508
 20
-105.6444535417071
 30
0.0
 10
68.84478571986476
 20
-105.6399749175763
 30
0.0
 10
68.84702503193017
 20
-105.635237911286
 30
0.0
 10
68.84978110831837
 20
-105.6308023508475
 30
0.0
 10
69.02289715645217
 20
-105.3331461009219
 30
0.0
 10
69.34174074361204
 20
-105.1307898048564
 30
0.0
 10
69.71088272485656
 20
-105.1307898048564
 30
0.0
 10
69.74567818925759
 20
-105.1307898048564
 30
0.0
 10
70.67378691298389
 20
-105.1307898048564
 30
0.0
 10
71.92022245954729
 20
-105.1307898048564
 30
0.0
 10
72.17240344906757
 20
-104.5545545212554
 30
0.0
 10
72.6347352631881
 20
-104.0920935160535
 30
0.0
 10
73.2110997378704
 20
-103.8401709086966
 30
0.0
 10
73.2110997378704
 20
-102.5945105086154
 30
0.0
 10
73.2110997378704
 20
-101.6667032307447
 30
0.0
 10
73.2110997378704
 20
-101.6307881103091
 30
0.0
 10
73.2110997378704
 20
-101.2097543783193
 30
0.0
 10
73.47189346610381
 20
-100.8511199383047
 30
0.0
 10
73.84017417347702
 20
-100.7036698515361
 30
0.0
 10
73.85326553632096
 20
-100.6983299535339
 30
0.0
 10
73.86739042781049
 20
-100.695832259309
 30
0.0
 10
73.88082630020297
 20
-100.691052189322
 30
0.0
 10
73.92544028673696
 20
-100.6753339411718
 30
0.0
 10
73.97005427327093
 20
-100.6595726293249
 30
0.0
 10
74.01725208141886
 20
-100.650313935207
 30
0.0
 10
74.07702448808794
 20
-100.6382991647054
 30
0.0
 10
74.13903620682244
 20
-100.6321841202171
 30
0.0
 10
74.20225370897677
 20
-100.6316673558943
 30
0.0
 10
74.2053542949135
 20
-100.6316242922014
 30
0.0
 10
74.20793811652744
 20
-100.630806082023
 30
0.0
 10
74.2108664476899
 20
-100.630806082023
 30
0.0
 10
74.25220759351289
 20
-100.630806082023
 30
0.0
 10
74.29130942727049
 20
-100.6380838462343
 30
0.0
 10
74.33127253489938
 20
-100.6429500436105
 30
0.0
 10
74.82616050135552
 20
-100.702980832439
 30
0.0
 10
75.21114992183219
 20
-101.11966513138
 30
0.0
 10
75.21114992183219
 20
-101.6307450466168
 30
0.0
 10
75.21114992183219
 20
-101.6527936577224
 30
0.0
 10
75.21114992183219
 20
-102.0114280977369
 30
0.0
 10
75.21114992183219
 20
-102.5721173879613
 30
0.0
 10
75.21114992183219
 20
-102.5721173879613
 30
0.0
 10
75.21097766705793
 20
-102.5720312605761
 30
0.0
 10
75.21097766705793
 20
-102.5720312605761
 30
0.0
 10
75.21097766705793
 20
-102.925454993666
 30
0.0
 10
75.21097766705793
 20
-103.3586326872439
 30
0.0
 10
75.21097766705793
 20
-103.8402570360818
 30
0.0
 10
75.78734214174023
 20
-104.0921796434426
 30
0.0
 10
76.24967395586076
 20
-104.5545975849483
 30
0.0
 10
76.50151043583251
 20
-105.1307898048564
 30
0.0
 10
76.98313478467044
 20
-105.1307898048564
 30
0.0
 10
77.41618328716635
 20
-105.1307898048564
 30
0.0
 10
77.76965008395298
 20
-105.1307898048564
 30
0.0
 10
78.33085613850018
 20
-105.1307898048564
 30
0.0
 10
78.68914606896617
 20
-105.1307898048564
 30
0.0
 10
78.71085017052324
 20
-105.1307898048564
 30
0.0
 10
78.71085017052324
 20
-105.1307898048564
 30
0.0
 10
78.7110224252975
 20
-105.1307898048564
 30
0.0
 10
78.7110224252975
 20
-105.1307898048564
 30
0.0
 10
79.26327123158305
 20
-105.1307898048564
 30
0.0
 10
79.71096138989127
 20
-105.5784799631646
 30
0.0
 10
79.71096138989127
 20
-106.1308148968392
 30
0.0
 10
79.71096138989127
 20
-106.1973913670897
 30
0.0
 10
79.7038989441465
 20
-106.2622022259047
 30
0.0
 10
79.69132434562535
 20
-106.324946027433
 30
0.0
 10
79.6823670973637
 20
-106.370162905675
 30
0.0
 10
79.66720867722859
 20
-106.4126237075326
 30
0.0
 10
79.65239476664202
 20
-106.455385955242
 30
0.0
 10
79.64705486863988
 20
-106.4706735664591
 30
0.0
 10
79.64395428270316
 20
-106.487037770014
 30
0.0
 10
79.63792536560396
 20
-106.5019808716781
 30
0.0
 10
79.61553224494985
 20
-106.5579636733134
 30
0.0
 10
79.58745471674506
 20
-106.6107166979345
 30
0.0
 10
79.55575983828076
 20
-106.6611873467934
 30
0.0
 10
79.55575983828076
 20
-106.6611873467934
 30
0.0
 10
79.55524307395797
 20
-106.6620055569679
 30
0.0
 10
79.55524307395797
 20
-106.6620055569679
 30
0.0
 10
79.52285917639662
 20
-106.7134666707801
 30
0.0
 10
79.48565214515592
 20
-106.7610089884766
 30
0.0
 10
79.44465550888145
 20
-106.8055368476254
 30
0.0
 10
79.44465550888145
 20
-106.8055368476254
 30
0.0
 10
79.4444832541072
 20
-106.8057952297848
 30
0.0
 10
79.4444832541072
 20
-106.8057952297848
 30
0.0
  0
SPLINE
  5
46
330
1F
100
AcDbEntity
  8
Layer 1
 62
     1
420
 15597568
370
    18
100
AcDbSpline
210
0.0
220
0.0
230
1.0
 70
    11
 71
     3
 72
    17
 73
    13
 74
     0
 42
0.0000000001
 43
0.0000000001
 12
1.0
 22
0.0
 32
0.0
 13
1.0
 23
0.0
 33
0.0
 40
0.0
 40
0.0
 40
0.0
 40
0.0
 40
1.0
 40
1.0
 40
1.0
 40
2.0
 40
2.0
 40
2.0
 40
3.0
 40
3.0
 40
3.0
 40
4.0
 40
4.0
 40
4.0
 40
4.0
 10
65.71095461170724
 20
-183.6471858627035
 30
0.0
 10
64.88258140227892
 20
-183.6471858627035
 30
0.0
 10
64.21096003742946
 20
-182.975564497854
 30
0.0
 10
64.21096003742946
 20
-182.1471912884257
 30
0.0
 10
64.21096003742946
 20
-181.3187319516077
 30
0.0
 10
64.88258140227892
 20
-180.6471536504505
 30
0.0
 10
65.71095461170724
 20
-180.6471536504505
 30
0.0
 10
66.53950007590983
 20
-180.6471536504505
 30
0.0
 10
67.21112144075929
 20
-181.3187319516077
 30
0.0
 10
67.21112144075929
 20
-182.1471912884257
 30
0.0
 10
67.21112144075929
 20
-182.975564497854
 30
0.0
 10
66.53950007590983
 20
-183.6471858627035
 30
0.0
 10
65.71095461170724
 20
-183.6471858627035
 30
0.0
  0
SPLINE
  5
47
330
1F
100
AcDbEntity
  8
Layer 1
 62
     1
420
 15597568
370
    18
100
AcDbSpline
210
0.0
220
0.0
230
1.0
 70
    11
 71
     3
 72
   173
 73
   169
 74
     0
 42
0.0000000001
 43
0.0000000001
 12
1.0
 22
0.0
 32
0.0
 13
1.0
 23
0.0
 33
0.0
 40
0.0
 40
0.0
 40
0.0
 40
0.0
 40
1.0
 40
1.0
 40
1.0
 40
2.0
 40
2.0
 40
2.0
 40
3.0
 40
3.0
 40
3.0
 40
4.0
 40
4.0
 40
4.0
 40
5.0
 40
5.0
 40
5.0
 40
6.0
 40
6.0
 40
6.0
 40
7.0
 40
7.0
 40
7.0
 40
8.0
 40
8.0
 40
8.0
 40
9.0
 40
9.0
 40
9.0
 40
10.0
 40
10.0
 40
10.0
 40
11.0
 40
11.0
 40
11.0
 40
12.0
 40
12.0
 40
12.0
 40
13.0
 40
13.0
 40
13.0
 40
14.0
 40
14.0
 40
14.0
 40
15.0
 40
15.0
 40
15.0
 40
16.0
 40
16.0
 40
16.0
 40
17.0
 40
17.0
 40
17.0
 40
18.0
 40
18.0
 40
18.0
 40
19.0
 40
19.0
 40
19.0
 40
20.0
 40
20.0
 40
20.0
 40
21.0
 40
21.0
 40
21.0
 40
22.0
 40
22.0
 40
22.0
 40
23.0
 40
23.0
 40
23.0
 40
24.0
 40
24.0
 40
24.0
 40
25.0
 40
25.0
 40
25.0
 40
26.0
 40
26.0
 40
26.0
 40
27.0
 40
27.0
 40
27.0
 40
28.0
 40
28.0
 40
28.0
 40
29.0
 40
29.0
 40
29.0
 40
30.0
 40
30.0
 40
30.0
 40
31.0
 40
31.0
 40
31.0
 40
32.0
 40
32.0
 40
32.0
 40
33.0
 40
33.0
 40
33.0
 40
34.0
 40
34.0
 40
34.0
 40
35.0
 40
35.0
 40
35.0
 40
36.0
 40
36.0
 40
36.0
 40
37.0
 40
37.0
 40
37.0
 40
38.0
 40
38.0
 40
38.0
 40
39.0
 40
39.0
 40
39.0
 40
40.0
 40
40.0
 40
40.0
 40
41.0
 40
41.0
 40
41.0
 40
42.0
 40
42.0
 40
42.0
 40
43.0
 40
43.0
 40
43.0
 40
44.0
 40
44.0
 40
44.0
 40
45.0
 40
45.0
 40
45.0
 40
46.0
 40
46.0
 40
46.0
 40
47.0
 40
47.0
 40
47.0
 40
48.0
 40
48.0
 40
48.0
 40
49.0
 40
49.0
 40
49.0
 40
50.0
 40
50.0
 40
50.0
 40
51.0
 40
51.0
 40
51.0
 40
52.0
 40
52.0
 40
52.0
 40
53.0
 40
53.0
 40
53.0
 40
54.0
 40
54.0
 40
54.0
 40
55.0
 40
55.0
 40
55.0
 40
56.0
 40
56.0
 40
56.0
 40
56.0
 10
78.91256051118462
 20
-174.5944223287228
 30
0.0
 10
78.84744820651339
 20
-174.6077720737307
 30
0.0
 10
78.77992433500249
 20
-174.6147483920857
 30
0.0
 10
78.71085017052324
 20
-174.6147483920857
 30
0.0
 10
78.67639921567074
 20
-174.6147483920857
 30
0.0
 10
77.7479459823959
 20
-174.6147483920857
 30
0.0
 10
76.50151043583251
 20
-174.6147483920857
 30
0.0
 10
76.24967395586076
 20
-175.1909406119938
 30
0.0
 10
75.78734214174023
 20
-175.653358553504
 30
0.0
 10
75.21097766705793
 20
-175.9053242245526
 30
0.0
 10
75.21097766705793
 20
-176.4181266875321
 30
0.0
 10
75.21097766705793
 20
-176.8755061768964
 30
0.0
 10
75.21097766705793
 20
-177.2405571072509
 30
0.0
 10
75.21097766705793
 20
-177.2405571072509
 30
0.0
 10
75.21114992183219
 20
-177.2404709798612
 30
0.0
 10
75.21114992183219
 20
-177.2404709798612
 30
0.0
 10
75.21114992183219
 20
-177.76218762741
 30
0.0
 10
75.21114992183219
 20
-178.0936488767833
 30
0.0
 10
75.21114992183219
 20
-178.1147931503253
 30
0.0
 10
75.21114992183219
 20
-178.5289797550421
 30
0.0
 10
74.95914118708616
 20
-178.8843413543456
 30
0.0
 10
74.60033449229739
 20
-179.0361408741631
 30
0.0
 10
74.48061742418496
 20
-179.086740714104
 30
0.0
 10
74.34901477664842
 20
-179.1147751786114
 30
0.0
 10
74.2108664476899
 20
-179.1147751786114
 30
0.0
 10
74.20897164517301
 20
-179.1147751786114
 30
0.0
 10
74.20707684265612
 20
-179.1142153505963
 30
0.0
 10
74.20500978536498
 20
-179.114172286904
 30
0.0
 10
74.14317032140474
 20
-179.1137847136632
 30
0.0
 10
74.08305340518713
 20
-179.1074112870155
 30
0.0
 10
74.02465903671215
 20
-179.0959563445245
 30
0.0
 10
73.9867629863744
 20
-179.0888077713952
 30
0.0
 10
73.95127850287632
 20
-179.0764054276482
 30
0.0
 10
73.91493274550695
 20
-179.0651227399315
 30
0.0
 10
73.89581246556381
 20
-179.0590076954477
 30
0.0
 10
73.87600316652362
 20
-179.0545290713169
 30
0.0
 10
73.85739965090326
 20
-179.0472513071005
 30
0.0
 10
73.8095128236583
 20
-179.0291214921106
 30
0.0
 10
73.76472658235005
 20
-179.0062977345234
 30
0.0
 10
73.72080161491311
 20
-178.9814069196399
 30
0.0
 10
73.71666750033081
 20
-178.9790384164925
 30
0.0
 10
73.71236113097424
 20
-178.9770574865911
 30
0.0
 10
73.70839927116621
 20
-178.9746459197514
 30
0.0
 10
73.41212105943472
 20
-178.8010561709871
 30
0.0
 10
73.2110997378704
 20
-178.4829016029243
 30
0.0
 10
73.2110997378704
 20
-178.1147931503253
 30
0.0
 10
73.2110997378704
 20
-178.0788780298942
 30
0.0
 10
73.2110997378704
 20
-177.1510276883267
 30
0.0
 10
73.2110997378704
 20
-175.90536728825
 30
0.0
 10
72.6347352631881
 20
-175.6534446808886
 30
0.0
 10
72.17240344906757
 20
-175.1910267393835
 30
0.0
 10
71.92022245954729
 20
-174.6147483920857
 30
0.0
 10
70.67378691298389
 20
-174.6147483920857
 30
0.0
 10
69.74567818925759
 20
-174.6147483920857
 30
0.0
 10
69.71088272485656
 20
-174.6147483920857
 30
0.0
 10
69.41804960861033
 20
-174.6147483920857
 30
0.0
 10
69.15708362560265
 20
-174.4865908400345
 30
0.0
 10
68.97414905533589
 20
-174.2858279006341
 30
0.0
 10
68.97414905533589
 20
-174.2858279006341
 30
0.0
 10
68.97414905533589
 20
-174.2858279006341
 30
0.0
 10
68.97414905533589
 20
-174.2858279006341
 30
0.0
 10
68.97414905533589
 20
-174.2858279006341
 30
0.0
 10
68.97397680056162
 20
-174.2855695184701
 30
0.0
 10
68.97397680056162
 20
-174.2855695184701
 30
0.0
 10
68.89353382098103
 20
-174.1972889466632
 30
0.0
 10
68.82807700676129
 20
-174.0960031393968
 30
0.0
 10
68.78311851067878
 20
-173.9832623896395
 30
0.0
 10
68.77829537699944
 20
-173.9712906828308
 30
0.0
 10
68.77605606493402
 20
-173.9581562562894
 30
0.0
 10
68.7715774408032
 20
-173.9459692310142
 30
0.0
 10
68.75555774679678
 20
-173.9006662253832
 30
0.0
 10
68.73988256233889
 20
-173.8554062834444
 30
0.0
 10
68.73040854975446
 20
-173.8073902651174
 30
0.0
 10
68.71938424420166
 20
-173.7520964825792
 30
0.0
 10
68.71456111052231
 20
-173.6946495153652
 30
0.0
 10
68.7131830723282
 20
-173.6362551468902
 30
0.0
 10
68.71301081755395
 20
-173.6289343189815
 30
0.0
 10
68.71111601503706
 20
-173.6221302554007
 30
0.0
 10
68.71111601503706
 20
-173.614809427492
 30
0.0
 10
68.71111601503706
 20
-173.0624744938219
 30
0.0
 10
69.15863391857101
 20
-172.6147843355137
 30
0.0
 10
69.71088272485656
 20
-172.6147843355137
 30
0.0
 10
69.71088272485656
 20
-172.6147843355137
 30
0.0
 10
69.71105497963083
 20
-172.6147843355137
 30
0.0
 10
69.71105497963083
 20
-172.6147843355137
 30
0.0
 10
69.73224231686511
 20
-172.6147843355137
 30
0.0
 10
70.08777617094289
 20
-172.6147843355137
 30
0.0
 10
70.64450360135928
 20
-172.6147843355137
 30
0.0
 10
70.99934843634
 20
-172.6147843355137
 30
0.0
 10
71.4351530152241
 20
-172.6147843355137
 30
0.0
 10
71.92022245954729
 20
-172.6147843355137
 30
0.0
 10
72.17240344906757
 20
-172.0385490519082
 30
0.0
 10
72.6347352631881
 20
-171.5760880467108
 30
0.0
 10
73.2110997378704
 20
-171.3241654393494
 30
0.0
 10
73.2110997378704
 20
-170.0785050392727
 30
0.0
 10
73.2110997378704
 20
-169.1506977613975
 30
0.0
 10
73.2110997378704
 20
-169.1147826409664
 30
0.0
 10
73.2110997378704
 20
-168.5624907709885
 30
0.0
 10
73.65861764140435
 20
-168.1148006126803
 30
0.0
 10
74.2108664476899
 20
-168.1148006126803
 30
0.0
 10
74.2108664476899
 20
-168.1148006126803
 30
0.0
 10
74.21310575975531
 20
-168.1151020585314
 30
0.0
 10
74.21413928840089
 20
-168.1151020585314
 30
0.0
 10
74.27907933829785
 20
-168.1153173770031
 30
0.0
 10
74.34246909522645
 20
-168.1219491858097
 30
0.0
 10
74.40379179486389
 20
-168.1342223384746
 30
0.0
 10
74.44909480049493
 20
-168.1430934593517
 30
0.0
 10
74.49181398451202
 20
-168.158294943179
 30
0.0
 10
74.53470542330338
 20
-168.1730657900733
 30
0.0
 10
74.54934707911569
 20
-168.1781903696089
 30
0.0
 10
74.56502226357358
 20
-168.181075637074
 30
0.0
 10
74.57931940983737
 20
-168.1868892357066
 30
0.0
 10
74.6342686828271
 20
-168.2087655920379
 30
0.0
 10
74.68611736988012
 20
-168.2361110374534
 30
0.0
 10
74.73589899964198
 20
-168.2669877057387
 30
0.0
 10
74.73589899964198
 20
-168.2669877057387
 30
0.0
 10
74.73796605693313
 20
-168.2681073617739
 30
0.0
 10
74.73796605693313
 20
-168.2681073617739
 30
0.0
 10
74.78843670579204
 20
-168.2995438580743
 30
0.0
 10
74.83494549484291
 20
-168.3356742969771
 30
0.0
 10
74.87887046227985
 20
-168.3753359587498
 30
0.0
 10
74.87887046227985
 20
-168.3753359587498
 30
0.0
 10
74.88024850047394
 20
-168.3763264237031
 30
0.0
 10
74.88093751957099
 20
-168.3768862517181
 30
0.0
 10
74.88093751957099
 20
-168.3768862517181
 30
0.0
 10
74.88093751957099
 20
-168.3769723791078
 30
0.0
 10
74.88093751957099
 20
-168.3769723791078
 30
0.0
 10
75.08230335068384
 20
-168.5599069493746
 30
0.0
 10
75.21097766705793
 20
-168.8212605056231
 30
0.0
 10
75.21097766705793
 20
-169.1147826409664
 30
0.0
 10
75.21097766705793
 20
-169.1506977613975
 30
0.0
 10
75.21097766705793
 20
-170.0785911666573
 30
0.0
 10
75.21097766705793
 20
-171.3242515667391
 30
0.0
 10
75.78734214174023
 20
-171.5761741740954
 30
0.0
 10
76.24967395586076
 20
-172.0385921156056
 30
0.0
 10
76.50151043583251
 20
-172.6147843355137
 30
0.0
 10
77.7479459823959
 20
-172.6147843355137
 30
0.0
 10
78.67639921567074
 20
-172.6147843355137
 30
0.0
 10
78.71085017052324
 20
-172.6147843355137
 30
0.0
 10
79.01884170690457
 20
-172.6147843355137
 30
0.0
 10
79.29083199546504
 20
-172.7569375879725
 30
0.0
 10
79.4742833300546
 20
-172.9758303423678
 30
0.0
 10
79.4742833300546
 20
-172.9758303423678
 30
0.0
 10
79.4742833300546
 20
-172.9757442149781
 30
0.0
 10
79.4742833300546
 20
-172.9757442149781
 30
0.0
 10
79.4742833300546
 20
-172.9757442149781
 30
0.0
 10
79.47497234915166
 20
-172.976820807316
 30
0.0
 10
79.47497234915166
 20
-172.976820807316
 30
0.0
 10
79.51028457787547
 20
-173.0189370996257
 30
0.0
 10
79.54215171111403
 20
-173.0632496403035
 30
0.0
 10
79.57005698454455
 20
-173.1107919579999
 30
0.0
 10
79.57281306093275
 20
-173.1153997732127
 30
0.0
 10
79.57505237299816
 20
-173.1202659705844
 30
0.0
 10
79.5776361946121
 20
-173.1248737857972
 30
0.0
 10
79.6024408821059
 20
-173.1684111799933
 30
0.0
 10
79.62500625753428
 20
-173.212852911753
 30
0.0
 10
79.64309300883184
 20
-173.2601368472855
 30
0.0
 10
79.65084447367366
 20
-173.2798600189412
 30
0.0
 10
79.65549535257874
 20
-173.3008320377037
 30
0.0
 10
79.66204103400072
 20
-173.3211150373744
 30
0.0
 10
79.67289308477926
 20
-173.356384202406
 30
0.0
 10
79.68512317375189
 20
-173.3908782209508
 30
0.0
 10
79.69201336472238
 20
-173.4276546152583
 30
0.0
 10
79.7038989441465
 20
-173.4882452321013
 30
0.0
 10
79.71096138989127
 20
-173.5505583966921
 30
0.0
 10
79.71096138989127
 20
-173.614809427492
 30
0.0
 10
79.71096138989127
 20
-174.0980271329906
 30
0.0
 10
79.3681743891089
 20
-174.5011894321545
 30
0.0
 10
78.91256051118462
 20
-174.5944223287228
 30
0.0
  0
SPLINE
  5
48
330
1F
100
AcDbEntity
  8
Layer 1
 62
     1
420
 15597568
370
    18
100
AcDbSpline
210
0.0
220
0.0
230
1.0
 70
    11
 71
     3
 72
    17
 73
    13
 74
     0
 42
0.0000000001
 43
0.0000000001
 12
1.0
 22
0.0
 32
0.0
 13
1.0
 23
0.0
 33
0.0
 40
0.0
 40
0.0
 40
0.0
 40
0.0
 40
1.0
 40
1.0
 40
1.0
 40
2.0
 40
2.0
 40
2.0
 40
3.0
 40
3.0
 40
3.0
 40
4.0
 40
4.0
 40
4.0
 40
4.0
 10
97.96497207326179
 20
-128.36081346494
 30
0.0
 10
98.79341357781152
 20
-128.36081346494
 30
0.0
 10
99.46497207288677
 20
-129.0323719600191
 30
0.0
 10
99.46497207288677
 20
-129.8607617903169
 30
0.0
 10
99.46497207288677
 20
-130.6891516206199
 30
0.0
 10
98.79341357781152
 20
-131.360710115699
 30
0.0
 10
97.96497207326179
 20
-131.360710115699
 30
0.0
 10
97.13653056871206
 20
-131.360710115699
 30
0.0
 10
96.46497207363682
 20
-130.6891516206199
 30
0.0
 10
96.46497207363682
 20
-129.8607617903169
 30
0.0
 10
96.46497207363682
 20
-129.0323719600191
 30
0.0
 10
97.13653056871206
 20
-128.36081346494
 30
0.0
 10
97.96497207326179
 20
-128.36081346494
 30
0.0
  0
SPLINE
  5
49
330
1F
100
AcDbEntity
  8
Layer 1
 62
     1
420
 15597568
370
    18
100
AcDbSpline
210
0.0
220
0.0
230
1.0
 70
    11
 71
     3
 72
    17
 73
    13
 74
     0
 42
0.0000000001
 43
0.0000000001
 12
1.0
 22
0.0
 32
0.0
 13
1.0
 23
0.0
 33
0.0
 40
0.0
 40
0.0
 40
0.0
 40
0.0
 40
1.0
 40
1.0
 40
1.0
 40
2.0
 40
2.0
 40
2.0
 40
3.0
 40
3.0
 40
3.0
 40
4.0
 40
4.0
 40
4.0
 40
4.0
 10
97.96497207326179
 20
-151.3606951909938
 30
0.0
 10
97.13653056871463
 20
-151.3606951909938
 30
0.0
 10
96.46497207363682
 20
-150.6891366959147
 30
0.0
 10
96.46497207363682
 20
-149.8607985398611
 30
0.0
 10
96.46497207363682
 20
-149.0323570353152
 30
0.0
 10
97.13653056871463
 20
-148.3607985402361
 30
0.0
 10
97.96497207326179
 20
-148.3607985402361
 30
0.0
 10
98.79341357780895
 20
-148.3607985402361
 30
0.0
 10
99.46497207288677
 20
-149.0323570353152
 30
0.0
 10
99.46497207288677
 20
-149.8607985398611
 30
0.0
 10
99.46497207288677
 20
-150.6891366959147
 30
0.0
 10
98.79341357780895
 20
-151.3606951909938
 30
0.0
 10
97.96497207326179
 20
-151.3606951909938
 30
0.0
  0
SPLINE
  5
4A
330
1F
100
AcDbEntity
  8
Layer 1
 62
     1
420
 15597568
370
    18
100
AcDbSpline
210
0.0
220
0.0
230
1.0
 70
    11
 71
     3
 72
    17
 73
    13
 74
     0
 42
0.0000000001
 43
0.0000000001
 12
1.0
 22
0.0
 32
0.0
 13
1.0
 23
0.0
 33
0.0
 40
0.0
 40
0.0
 40
0.0
 40
0.0
 40
1.0
 40
1.0
 40
1.0
 40
2.0
 40
2.0
 40
2.0
 40
3.0
 40
3.0
 40
3.0
 40
4.0
 40
4.0
 40
4.0
 40
4.0
 10
117.9649571485569
 20
-151.3607468652399
 30
0.0
 10
117.1364871036332
 20
-151.3607468652399
 30
0.0
 10
116.4649054729051
 20
-150.6891652345118
 30
0.0
 10
116.4649054729051
 20
-149.8607985416425
 30
0.0
 10
116.4649054729051
 20
-149.0323284967181
 30
0.0
 10
117.1364871036332
 20
-148.36074686599
 30
0.0
 10
117.9649571485569
 20
-148.36074686599
 30
0.0
 10
118.7934271934806
 20
-148.36074686599
 30
0.0
 10
119.4650088242088
 20
-149.0323284967181
 30
0.0
 10
119.4650088242088
 20
-149.8607985416425
 30
0.0
 10
119.4650088242088
 20
-150.6891652345118
 30
0.0
 10
118.7934271934806
 20
-151.3607468652399
 30
0.0
 10
117.9649571485569
 20
-151.3607468652399
 30
0.0
  0
SPLINE
  5
4B
330
1F
100
AcDbEntity
  8
Layer 1
 62
     1
420
 15597568
370
    18
100
AcDbSpline
210
0.0
220
0.0
230
1.0
 70
    11
 71
     3
 72
    17
 73
    13
 74
     0
 42
0.0000000001
 43
0.0000000001
 12
1.0
 22
0.0
 32
0.0
 13
1.0
 23
0.0
 33
0.0
 40
0.0
 40
0.0
 40
0.0
 40
0.0
 40
1.0
 40
1.0
 40
1.0
 40
2.0
 40
2.0
 40
2.0
 40
3.0
 40
3.0
 40
3.0
 40
4.0
 40
4.0
 40
4.0
 40
4.0
 10
117.9649571485569
 20
-131.3607101156983
 30
0.0
 10
117.1365156440098
 20
-131.3607101156983
 30
0.0
 10
116.464957148932
 20
-130.6891516206199
 30
0.0
 10
116.464957148932
 20
-129.8607617903169
 30
0.0
 10
116.464957148932
 20
-129.0323719600197
 30
0.0
 10
117.1365156440098
 20
-128.3608134649413
 30
0.0
 10
117.9649571485569
 20
-128.3608134649413
 30
0.0
 10
118.7933986531041
 20
-128.3608134649413
 30
0.0
 10
119.4649571481819
 20
-129.0323719600197
 30
0.0
 10
119.4649571481819
 20
-129.8607617903169
 30
0.0
 10
119.4649571481819
 20
-130.6891516206199
 30
0.0
 10
118.7933986531041
 20
-131.3607101156983
 30
0.0
 10
117.9649571485569
 20
-131.3607101156983
 30
0.0
  0
SPLINE
  5
4C
330
1F
100
AcDbEntity
  8
Layer 1
 62
     1
420
 15597568
370
    18
100
AcDbSpline
210
0.0
220
0.0
230
1.0
 70
    11
 71
     3
 72
   206
 73
   202
 74
     0
 42
0.0000000001
 43
0.0000000001
 12
1.0
 22
0.0
 32
0.0
 13
1.0
 23
0.0
 33
0.0
 40
0.0
 40
0.0
 40
0.0
 40
0.0
 40
1.0
 40
1.0
 40
1.0
 40
2.0
 40
2.0
 40
2.0
 40
3.0
 40
3.0
 40
3.0
 40
4.0
 40
4.0
 40
4.0
 40
5.0
 40
5.0
 40
5.0
 40
6.0
 40
6.0
 40
6.0
 40
7.0
 40
7.0
 40
7.0
 40
8.0
 40
8.0
 40
8.0
 40
9.0
 40
9.0
 40
9.0
 40
10.0
 40
10.0
 40
10.0
 40
11.0
 40
11.0
 40
11.0
 40
12.0
 40
12.0
 40
12.0
 40
13.0
 40
13.0
 40
13.0
 40
14.0
 40
14.0
 40
14.0
 40
15.0
 40
15.0
 40
15.0
 40
16.0
 40
16.0
 40
16.0
 40
17.0
 40
17.0
 40
17.0
 40
18.0
 40
18.0
 40
18.0
 40
19.0
 40
19.0
 40
19.0
 40
20.0
 40
20.0
 40
20.0
 40
21.0
 40
21.0
 40
21.0
 40
22.0
 40
22.0
 40
22.0
 40
23.0
 40
23.0
 40
23.0
 40
24.0
 40
24.0
 40
24.0
 40
25.0
 40
25.0
 40
25.0
 40
26.0
 40
26.0
 40
26.0
 40
27.0
 40
27.0
 40
27.0
 40
28.0
 40
28.0
 40
28.0
 40
29.0
 40
29.0
 40
29.0
 40
30.0
 40
30.0
 40
30.0
 40
31.0
 40
31.0
 40
31.0
 40
32.0
 40
32.0
 40
32.0
 40
33.0
 40
33.0
 40
33.0
 40
34.0
 40
34.0
 40
34.0
 40
35.0
 40
35.0
 40
35.0
 40
36.0
 40
36.0
 40
36.0
 40
37.0
 40
37.0
 40
37.0
 40
38.0
 40
38.0
 40
38.0
 40
39.0
 40
39.0
 40
39.0
 40
40.0
 40
40.0
 40
40.0
 40
41.0
 40
41.0
 40
41.0
 40
42.0
 40
42.0
 40
42.0
 40
43.0
 40
43.0
 40
43.0
 40
44.0
 40
44.0
 40
44.0
 40
45.0
 40
45.0
 40
45.0
 40
46.0
 40
46.0
 40
46.0
 40
47.0
 40
47.0
 40
47.0
 40
48.0
 40
48.0
 40
48.0
 40
49.0
 40
49.0
 40
49.0
 40
50.0
 40
50.0
 40
50.0
 40
51.0
 40
51.0
 40
51.0
 40
52.0
 40
52.0
 40
52.0
 40
53.0
 40
53.0
 40
53.0
 40
54.0
 40
54.0
 40
54.0
 40
55.0
 40
55.0
 40
55.0
 40
56.0
 40
56.0
 40
56.0
 40
57.0
 40
57.0
 40
57.0
 40
58.0
 40
58.0
 40
58.0
 40
59.0
 40
59.0
 40
59.0
 40
60.0
 40
60.0
 40
60.0
 40
61.0
 40
61.0
 40
61.0
 40
62.0
 40
62.0
 40
62.0
 40
63.0
 40
63.0
 40
63.0
 40
64.0
 40
64.0
 40
64.0
 40
65.0
 40
65.0
 40
65.0
 40
66.0
 40
66.0
 40
66.0
 40
67.0
 40
67.0
 40
67.0
 40
67.0
 10
147.1948697931592
 20
-173.614809427492
 30
0.0
 10
147.1948697931592
 20
-173.681385897747
 30
0.0
 10
147.1879796021887
 20
-173.7462398202543
 30
0.0
 10
147.1752327488933
 20
-173.8090266854755
 30
0.0
 10
147.1659309910831
 20
-173.8566981942488
 30
0.0
 10
147.1500835518509
 20
-173.901613626639
 30
0.0
 10
147.1340638578445
 20
-173.9465721227215
 30
0.0
 10
147.1294129789394
 20
-173.9596634855655
 30
0.0
 10
147.1270014120998
 20
-173.973788377055
 30
0.0
 10
147.1216615140976
 20
-173.9866644214324
 30
0.0
 10
146.9738669177804
 20
-174.3543853007906
 30
0.0
 10
146.6154047325402
 20
-174.6147483920857
 30
0.0
 10
146.1949308285654
 20
-174.6147483920857
 30
0.0
 10
146.1603076189386
 20
-174.6147483920857
 30
0.0
 10
145.2320266404381
 20
-174.6147483920857
 30
0.0
 10
143.9855910938747
 20
-174.6147483920857
 30
0.0
 10
143.7335823591287
 20
-175.1909406119938
 30
0.0
 10
143.2712505450081
 20
-175.653358553504
 30
0.0
 10
142.6950583251001
 20
-175.9053242245526
 30
0.0
 10
142.6950583251001
 20
-177.1509846246344
 30
0.0
 10
142.6950583251001
 20
-178.0788780298942
 30
0.0
 10
142.6950583251001
 20
-178.1147931503253
 30
0.0
 10
142.6950583251001
 20
-178.4259714000331
 30
0.0
 10
142.5498475503968
 20
-178.7004593828178
 30
0.0
 10
142.3269498725012
 20
-178.8839107174074
 30
0.0
 10
142.3269498725012
 20
-178.8839107174074
 30
0.0
 10
142.3269498725012
 20
-178.8839107174074
 30
0.0
 10
142.3269498725012
 20
-178.8839107174074
 30
0.0
 10
142.3269498725012
 20
-178.8839107174074
 30
0.0
 10
142.3266053629526
 20
-178.8841260358739
 30
0.0
 10
142.3266053629526
 20
-178.8841260358739
 30
0.0
 10
142.2849197075811
 20
-178.9184908633418
 30
0.0
 10
142.2408224853699
 20
-178.9493675316271
 30
0.0
 10
142.1937969319962
 20
-178.9767129770426
 30
0.0
 10
142.1888015435426
 20
-178.979641308205
 30
0.0
 10
142.1836339003148
 20
-178.982095938737
 30
0.0
 10
142.1786385118612
 20
-178.9849381425149
 30
0.0
 10
142.1359193278441
 20
-179.0087523650554
 30
0.0
 10
142.0923388699557
 20
-179.0305856576944
 30
0.0
 10
142.0461745904533
 20
-179.0479833898949
 30
0.0
 10
142.0268820557359
 20
-179.0554764725728
 30
0.0
 10
142.0065559923729
 20
-179.0601273514779
 30
0.0
 10
141.9867466933327
 20
-179.066414650741
 30
0.0
 10
141.9514344646089
 20
-179.0772667015196
 30
0.0
 10
141.9169835097564
 20
-179.0891522809437
 30
0.0
 10
141.8802932428385
 20
-179.0960855356064
 30
0.0
 10
141.8217266195893
 20
-179.1074974144001
 30
0.0
 10
141.7614374485974
 20
-179.114043095822
 30
0.0
 10
141.6994257298629
 20
-179.114301477986
 30
0.0
 10
141.6994257298629
 20
-179.114301477986
 30
0.0
 10
141.6949471057321
 20
-179.1147751786114
 30
0.0
 10
141.6949471057321
 20
-179.1147751786114
 30
0.0
 10
141.2117724639258
 20
-179.1147751786114
 30
0.0
 10
140.8085240373773
 20
-178.7720312415264
 30
0.0
 10
140.7153342045013
 20
-178.3163312362124
 30
0.0
 10
140.7020705868831
 20
-178.2512189315412
 30
0.0
 10
140.6950081411383
 20
-178.1838242511123
 30
0.0
 10
140.6950081411383
 20
-178.1147931503253
 30
0.0
 10
140.6950081411383
 20
-178.1147931503253
 30
0.0
 10
140.6950081411383
 20
-178.1147931503253
 30
0.0
 10
140.6950081411383
 20
-178.1147931503253
 30
0.0
 10
140.6950081411383
 20
-178.0936919404807
 30
0.0
 10
140.6950081411383
 20
-177.7670107610894
 30
0.0
 10
140.6950081411383
 20
-177.2518828586599
 30
0.0
 10
140.6950081411383
 20
-176.8850663168654
 30
0.0
 10
140.6950081411383
 20
-176.4234235218419
 30
0.0
 10
140.6950081411383
 20
-175.90536728825
 30
0.0
 10
140.1188159212303
 20
-175.6534446808886
 30
0.0
 10
139.6563118523355
 20
-175.1910267393835
 30
0.0
 10
139.4043031175894
 20
-174.6147483920857
 30
0.0
 10
138.1578675710261
 20
-174.6147483920857
 30
0.0
 10
137.2295865925255
 20
-174.6147483920857
 30
0.0
 10
137.1949633828987
 20
-174.6147483920857
 30
0.0
 10
136.9879131442352
 20
-174.6147483920857
 30
0.0
 10
136.795504561384
 20
-174.5517892720954
 30
0.0
 10
136.6358243856427
 20
-174.4439577834071
 30
0.0
 10
136.4230897394285
 20
-174.3002111742825
 30
0.0
 10
136.2685772069151
 20
-174.0767106046794
 30
0.0
 10
136.2153504816679
 20
-173.8163475133791
 30
0.0
 10
136.2020868640497
 20
-173.7512352087079
 30
0.0
 10
136.195024418305
 20
-173.6838405282789
 30
0.0
 10
136.195024418305
 20
-173.614809427492
 30
0.0
 10
136.195024418305
 20
-173.614809427492
 30
0.0
 10
136.195024418305
 20
-173.614809427492
 30
0.0
 10
136.195024418305
 20
-173.614809427492
 30
0.0
 10
136.195024418305
 20
-173.614809427492
 30
0.0
 10
136.195024418305
 20
-173.614809427492
 30
0.0
 10
136.195024418305
 20
-173.614809427492
 30
0.0
 10
136.195024418305
 20
-173.614809427492
 30
0.0
 10
136.195024418305
 20
-173.6145510453332
 30
0.0
 10
136.195024418305
 20
-173.6145510453332
 30
0.0
 10
136.195024418305
 20
-173.5509890336303
 30
0.0
 10
136.2020868640497
 20
-173.4892356970546
 30
0.0
 10
136.2138001886996
 20
-173.4292049082267
 30
0.0
 10
136.2205181248958
 20
-173.3929883419342
 30
0.0
 10
136.2324037043199
 20
-173.3589249603276
 30
0.0
 10
136.2429112455499
 20
-173.3242156233112
 30
0.0
 10
136.2494569269719
 20
-173.3038895599482
 30
0.0
 10
136.2542800606513
 20
-173.2829606048779
 30
0.0
 10
136.2618592707188
 20
-173.2632374332222
 30
0.0
 10
136.2792570029193
 20
-173.2170731537199
 30
0.0
 10
136.3011333592507
 20
-173.1736649506057
 30
0.0
 10
136.3249045180989
 20
-173.1310318939783
 30
0.0
 10
136.3276605944871
 20
-173.1260365055247
 30
0.0
 10
136.330244416101
 20
-173.1207827349072
 30
0.0
 10
136.3331727472635
 20
-173.1158304101458
 30
0.0
 10
136.3605612563712
 20
-173.0686326019979
 30
0.0
 10
136.3915671157385
 20
-173.0245784434841
 30
0.0
 10
136.426018070591
 20
-172.9827205333384
 30
0.0
 10
136.426018070591
 20
-172.9827205333384
 30
0.0
 10
136.426018070591
 20
-172.9826774696409
 30
0.0
 10
136.426018070591
 20
-172.9826774696409
 30
0.0
 10
136.426018070591
 20
-172.9826774696409
 30
0.0
 10
136.426018070591
 20
-172.9826774696409
 30
0.0
 10
136.426018070591
 20
-172.9826774696409
 30
0.0
 10
136.6094694051805
 20
-172.7598228554427
 30
0.0
 10
136.8838712605807
 20
-172.6147843355137
 30
0.0
 10
137.1949633828987
 20
-172.6147843355137
 30
0.0
 10
137.2295865925255
 20
-172.6147843355137
 30
0.0
 10
138.1578675710261
 20
-172.6147843355137
 30
0.0
 10
139.4043031175894
 20
-172.6147843355137
 30
0.0
 10
139.6563118523355
 20
-172.0385490519082
 30
0.0
 10
140.1188159212303
 20
-171.5760880467108
 30
0.0
 10
140.6950081411383
 20
-171.3241654393494
 30
0.0
 10
140.6950081411383
 20
-170.0785050392727
 30
0.0
 10
140.6950081411383
 20
-169.1506977613975
 30
0.0
 10
140.6950081411383
 20
-169.1147826409664
 30
0.0
 10
140.6950081411383
 20
-168.8244902826418
 30
0.0
 10
140.8207541263499
 20
-168.5653329747613
 30
0.0
 10
141.0181580976547
 20
-168.3826567866585
 30
0.0
 10
141.0181580976547
 20
-168.3826567866585
 30
0.0
 10
141.0181580976547
 20
-168.3826567866585
 30
0.0
 10
141.0181580976547
 20
-168.3826567866585
 30
0.0
 10
141.0181580976547
 20
-168.3826567866585
 30
0.0
 10
141.0186748619775
 20
-168.3822692134125
 30
0.0
 10
141.0188471167518
 20
-168.382053894946
 30
0.0
 10
141.0632888485115
 20
-168.3410572586715
 30
0.0
 10
141.110831166208
 20
-168.3037641000463
 30
0.0
 10
141.1621630889382
 20
-168.2712940750952
 30
0.0
 10
141.1621630889382
 20
-168.2712940750952
 30
0.0
 10
141.162679853261
 20
-168.270992629239
 30
0.0
 10
141.162679853261
 20
-168.270992629239
 30
0.0
 10
141.2134950116684
 20
-168.2389532412262
 30
0.0
 10
141.2665494821413
 20
-168.2106603945548
 30
0.0
 10
141.3228767933251
 20
-168.1880519554342
 30
0.0
 10
141.3368294300404
 20
-168.1823244841912
 30
0.0
 10
141.352332359724
 20
-168.179568407803
 30
0.0
 10
141.3666295059878
 20
-168.1744868919597
 30
0.0
 10
141.4105544734247
 20
-168.159113153358
 30
0.0
 10
141.4543071860874
 20
-168.1435240962848
 30
0.0
 10
141.5008159751382
 20
-168.1343515295565
 30
0.0
 10
141.5612774009044
 20
-168.1222075679736
 30
0.0
 10
141.6241503935102
 20
-168.1158772050182
 30
0.0
 10
141.6882291695358
 20
-168.11544656808
 30
0.0
 10
141.6906407363755
 20
-168.1154035043877
 30
0.0
 10
141.6927077936667
 20
-168.1148006126803
 30
0.0
 10
141.6949471057321
 20
-168.1148006126803
 30
0.0
 10
141.7640212702113
 20
-168.1148006126803
 30
0.0
 10
141.831372886948
 20
-168.1217769310354
 30
0.0
 10
141.8964851916192
 20
-168.1351266760433
 30
0.0
 10
142.1569344103041
 20
-168.1883534012904
 30
0.0
 10
142.3803488525225
 20
-168.3428659338039
 30
0.0
 10
142.5241815890317
 20
-168.5556867074026
 30
0.0
 10
142.63201307772
 20
-168.7152807557594
 30
0.0
 10
142.6950583251001
 20
-168.9076462749132
 30
0.0
 10
142.6950583251001
 20
-169.1147395772741
 30
0.0
 10
142.6950583251001
 20
-169.1147395772741
 30
0.0
 10
142.6950583251001
 20
-169.1147826409664
 30
0.0
 10
142.6950583251001
 20
-169.1147826409664
 30
0.0
 10
142.6950583251001
 20
-169.1370465705385
 30
0.0
 10
142.6950583251001
 20
-169.4969298576652
 30
0.0
 10
142.6950583251001
 20
-170.0596000777961
 30
0.0
 10
142.6950583251001
 20
-170.4123347917934
 30
0.0
 10
142.6950583251001
 20
-170.8442636382541
 30
0.0
 10
142.6950583251001
 20
-171.3242515667391
 30
0.0
 10
143.2712505450081
 20
-171.5761741740954
 30
0.0
 10
143.7335823591287
 20
-172.0385921156056
 30
0.0
 10
143.9855910938747
 20
-172.6147843355137
 30
0.0
 10
144.46549289497
 20
-172.6147843355137
 30
0.0
 10
144.8973356140461
 20
-172.6147843355137
 30
0.0
 10
145.2501133917357
 20
-172.6147843355137
 30
0.0
 10
145.813386503574
 20
-172.6147843355137
 30
0.0
 10
146.1735712365569
 20
-172.6147843355137
 30
0.0
 10
146.1949308285654
 20
-172.6147843355137
 30
0.0
 10
146.3329069027497
 20
-172.6147843355137
 30
0.0
 10
146.4645095502862
 20
-172.6427757363288
 30
0.0
 10
146.5842266183986
 20
-172.6933755762696
 30
0.0
 10
146.7635438384059
 20
-172.7692968680271
 30
0.0
 10
146.9163338231767
 20
-172.8960763818843
 30
0.0
 10
147.0241653118651
 20
-173.0556704302359
 30
0.0
 10
147.0959955527325
 20
-173.1620377533456
 30
0.0
 10
147.1480164945598
 20
-173.2830467322624
 30
0.0
 10
147.1745437297962
 20
-173.4132713416049
 30
0.0
 10
147.1879796021887
 20
-173.4783405825838
 30
0.0
 10
147.1948697931592
 20
-173.5457352630127
 30
0.0
 10
147.1948697931592
 20
-173.614809427492
 30
0.0
 10
147.1948697931592
 20
-173.614809427492
 30
0.0
 10
147.1948697931592
 20
-173.614809427492
 30
0.0
 10
147.1948697931592
 20
-173.614809427492
 30
0.0
 10
147.1948697931592
 20
-173.614809427492
 30
0.0
 10
147.1948697931592
 20
-173.614809427492
 30
0.0
 10
147.1948697931592
 20
-173.614809427492
 30
0.0
  0
SPLINE
  5
4D
330
1F
100
AcDbEntity
  8
Layer 1
 62
     1
420
 15597568
370
    18
100
AcDbSpline
210
0.0
220
0.0
230
1.0
 70
    11
 71
     3
 72
    17
 73
    13
 74
     0
 42
0.0000000001
 43
0.0000000001
 12
1.0
 22
0.0
 32
0.0
 13
1.0
 23
0.0
 33
0.0
 40
0.0
 40
0.0
 40
0.0
 40
0.0
 40
1.0
 40
1.0
 40
1.0
 40
2.0
 40
2.0
 40
2.0
 40
3.0
 40
3.0
 40
3.0
 40
4.0
 40
4.0
 40
4.0
 40
4.0
 10
150.1905525723582
 20
-183.6516214231369
 30
0.0
 10
149.3621793629299
 20
-183.6516214231369
 30
0.0
 10
148.6905579980804
 20
-182.9800431219848
 30
0.0
 10
148.6905579980804
 20
-182.1516268488591
 30
0.0
 10
148.6905579980804
 20
-181.3232105757385
 30
0.0
 10
149.3621793629299
 20
-180.6516322745813
 30
0.0
 10
150.1905525723582
 20
-180.6516322745813
 30
0.0
 10
151.0189257817865
 20
-180.6516322745813
 30
0.0
 10
151.690547146636
 20
-181.3232105757385
 30
0.0
 10
151.690547146636
 20
-182.1516268488591
 30
0.0
 10
151.690547146636
 20
-182.9800431219848
 30
0.0
 10
151.0189257817865
 20
-183.6516214231369
 30
0.0
 10
150.1905525723582
 20
-183.6516214231369
 30
0.0
  0
SPLINE
  5
4E
330
1F
100
AcDbEntity
  8
Layer 1
 62
     1
420
 15597568
370
    18
100
AcDbSpline
210
0.0
220
0.0
230
1.0
 70
    11
 71
     3
 72
    23
 73
    19
 74
     0
 42
0.0000000001
 43
0.0000000001
 12
1.0
 22
0.0
 32
0.0
 13
1.0
 23
0.0
 33
0.0
 40
0.0
 40
0.0
 40
0.0
 40
0.0
 40
1.0
 40
1.0
 40
1.0
 40
2.0
 40
2.0
 40
2.0
 40
3.0
 40
3.0
 40
3.0
 40
4.0
 40
4.0
 40
4.0
 40
5.0
 40
5.0
 40
5.0
 40
6.0
 40
6.0
 40
6.0
 40
6.0
 10
112.6206260956218
 20
-132.6550920592717
 30
0.0
 10
112.6206260956218
 20
-132.6550920592717
 30
0.0
 10
108.8753235449293
 20
-136.4017780973896
 30
0.0
 10
108.8753235449293
 20
-136.4017780973896
 30
0.0
 10
108.3481349821588
 20
-136.929161399769
 30
0.0
 10
107.4932060204696
 20
-136.9292234872819
 30
0.0
 10
106.9659408629341
 20
-136.4019167625053
 30
0.0
 10
106.9659408629341
 20
-136.4019167625053
 30
0.0
 10
103.2195190864585
 20
-132.6551996347806
 30
0.0
 10
103.2195190864585
 20
-132.6551996347806
 30
0.0
 10
102.3691249682723
 20
-131.8047384753048
 30
0.0
 10
102.9714604111115
 20
-130.3506616691303
 30
0.0
 10
104.1741467126832
 20
-130.3506666601107
 30
0.0
 10
104.1741467126832
 20
-130.3506666601107
 30
0.0
 10
111.6658710398546
 20
-130.3506977497144
 30
0.0
 10
111.6658710398546
 20
-130.3506977497144
 30
0.0
 10
112.8684574020084
 20
-130.3507027402816
 30
0.0
 10
113.4708260239497
 20
-131.8045780732925
 30
0.0
 10
112.6206260956218
 20
-132.6550920592717
 30
0.0
  0
SPLINE
  5
4F
330
1F
100
AcDbEntity
  8
Layer 1
 62
     1
420
 15597568
370
    18
100
AcDbSpline
210
0.0
220
0.0
230
1.0
 70
    11
 71
     3
 72
    23
 73
    19
 74
     0
 42
0.0000000001
 43
0.0000000001
 12
1.0
 22
0.0
 32
0.0
 13
1.0
 23
0.0
 33
0.0
 40
0.0
 40
0.0
 40
0.0
 40
0.0
 40
1.0
 40
1.0
 40
1.0
 40
2.0
 40
2.0
 40
2.0
 40
3.0
 40
3.0
 40
3.0
 40
4.0
 40
4.0
 40
4.0
 40
5.0
 40
5.0
 40
5.0
 40
6.0
 40
6.0
 40
6.0
 40
6.0
 10
98.45301463743903
 20
-143.5695393134365
 30
0.0
 10
98.45301463743903
 20
-143.5695393134365
 30
0.0
 10
98.45301463743903
 20
-136.2414703462481
 30
0.0
 10
98.45301463743903
 20
-136.2414703462481
 30
0.0
 10
98.45301463743903
 20
-135.0387364907714
 30
0.0
 10
99.90719219020104
 20
-134.4364286187933
 30
0.0
 10
100.7576213140433
 20
-135.2869220240731
 30
0.0
 10
100.7576213140433
 20
-135.2869220240731
 30
0.0
 10
104.4207636089214
 20
-138.9503412051058
 30
0.0
 10
104.4207636089214
 20
-138.9503412051058
 30
0.0
 10
104.9478553165561
 20
-139.4774727540556
 30
0.0
 10
104.9479270719054
 20
-140.3320574700427
 30
0.0
 10
104.420923893078
 20
-140.8592775262508
 30
0.0
 10
104.420923893078
 20
-140.8592775262508
 30
0.0
 10
100.7577815982069
 20
-144.5239273124095
 30
0.0
 10
100.7577815982069
 20
-144.5239273124095
 30
0.0
 10
99.90741803165912
 20
-145.3746408286884
 30
0.0
 10
98.45301463743903
 20
-144.7723824794781
 30
0.0
 10
98.45301463743903
 20
-143.5695393134365
 30
0.0
  0
SPLINE
  5
50
330
1F
100
AcDbEntity
  8
Layer 1
 62
     1
420
 15597568
370
    18
100
AcDbSpline
210
0.0
220
0.0
230
1.0
 70
    11
 71
     3
 72
    23
 73
    19
 74
     0
 42
0.0000000001
 43
0.0000000001
 12
1.0
 22
0.0
 32
0.0
 13
1.0
 23
0.0
 33
0.0
 40
0.0
 40
0.0
 40
0.0
 40
0.0
 40
1.0
 40
1.0
 40
1.0
 40
2.0
 40
2.0
 40
2.0
 40
3.0
 40
3.0
 40
3.0
 40
4.0
 40
4.0
 40
4.0
 40
5.0
 40
5.0
 40
5.0
 40
6.0
 40
6.0
 40
6.0
 40
6.0
 10
103.3289367232139
 20
-147.0462710572876
 30
0.0
 10
103.3289367232139
 20
-147.0462710572876
 30
0.0
 10
106.9672517382546
 20
-143.4066218993556
 30
0.0
 10
106.9672517382546
 20
-143.4066218993556
 30
0.0
 10
107.4944368114208
 20
-142.8792435113686
 30
0.0
 10
108.3493574736108
 20
-142.8791777600705
 30
0.0
 10
108.8766236610777
 20
-143.4064750510197
 30
0.0
 10
108.8766236610777
 20
-143.4064750510197
 30
0.0
 10
112.5160427943721
 20
-147.0461088739759
 30
0.0
 10
112.5160427943721
 20
-147.0461088739759
 30
0.0
 10
113.3664470376438
 20
-147.8965632826681
 30
0.0
 10
112.7641217732345
 20
-149.3506487862184
 30
0.0
 10
111.5614330860734
 20
-149.3506513204162
 30
0.0
 10
111.5614330860734
 20
-149.3506513204162
 30
0.0
 10
104.2836989377377
 20
-149.3506666553908
 30
0.0
 10
104.2836989377377
 20
-149.3506666553908
 30
0.0
 10
103.0811076247571
 20
-149.3506691893833
 30
0.0
 10
102.4787321469219
 20
-147.8967873972358
 30
0.0
 10
103.3289367232139
 20
-147.0462710572876
 30
0.0
  0
SPLINE
  5
51
330
1F
100
AcDbEntity
  8
Layer 1
 62
     1
420
 15597568
370
    18
100
AcDbSpline
210
0.0
220
0.0
230
1.0
 70
    11
 71
     3
 72
    23
 73
    19
 74
     0
 42
0.0000000001
 43
0.0000000001
 12
1.0
 22
0.0
 32
0.0
 13
1.0
 23
0.0
 33
0.0
 40
0.0
 40
0.0
 40
0.0
 40
0.0
 40
1.0
 40
1.0
 40
1.0
 40
2.0
 40
2.0
 40
2.0
 40
3.0
 40
3.0
 40
3.0
 40
4.0
 40
4.0
 40
4.0
 40
5.0
 40
5.0
 40
5.0
 40
6.0
 40
6.0
 40
6.0
 40
6.0
 10
111.4216716160477
 20
-138.9491322049173
 30
0.0
 10
111.4216716160477
 20
-138.9491322049173
 30
0.0
 10
115.1482275039488
 20
-135.2211497060743
 30
0.0
 10
115.1482275039488
 20
-135.2211497060743
 30
0.0
 10
115.9986043315261
 20
-134.3704473347691
 30
0.0
 10
117.4530007877398
 20
-134.9727292101472
 30
0.0
 10
117.4529807712307
 20
-136.1755738688693
 30
0.0
 10
117.4529807712307
 20
-136.1755738688693
 30
0.0
 10
117.4528567181071
 20
-143.6302518153831
 30
0.0
 10
117.4528567181071
 20
-143.6302518153831
 30
0.0
 10
117.4528367036443
 20
-144.8329732620181
 30
0.0
 10
115.9986747646
 20
-145.4352625555937
 30
0.0
 10
115.1482523542433
 20
-144.5847799851884
 30
0.0
 10
115.1482523542433
 20
-144.5847799851884
 30
0.0
 10
111.4218205194696
 20
-140.8580845375205
 30
0.0
 10
111.4218205194696
 20
-140.8580845375205
 30
0.0
 10
110.8947212835258
 20
-140.3309480138573
 30
0.0
 10
110.894654622654
 20
-139.4763509524861
 30
0.0
 10
111.4216716160477
 20
-138.9491322049173
 30
0.0
  0
ENDSEC
  0
SECTION
  2
OBJECTS
  0
DICTIONARY
  5
C
330
0
100
AcDbDictionary
281
     1
  3
ACAD_GROUP
350
D
  3
ACAD_LAYOUT
350
1A
  3
ACAD_MATERIAL
350
3B
  3
ACAD_MLEADERSTYLE
350
53
  3
ACAD_MLINESTYLE
350
17
  3
ACAD_PLOTSETTINGS
350
19
  3
ACAD_PLOTSTYLENAME
350
E
  3
ACAD_TABLESTYLE
350
52
  3
ACAD_VISUALSTYLE
350
2A
  0
SUN
  5
3F
330
29
100
AcDbSun
 90
        1
290
     0
 63
     7
421
 16777215
 40
1.0
291
     1
 91
  2455826
 92
 54000000
292
     0
 70
     2
 71
   256
280
     1
  0
DICTIONARY
  5
D
102
{ACAD_REACTORS
330
C
102
}
330
C
100
AcDbDictionary
281
     1
  0
DICTIONARY
  5
1A
102
{ACAD_REACTORS
330
C
102
}
330
C
100
AcDbDictionary
281
     1
  3
Layout1
350
1E
  3
Layout2
350
26
  3
Model
350
22
  0
DICTIONARY
  5
3B
102
{ACAD_REACTORS
330
C
102
}
330
C
100
AcDbDictionary
281
     1
  3
ByBlock
350
3D
  3
ByLayer
350
3C
  3
Global
350
3E
  0
DICTIONARY
  5
53
102
{ACAD_REACTORS
330
C
102
}
330
C
100
AcDbDictionary
281
     1
  0
DICTIONARY
  5
17
102
{ACAD_REACTORS
330
C
102
}
330
C
100
AcDbDictionary
281
     1
  3
Standard
350
18
  0
DICTIONARY
  5
19
102
{ACAD_REACTORS
330
C
102
}
330
C
100
AcDbDictionary
281
     1
  0
ACDBDICTIONARYWDFLT
  5
E
102
{ACAD_REACTORS
330
C
102
}
330
C
100
AcDbDictionary
281
     1
  3
Normal
350
F
100
AcDbDictionaryWithDefault
340
F
  0
DICTIONARY
  5
52
102
{ACAD_REACTORS
330
C
102
}
330
C
100
AcDbDictionary
281
     1
  0
DICTIONARY
  5
2A
102
{ACAD_REACTORS
330
C
102
}
330
C
100
AcDbDictionary
281
     1
  3
2dWireframe
350
2F
  3
3D Hidden
350
31
  3
3dWireframe
350
30
  3
Basic
350
32
  3
Brighten
350
36
  3
ColorChange
350
3A
  3
Conceptual
350
34
  3
Dim
350
35
  3
Facepattern
350
39
  3
Flat
350
2B
  3
FlatWithEdges
350
2C
  3
Gouraud
350
2D
  3
GouraudWithEdges
350
2E
  3
Linepattern
350
38
  3
Realistic
350
33
  3
Thicken
350
37
  0
LAYOUT
  5
1E
102
{ACAD_REACTORS
330
1A
102
}
330
1A
100
AcDbPlotSettings
  1

  2
none_device
  4

  6

 40
0.0
 41
0.0
 42
0.0
 43
0.0
 44
0.0
 45
0.0
 46
0.0
 47
0.0
 48
0.0
 49
0.0
140
0.0
141
0.0
142
1.0
143
1.0
 70
   688
 72
     0
 73
     0
 74
     5
  7

 75
    16
 76
     0
 77
     2
 78
   300
147
1.0
148
0.0
149
0.0
100
AcDbLayout
  1
Layout1
 70
     1
 71
     1
 10
0.0
 20
0.0
 11
12.0
 21
9.0
 12
0.0
 22
0.0
 32
0.0
 14
1.000000000000000E+20
 24
1.000000000000000E+20
 34
1.000000000000000E+20
 15
-1.000000000000000E+20
 25
-1.000000000000000E+20
 35
-1.000000000000000E+20
146
0.0
 13
0.0
 23
0.0
 33
0.0
 16
1.0
 26
0.0
 36
0.0
 17
0.0
 27
1.0
 37
0.0
 76
     0
330
1B
  0
LAYOUT
  5
26
102
{ACAD_REACTORS
330
1A
102
}
330
1A
100
AcDbPlotSettings
  1

  2
none_device
  4

  6

 40
0.0
 41
0.0
 42
0.0
 43
0.0
 44
0.0
 45
0.0
 46
0.0
 47
0.0
 48
0.0
 49
0.0
140
0.0
141
0.0
142
1.0
143
1.0
 70
   688
 72
     0
 73
     0
 74
     5
  7

 75
    16
 76
     0
 77
     2
 78
   300
147
1.0
148
0.0
149
0.0
100
AcDbLayout
  1
Layout2
 70
     1
 71
     2
 10
0.0
 20
0.0
 11
0.0
 21
0.0
 12
0.0
 22
0.0
 32
0.0
 14
0.0
 24
0.0
 34
0.0
 15
0.0
 25
0.0
 35
0.0
146
0.0
 13
0.0
 23
0.0
 33
0.0
 16
1.0
 26
0.0
 36
0.0
 17
0.0
 27
1.0
 37
0.0
 76
     0
330
23
  0
LAYOUT
  5
22
102
{ACAD_REACTORS
330
1A
102
}
330
1A
100
AcDbPlotSettings
  1

  2
none_device
  4

  6

 40
0.0
 41
0.0
 42
0.0
 43
0.0
 44
0.0
 45
0.0
 46
0.0
 47
0.0
 48
0.0
 49
0.0
140
0.0
141
0.0
142
1.0
143
1.0
 70
  1712
 72
     0
 73
     0
 74
     0
  7

 75
     0
 76
     0
 77
     2
 78
   300
147
1.0
148
0.0
149
0.0
100
AcDbLayout
  1
Model
 70
     1
 71
     0
 10
0.0
 20
0.0
 11
12.0
 21
9.0
 12
0.0
 22
0.0
 32
0.0
 14
1.000000000000000E+20
 24
1.000000000000000E+20
 34
1.000000000000000E+20
 15
-1.000000000000000E+20
 25
-1.000000000000000E+20
 35
-1.000000000000000E+20
146
0.0
 13
0.0
 23
0.0
 33
0.0
 16
1.0
 26
0.0
 36
0.0
 17
0.0
 27
1.0
 37
0.0
 76
     0
330
1F
331
29
  0
MATERIAL
  5
3D
102
{ACAD_REACTORS
330
3B
102
}
330
3B
100
AcDbMaterial
  1
ByBlock
 72
     1
 94
      127
  0
MATERIAL
  5
3C
102
{ACAD_REACTORS
330
3B
102
}
330
3B
100
AcDbMaterial
  1
ByLayer
 72
     1
 94
      127
  0
MATERIAL
  5
3E
102
{ACAD_REACTORS
330
3B
102
}
330
3B
100
AcDbMaterial
  1
Global
 72
     1
 94
      127
  0
MLINESTYLE
  5
18
102
{ACAD_REACTORS
330
17
102
}
330
17
100
AcDbMlineStyle
  2
Standard
 70
     0
  3

 62
   256
 51
90.0
 52
90.0
 71
     2
 49
0.5
 62
   256
  6
BYLAYER
 49
-0.5
 62
   256
  6
BYLAYER
  0
ACDBPLACEHOLDER
  5
F
102
{ACAD_REACTORS
330
E
102
}
330
E
  0
VISUALSTYLE
  5
2F
102
{ACAD_REACTORS
330
2A
102
}
330
2A
100
AcDbVisualStyle
  2
2dWireframe
 70
     4
177
     2
291
     0
 71
     0
176
     1
 72
     2
176
     1
 73
     0
176
     1
 90
        0
176
     1
 40
-0.6
176
     1
 41
-30.0
176
     1
 62
     5
 63
     7
421
 16777215
176
     1
 74
     1
176
     1
 91
        4
176
     1
 64
     7
176
     1
 65
   257
176
     1
 75
     1
176
     1
175
     1
176
     1
 42
1.0
176
     1
 92
        0
176
     1
 66
   257
176
     1
 43
1.0
176
     1
 76
     1
176
     1
 77
     6
176
     1
 78
     2
176
     1
 67
     7
176
     1
 79
     5
176
     1
170
     0
176
     1
171
     0
176
     1
290
     0
176
     1
 93
        1
176
     1
 44
0.0
176
     1
173
     0
176
     1
  0
VISUALSTYLE
  5
31
102
{ACAD_REACTORS
330
2A
102
}
330
2A
100
AcDbVisualStyle
  2
3D Hidden
 70
     6
177
     2
291
     0
 71
     1
176
     1
 72
     2
176
     1
 73
     2
176
     1
 90
        0
176
     1
 40
-0.6
176
     1
 41
-30.0
176
     1
 62
     5
 63
     7
421
 16777215
176
     1
 74
     2
176
     1
 91
        2
176
     1
 64
     7
176
     1
 65
   257
176
     1
 75
     2
176
     1
175
     1
176
     1
 42
40.0
176
     1
 92
        0
176
     1
 66
   257
176
     1
 43
1.0
176
     1
 76
     1
176
     1
 77
     6
176
     1
 78
     2
176
     1
 67
     7
176
     1
 79
     3
176
     1
170
     0
176
     1
171
     0
176
     1
290
     0
176
     1
 93
        1
176
     1
 44
0.0
176
     1
173
     0
176
     1
  0
VISUALSTYLE
  5
30
102
{ACAD_REACTORS
330
2A
102
}
330
2A
100
AcDbVisualStyle
  2
3dWireframe
 70
     5
177
     2
291
     0
 71
     0
176
     1
 72
     2
176
     1
 73
     0
176
     1
 90
        0
176
     1
 40
-0.6
176
     1
 41
-30.0
176
     1
 62
     5
 63
     7
421
 16777215
176
     1
 74
     1
176
     1
 91
        4
176
     1
 64
     7
176
     1
 65
   257
176
     1
 75
     1
176
     1
175
     1
176
     1
 42
1.0
176
     1
 92
        0
176
     1
 66
   257
176
     1
 43
1.0
176
     1
 76
     1
176
     1
 77
     6
176
     1
 78
     2
176
     1
 67
     7
176
     1
 79
     5
176
     1
170
     0
176
     1
171
     0
176
     1
290
     0
176
     1
 93
        1
176
     1
 44
0.0
176
     1
173
     0
176
     1
  0
VISUALSTYLE
  5
32
102
{ACAD_REACTORS
330
2A
102
}
330
2A
100
AcDbVisualStyle
  2
Basic
 70
     7
177
     2
291
     1
 71
     1
176
     1
 72
     0
176
     1
 73
     1
176
     1
 90
        0
176
     1
 40
-0.6
176
     1
 41
-30.0
176
     1
 62
     5
 63
     7
421
 16777215
176
     1
 74
     0
176
     1
 91
        4
176
     1
 64
     7
176
     1
 65
   257
176
     1
 75
     1
176
     1
175
     1
176
     1
 42
1.0
176
     1
 92
        8
176
     1
 66
     7
176
     1
 43
1.0
176
     1
 76
     1
176
     1
 77
     6
176
     1
 78
     2
176
     1
 67
     7
176
     1
 79
     5
176
     1
170
     0
176
     1
171
     0
176
     1
290
     0
176
     1
 93
        1
176
     1
 44
0.0
176
     1
173
     0
176
     1
  0
VISUALSTYLE
  5
36
102
{ACAD_REACTORS
330
2A
102
}
330
2A
100
AcDbVisualStyle
  2
Brighten
 70
    12
177
     2
291
     1
 71
     2
176
     1
 72
     2
176
     1
 73
     0
176
     1
 90
        0
176
     1
 40
-0.6
176
     1
 41
-30.0
176
     1
 62
     5
 63
     7
421
 16777215
176
     1
 74
     1
176
     1
 91
        4
176
     1
 64
     7
176
     1
 65
   257
176
     1
 75
     1
176
     1
175
     1
176
     1
 42
1.0
176
     1
 92
        8
176
     1
 66
     7
176
     1
 43
1.0
176
     1
 76
     1
176
     1
 77
     6
176
     1
 78
     2
176
     1
 67
     7
176
     1
 79
     5
176
     1
170
     0
176
     1
171
     0
176
     1
290
     0
176
     1
 93
        1
176
     1
 44
50.0
176
     1
173
     0
176
     1
  0
VISUALSTYLE
  5
3A
102
{ACAD_REACTORS
330
2A
102
}
330
2A
100
AcDbVisualStyle
  2
ColorChange
 70
    16
177
     2
291
     1
 71
     2
176
     1
 72
     2
176
     1
 73
     3
176
     1
 90
        0
176
     1
 40
-0.6
176
     1
 41
-30.0
176
     1
 62
     5
 63
     8
421
  8421504
176
     1
 74
     1
176
     1
 91
        4
176
     1
 64
     7
176
     1
 65
   257
176
     1
 75
     1
176
     1
175
     1
176
     1
 42
1.0
176
     1
 92
        8
176
     1
 66
     8
424
  8421504
176
     1
 43
1.0
176
     1
 76
     1
176
     1
 77
     6
176
     1
 78
     2
176
     1
 67
     7
176
     1
 79
     5
176
     1
170
     0
176
     1
171
     0
176
     1
290
     0
176
     1
 93
        1
176
     1
 44
0.0
176
     1
173
     0
176
     1
  0
VISUALSTYLE
  5
34
102
{ACAD_REACTORS
330
2A
102
}
330
2A
100
AcDbVisualStyle
  2
Conceptual
 70
     9
177
     2
291
     0
 71
     3
176
     1
 72
     2
176
     1
 73
     0
176
     1
 90
        0
176
     1
 40
-0.6
176
     1
 41
-30.0
176
     1
 62
     5
 63
     7
421
 16777215
176
     1
 74
     2
176
     1
 91
        2
176
     1
 64
     7
176
     1
 65
   257
176
     1
 75
     1
176
     1
175
     1
176
     1
 42
40.0
176
     1
 92
        8
176
     1
 66
     7
176
     1
 43
1.0
176
     1
 76
     1
176
     1
 77
     6
176
     1
 78
     2
176
     1
 67
     7
176
     1
 79
     3
176
     1
170
     0
176
     1
171
     0
176
     1
290
     0
176
     1
 93
        1
176
     1
 44
0.0
176
     1
173
     0
176
     1
  0
VISUALSTYLE
  5
35
102
{ACAD_REACTORS
330
2A
102
}
330
2A
100
AcDbVisualStyle
  2
Dim
 70
    11
177
     2
291
     1
 71
     2
176
     1
 72
     2
176
     1
 73
     0
176
     1
 90
        0
176
     1
 40
-0.6
176
     1
 41
-30.0
176
     1
 62
     5
 63
     7
421
 16777215
176
     1
 74
     1
176
     1
 91
        4
176
     1
 64
     7
176
     1
 65
   257
176
     1
 75
     1
176
     1
175
     1
176
     1
 42
1.0
176
     1
 92
        8
176
     1
 66
     7
176
     1
 43
1.0
176
     1
 76
     1
176
     1
 77
     6
176
     1
 78
     2
176
     1
 67
     7
176
     1
 79
     5
176
     1
170
     0
176
     1
171
     0
176
     1
290
     0
176
     1
 93
        1
176
     1
 44
-50.0
176
     1
173
     0
176
     1
  0
VISUALSTYLE
  5
39
102
{ACAD_REACTORS
330
2A
102
}
330
2A
100
AcDbVisualStyle
  2
Facepattern
 70
    15
177
     2
291
     1
 71
     2
176
     1
 72
     2
176
     1
 73
     0
176
     1
 90
        0
176
     1
 40
-0.6
176
     1
 41
-30.0
176
     1
 62
     5
 63
     7
421
 16777215
176
     1
 74
     1
176
     1
 91
        4
176
     1
 64
     7
176
     1
 65
   257
176
     1
 75
     1
176
     1
175
     1
176
     1
 42
1.0
176
     1
 92
        8
176
     1
 66
     7
176
     1
 43
1.0
176
     1
 76
     1
176
     1
 77
     6
176
     1
 78
     2
176
     1
 67
     7
176
     1
 79
     5
176
     1
170
     0
176
     1
171
     0
176
     1
290
     0
176
     1
 93
        1
176
     1
 44
0.0
176
     1
173
     0
176
     1
  0
VISUALSTYLE
  5
2B
102
{ACAD_REACTORS
330
2A
102
}
330
2A
100
AcDbVisualStyle
  2
Flat
 70
     0
177
     2
291
     1
 71
     2
176
     1
 72
     1
176
     1
 73
     1
176
     1
 90
        2
176
     1
 40
-0.6
176
     1
 41
30.0
176
     1
 62
     5
 63
     7
421
 16777215
176
     1
 74
     0
176
     1
 91
        4
176
     1
 64
     7
176
     1
 65
   257
176
     1
 75
     1
176
     1
175
     1
176
     1
 42
1.0
176
     1
 92
        8
176
     1
 66
     7
176
     1
 43
1.0
176
     1
 76
     1
176
     1
 77
     6
176
     1
 78
     2
176
     1
 67
     7
176
     1
 79
     5
176
     1
170
     0
176
     1
171
     0
176
     1
290
     0
176
     1
 93
       13
176
     1
 44
0.0
176
     1
173
     0
176
     1
  0
VISUALSTYLE
  5
2C
102
{ACAD_REACTORS
330
2A
102
}
330
2A
100
AcDbVisualStyle
  2
FlatWithEdges
 70
     1
177
     2
291
     1
 71
     2
176
     1
 72
     1
176
     1
 73
     1
176
     1
 90
        2
176
     1
 40
-0.6
176
     1
 41
30.0
176
     1
 62
     5
 63
     7
421
 16777215
176
     1
 74
     1
176
     1
 91
        4
176
     1
 64
     7
176
     1
 65
   257
176
     1
 75
     1
176
     1
175
     1
176
     1
 42
1.0
176
     1
 92
        0
176
     1
 66
   257
176
     1
 43
1.0
176
     1
 76
     1
176
     1
 77
     6
176
     1
 78
     2
176
     1
 67
     7
176
     1
 79
     5
176
     1
170
     0
176
     1
171
     0
176
     1
290
     0
176
     1
 93
       13
176
     1
 44
0.0
176
     1
173
     0
176
     1
  0
VISUALSTYLE
  5
2D
102
{ACAD_REACTORS
330
2A
102
}
330
2A
100
AcDbVisualStyle
  2
Gouraud
 70
     2
177
     2
291
     1
 71
     2
176
     1
 72
     2
176
     1
 73
     1
176
     1
 90
        2
176
     1
 40
-0.6
176
     1
 41
30.0
176
     1
 62
     5
 63
     7
421
 16777215
176
     1
 74
     0
176
     1
 91
        4
176
     1
 64
     7
176
     1
 65
   257
176
     1
 75
     1
176
     1
175
     1
176
     1
 42
1.0
176
     1
 92
        0
176
     1
 66
     7
176
     1
 43
1.0
176
     1
 76
     1
176
     1
 77
     6
176
     1
 78
     2
176
     1
 67
     7
176
     1
 79
     5
176
     1
170
     0
176
     1
171
     0
176
     1
290
     0
176
     1
 93
       13
176
     1
 44
0.0
176
     1
173
     0
176
     1
  0
VISUALSTYLE
  5
2E
102
{ACAD_REACTORS
330
2A
102
}
330
2A
100
AcDbVisualStyle
  2
GouraudWithEdges
 70
     3
177
     2
291
     1
 71
     2
176
     1
 72
     2
176
     1
 73
     1
176
     1
 90
        2
176
     1
 40
-0.6
176
     1
 41
30.0
176
     1
 62
     5
 63
     7
421
 16777215
176
     1
 74
     1
176
     1
 91
        4
176
     1
 64
     7
176
     1
 65
   257
176
     1
 75
     1
176
     1
175
     1
176
     1
 42
1.0
176
     1
 92
        0
176
     1
 66
   257
176
     1
 43
1.0
176
     1
 76
     1
176
     1
 77
     6
176
     1
 78
     2
176
     1
 67
     7
176
     1
 79
     5
176
     1
170
     0
176
     1
171
     0
176
     1
290
     0
176
     1
 93
       13
176
     1
 44
0.0
176
     1
173
     0
176
     1
  0
VISUALSTYLE
  5
38
102
{ACAD_REACTORS
330
2A
102
}
330
2A
100
AcDbVisualStyle
  2
Linepattern
 70
    14
177
     2
291
     1
 71
     2
176
     1
 72
     2
176
     1
 73
     0
176
     1
 90
        0
176
     1
 40
-0.6
176
     1
 41
-30.0
176
     1
 62
     5
 63
     7
421
 16777215
176
     1
 74
     1
176
     1
 91
        4
176
     1
 64
     7
176
     1
 65
   257
176
     1
 75
     7
176
     1
175
     7
176
     1
 42
1.0
176
     1
 92
        8
176
     1
 66
     7
176
     1
 43
1.0
176
     1
 76
     1
176
     1
 77
     6
176
     1
 78
     2
176
     1
 67
     7
176
     1
 79
     5
176
     1
170
     0
176
     1
171
     0
176
     1
290
     0
176
     1
 93
        1
176
     1
 44
0.0
176
     1
173
     0
176
     1
  0
VISUALSTYLE
  5
33
102
{ACAD_REACTORS
330
2A
102
}
330
2A
100
AcDbVisualStyle
  2
Realistic
 70
     8
177
     2
291
     0
 71
     2
176
     1
 72
     2
176
     1
 73
     0
176
     1
 90
        0
176
     1
 40
-0.6
176
     1
 41
-30.0
176
     1
 62
     5
 63
     7
421
 16777215
176
     1
 74
     1
176
     1
 91
        0
176
     1
 64
     7
176
     1
 65
   257
176
     1
 75
     1
176
     1
175
     1
176
     1
 42
1.0
176
     1
 92
        8
176
     1
 66
     8
424
  7895160
176
     1
 43
1.0
176
     1
 76
     1
176
     1
 77
     6
176
     1
 78
     2
176
     1
 67
     7
176
     1
 79
     5
176
     1
170
     0
176
     1
171
     0
176
     1
290
     0
176
     1
 93
       13
176
     1
 44
0.0
176
     1
173
     0
176
     1
  0
VISUALSTYLE
  5
37
102
{ACAD_REACTORS
330
2A
102
}
330
2A
100
AcDbVisualStyle
  2
Thicken
 70
    13
177
     2
291
     1
 71
     2
176
     1
 72
     2
176
     1
 73
     0
176
     1
 90
        0
176
     1
 40
-0.6
176
     1
 41
-30.0
176
     1
 62
     5
 63
     7
421
 16777215
176
     1
 74
     1
176
     1
 91
        4
176
     1
 64
     7
176
     1
 65
   257
176
     1
 75
     1
176
     1
175
     1
176
     1
 42
1.0
176
     1
 92
       12
176
     1
 66
     7
176
     1
 43
1.0
176
     1
 76
     1
176
     1
 77
     6
176
     1
 78
     2
176
     1
 67
     7
176
     1
 79
     5
176
     1
170
     0
176
     1
171
     0
176
     1
290
     0
176
     1
 93
        1
176
     1
 44
0.0
176
     1
173
     0
176
     1
  0
ENDSEC
  0
EOF
