  0
SECTION
  2
HEADER
  9
$ACADVER
  1
AC1024
  9
$ACADMAINTVER
 70
     6
  9
$DWGCODEPAGE
  3
UNDEFINED
  9
$INSBASE
 10
0.0
 20
0.0
 30
0.0
  9
$EXTMIN
 10
1.000000000000000E+20
 20
1.000000000000000E+20
 30
1.000000000000000E+20
  9
$EXTMAX
 10
-1.000000000000000E+20
 20
-1.000000000000000E+20
 30
-1.000000000000000E+20
  9
$LIMMIN
 10
0.0
 20
0.0
  9
$LIMMAX
 10
12.0
 20
9.0
  9
$ORTHOMODE
 70
     0
  9
$REGENMODE
 70
     1
  9
$FILLMODE
 70
     1
  9
$QTEXTMODE
 70
     0
  9
$MIRRTEXT
 70
     1
  9
$LTSCALE
 40
1.0
  9
$ATTMODE
 70
     1
  9
$TEXTSIZE
 40
0.2
  9
$TRACEWID
 40
0.05
  9
$TEXTSTYLE
  7
Standard
  9
$CLAYER
  8
0
  9
$CELTYPE
  6
ByLayer
  9
$CECOLOR
 62
   256
  9
$CELTSCALE
 40
1.0
  9
$DISPSILH
 70
     0
  9
$DIMSCALE
 40
1.0
  9
$DIMASZ
 40
0.18
  9
$DIMEXO
 40
0.0625
  9
$DIMDLI
 40
0.38
  9
$DIMRND
 40
0.0
  9
$DIMDLE
 40
0.0
  9
$DIMEXE
 40
0.18
  9
$DIMTP
 40
0.0
  9
$DIMTM
 40
0.0
  9
$DIMTXT
 40
0.18
  9
$DIMCEN
 40
0.09
  9
$DIMTSZ
 40
0.0
  9
$DIMTOL
 70
     0
  9
$DIMLIM
 70
     0
  9
$DIMTIH
 70
     1
  9
$DIMTOH
 70
     1
  9
$DIMSE1
 70
     0
  9
$DIMSE2
 70
     0
  9
$DIMTAD
 70
     0
  9
$DIMZIN
 70
     0
  9
$DIMBLK
  1

  9
$DIMASO
 70
     1
  9
$DIMSHO
 70
     1
  9
$DIMPOST
  1

  9
$DIMAPOST
  1

  9
$DIMALT
 70
     0
  9
$DIMALTD
 70
     2
  9
$DIMALTF
 40
25.4
  9
$DIMLFAC
 40
1.0
  9
$DIMTOFL
 70
     0
  9
$DIMTVP
 40
0.0
  9
$DIMTIX
 70
     0
  9
$DIMSOXD
 70
     0
  9
$DIMSAH
 70
     0
  9
$DIMBLK1
  1

  9
$DIMBLK2
  1

  9
$DIMSTYLE
  2
Standard
  9
$DIMCLRD
 70
     0
  9
$DIMCLRE
 70
     0
  9
$DIMCLRT
 70
     0
  9
$DIMTFAC
 40
1.0
  9
$DIMGAP
 40
0.09
  9
$DIMJUST
 70
     0
  9
$DIMSD1
 70
     0
  9
$DIMSD2
 70
     0
  9
$DIMTOLJ
 70
     1
  9
$DIMTZIN
 70
     0
  9
$DIMALTZ
 70
     0
  9
$DIMALTTZ
 70
     0
  9
$DIMUPT
 70
     0
  9
$DIMDEC
 70
     4
  9
$DIMTDEC
 70
     4
  9
$DIMALTU
 70
     2
  9
$DIMALTTD
 70
     2
  9
$DIMTXSTY
  7
Standard
  9
$DIMAUNIT
 70
     0
  9
$DIMADEC
 70
     0
  9
$DIMALTRND
 40
0.0
  9
$DIMAZIN
 70
     0
  9
$DIMDSEP
 70
    46
  9
$DIMATFIT
 70
     3
  9
$DIMFRAC
 70
     0
  9
$DIMLDRBLK
  1

  9
$DIMLUNIT
 70
     2
  9
$DIMLWD
 70
    -2
  9
$DIMLWE
 70
    -2
  9
$DIMTMOVE
 70
     0
  9
$DIMFXL
 40
1.0
  9
$DIMFXLON
 70
     0
  9
$DIMJOGANG
 40
0.7853981633974483
  9
$DIMTFILL
 70
     0
  9
$DIMTFILLCLR
 70
     0
  9
$DIMARCSYM
 70
     0
  9
$DIMLTYPE
  6

  9
$DIMLTEX1
  6

  9
$DIMLTEX2
  6

  9
$DIMTXTDIRECTION
 70
     0
  9
$LUNITS
 70
     2
  9
$LUPREC
 70
     4
  9
$SKETCHINC
 40
0.1
  9
$FILLETRAD
 40
0.5
  9
$AUNITS
 70
     0
  9
$AUPREC
 70
     0
  9
$MENU
  1
.
  9
$ELEVATION
 40
0.0
  9
$PELEVATION
 40
0.0
  9
$THICKNESS
 40
0.0
  9
$LIMCHECK
 70
     0
  9
$CHAMFERA
 40
0.5
  9
$CHAMFERB
 40
0.5
  9
$CHAMFERC
 40
1.0
  9
$CHAMFERD
 40
0.0
  9
$SKPOLY
 70
     0
  9
$TDCREATE
 40
2457862.792268507
  9
$TDUCREATE
 40
2457863.000601852
  9
$TDUPDATE
 40
2457862.792268507
  9
$TDUUPDATE
 40
2457863.000601852
  9
$TDINDWG
 40
0.0000000116
  9
$TDUSRTIMER
 40
0.0000000116
  9
$USRTIMER
 70
     1
  9
$ANGBASE
 50
0.0
  9
$ANGDIR
 70
     0
  9
$PDMODE
 70
     0
  9
$PDSIZE
 40
0.0
  9
$PLINEWID
 40
0.0
  9
$SPLFRAME
 70
     0
  9
$SPLINETYPE
 70
     6
  9
$SPLINESEGS
 70
     8
  9
$HANDSEED
  5
51
  9
$SURFTAB1
 70
     6
  9
$SURFTAB2
 70
     6
  9
$SURFTYPE
 70
     6
  9
$SURFU
 70
     6
  9
$SURFV
 70
     6
  9
$UCSBASE
  2

  9
$UCSNAME
  2

  9
$UCSORG
 10
0.0
 20
0.0
 30
0.0
  9
$UCSXDIR
 10
1.0
 20
0.0
 30
0.0
  9
$UCSYDIR
 10
0.0
 20
1.0
 30
0.0
  9
$UCSORTHOREF
  2

  9
$UCSORTHOVIEW
 70
     0
  9
$UCSORGTOP
 10
0.0
 20
0.0
 30
0.0
  9
$UCSORGBOTTOM
 10
0.0
 20
0.0
 30
0.0
  9
$UCSORGLEFT
 10
0.0
 20
0.0
 30
0.0
  9
$UCSORGRIGHT
 10
0.0
 20
0.0
 30
0.0
  9
$UCSORGFRONT
 10
0.0
 20
0.0
 30
0.0
  9
$UCSORGBACK
 10
0.0
 20
0.0
 30
0.0
  9
$PUCSBASE
  2

  9
$PUCSNAME
  2

  9
$PUCSORG
 10
0.0
 20
0.0
 30
0.0
  9
$PUCSXDIR
 10
1.0
 20
0.0
 30
0.0
  9
$PUCSYDIR
 10
0.0
 20
1.0
 30
0.0
  9
$PUCSORTHOREF
  2

  9
$PUCSORTHOVIEW
 70
     0
  9
$PUCSORGTOP
 10
0.0
 20
0.0
 30
0.0
  9
$PUCSORGBOTTOM
 10
0.0
 20
0.0
 30
0.0
  9
$PUCSORGLEFT
 10
0.0
 20
0.0
 30
0.0
  9
$PUCSORGRIGHT
 10
0.0
 20
0.0
 30
0.0
  9
$PUCSORGFRONT
 10
0.0
 20
0.0
 30
0.0
  9
$PUCSORGBACK
 10
0.0
 20
0.0
 30
0.0
  9
$USERI1
 70
     0
  9
$USERI2
 70
     0
  9
$USERI3
 70
     0
  9
$USERI4
 70
     0
  9
$USERI5
 70
     0
  9
$USERR1
 40
0.0
  9
$USERR2
 40
0.0
  9
$USERR3
 40
0.0
  9
$USERR4
 40
0.0
  9
$USERR5
 40
0.0
  9
$WORLDVIEW
 70
     1
  9
$SHADEDGE
 70
     3
  9
$SHADEDIF
 70
    70
  9
$TILEMODE
 70
     1
  9
$MAXACTVP
 70
    64
  9
$PINSBASE
 10
0.0
 20
0.0
 30
0.0
  9
$PLIMCHECK
 70
     0
  9
$PEXTMIN
 10
1.000000000000000E+20
 20
1.000000000000000E+20
 30
1.000000000000000E+20
  9
$PEXTMAX
 10
-1.000000000000000E+20
 20
-1.000000000000000E+20
 30
-1.000000000000000E+20
  9
$PLIMMIN
 10
0.0
 20
0.0
  9
$PLIMMAX
 10
12.0
 20
9.0
  9
$UNITMODE
 70
     0
  9
$VISRETAIN
 70
     1
  9
$PLINEGEN
 70
     0
  9
$PSLTSCALE
 70
     1
  9
$TREEDEPTH
 70
  3020
  9
$CMLSTYLE
  2
Standard
  9
$CMLJUST
 70
     0
  9
$CMLSCALE
 40
1.0
  9
$PROXYGRAPHICS
 70
     1
  9
$MEASUREMENT
 70
     0
  9
$CELWEIGHT
370
    -1
  9
$ENDCAPS
280
     0
  9
$JOINSTYLE
280
     0
  9
$LWDISPLAY
290
     1
  9
$INSUNITS
 70
     1
  9
$HYPERLINKBASE
  1

  9
$STYLESHEET
  1

  9
$XEDIT
290
     1
  9
$CEPSNTYPE
380
     0
  9
$PSTYLEMODE
290
     1
  9
$FINGERPRINTGUID
  2
{8418ED68-0097-773F-F4B7-B6697D98B8C7}
  9
$VERSIONGUID
  2
{FAEB1C32-E019-11D5-929B-00C0DF256EC4}
  9
$EXTNAMES
290
     1
  9
$PSVPSCALE
 40
0.0
  9
$OLESTARTUP
290
     0
  9
$SORTENTS
280
   127
  9
$INDEXCTL
280
     0
  9
$HIDETEXT
280
     1
  9
$XCLIPFRAME
280
     2
  9
$HALOGAP
280
     0
  9
$OBSCOLOR
 70
   257
  9
$OBSLTYPE
280
     0
  9
$INTERSECTIONDISPLAY
280
     0
  9
$INTERSECTIONCOLOR
 70
   257
  9
$DIMASSOC
280
     2
  9
$PROJECTNAME
  1

  9
$CAMERADISPLAY
290
     0
  9
$LENSLENGTH
 40
50.0
  9
$CAMERAHEIGHT
 40
0.0
  9
$STEPSPERSEC
 40
2.0
  9
$STEPSIZE
 40
6.0
  9
$3DDWFPREC
 40
2.0
  9
$PSOLWIDTH
 40
0.25
  9
$PSOLHEIGHT
 40
4.0
  9
$LOFTANG1
 40
1.570796326794897
  9
$LOFTANG2
 40
1.570796326794897
  9
$LOFTMAG1
 40
0.0
  9
$LOFTMAG2
 40
0.0
  9
$LOFTPARAM
 70
     7
  9
$LOFTNORMALS
280
     1
  9
$LATITUDE
 40
37.795
  9
$LONGITUDE
 40
-122.394
  9
$NORTHDIRECTION
 40
0.0
  9
$TIMEZONE
 70
 -8000
  9
$LIGHTGLYPHDISPLAY
280
     1
  9
$TILEMODELIGHTSYNCH
280
     1
  9
$CMATERIAL
347
3C
  9
$SOLIDHIST
280
     1
  9
$SHOWHIST
280
     1
  9
$DWFFRAME
280
     2
  9
$DGNFRAME
280
     2
  9
$REALWORLDSCALE
290
     1
  9
$INTERFERECOLOR
 62
   256
  9
$CSHADOW
280
     0
  9
$SHADOWPLANELOCATION
 40
0.0
  0
ENDSEC
  0
SECTION
  2
CLASSES
  0
CLASS
  1
ACDBDICTIONARYWDFLT
  2
AcDbDictionaryWithDefault
  3
ObjectDBX Classes
 90
        0
 91
        4
280
     0
281
     0
  0
CLASS
  1
VISUALSTYLE
  2
AcDbVisualStyle
  3
ObjectDBX Classes
 90
     4095
 91
        4
280
     0
281
     0
  0
CLASS
  1
MATERIAL
  2
AcDbMaterial
  3
ObjectDBX Classes
 90
     1153
 91
        4
280
     0
281
     0
  0
CLASS
  1
SUN
  2
AcDbSun
  3
SCENEOE
 90
     1024
 91
        4
280
     0
281
     0
  0
ENDSEC
  0
SECTION
  2
TABLES
  0
TABLE
  2
VPORT
  5
8
330
0
100
AcDbSymbolTable
 70
     1
  0
VPORT
  5
29
330
8
100
AcDbSymbolTableRecord
100
AcDbViewportTableRecord
  2
*Active
 70
     0
 10
0.0
 20
0.0
 11
1.0
 21
1.0
 12
0.0
 22
0.0
 13
0.0
 23
0.0
 14
0.5
 24
0.5
 15
0.5
 25
0.5
 16
0.0
 26
0.0
 36
1.0
 17
107.867991606721
 27
-139.8982399415536
 37
0.0
 40
80.81986384759875
 41
0.9997028974212808
 42
50.0
 43
0.0
 44
0.0
 50
0.0
 51
0.0
 71
     0
 72
   100
 73
     1
 74
     3
 75
     0
 76
     0
 77
     0
 78
     0
281
     0
 65
     1
110
0.0
120
0.0
130
0.0
111
1.0
121
0.0
131
0.0
112
0.0
122
1.0
132
0.0
 79
     0
146
0.0
 60
     3
 61
     5
292
     1
282
     1
141
0.0
142
0.0
 63
   250
361
3F
  0
ENDTAB
  0
TABLE
  2
LTYPE
  5
5
330
0
100
AcDbSymbolTable
 70
     1
  0
LTYPE
  5
14
330
5
100
AcDbSymbolTableRecord
100
AcDbLinetypeTableRecord
  2
ByBlock
 70
     0
  3

 72
    65
 73
     0
 40
0.0
  0
LTYPE
  5
15
330
5
100
AcDbSymbolTableRecord
100
AcDbLinetypeTableRecord
  2
ByLayer
 70
     0
  3

 72
    65
 73
     0
 40
0.0
  0
LTYPE
  5
16
330
5
100
AcDbSymbolTableRecord
100
AcDbLinetypeTableRecord
  2
Continuous
 70
     0
  3
Solid line
 72
    65
 73
     0
 40
0.0
  0
ENDTAB
  0
TABLE
  2
LAYER
  5
2
330
0
100
AcDbSymbolTable
 70
     2
  0
LAYER
  5
10
330
2
100
AcDbSymbolTableRecord
100
AcDbLayerTableRecord
  2
0
 70
     0
 62
     7
  6
Continuous
370
    -3
390
F
347
3E
  0
LAYER
  5
40
330
2
100
AcDbSymbolTableRecord
100
AcDbLayerTableRecord
  2
Layer 1
 70
     0
 62
     7
  6
Continuous
370
    -3
390
F
347
3E
  0
ENDTAB
  0
TABLE
  2
STYLE
  5
3
330
0
100
AcDbSymbolTable
 70
     1
  0
STYLE
  5
11
330
3
100
AcDbSymbolTableRecord
100
AcDbTextStyleTableRecord
  2
Standard
 70
     0
 40
0.0
 41
1.0
 50
0.0
 71
     0
 42
0.2
  3
txt
  4

  0
ENDTAB
  0
TABLE
  2
VIEW
  5
6
330
0
100
AcDbSymbolTable
 70
     0
  0
ENDTAB
  0
TABLE
  2
UCS
  5
7
330
0
100
AcDbSymbolTable
 70
     0
  0
ENDTAB
  0
TABLE
  2
APPID
  5
9
330
0
100
AcDbSymbolTable
 70
     1
  0
APPID
  5
12
330
9
100
AcDbSymbolTableRecord
100
AcDbRegAppTableRecord
  2
ACAD
 70
     0
  0
ENDTAB
  0
TABLE
  2
DIMSTYLE
  5
A
330
0
100
AcDbSymbolTable
 70
     1
100
AcDbDimStyleTable
  0
DIMSTYLE
105
27
330
A
100
AcDbSymbolTableRecord
100
AcDbDimStyleTableRecord
  2
Standard
 70
     0
178
     0
340
11
  0
ENDTAB
  0
TABLE
  2
BLOCK_RECORD
  5
1
330
0
100
AcDbSymbolTable
 70
     1
  0
BLOCK_RECORD
  5
1F
330
1
100
AcDbSymbolTableRecord
100
AcDbBlockTableRecord
  2
*Model_Space
340
22
 70
     0
280
     1
281
     0
  0
BLOCK_RECORD
  5
1B
330
1
100
AcDbSymbolTableRecord
100
AcDbBlockTableRecord
  2
*Paper_Space
340
1E
 70
     0
280
     1
281
     0
  0
BLOCK_RECORD
  5
23
330
1
100
AcDbSymbolTableRecord
100
AcDbBlockTableRecord
  2
*Paper_Space0
340
26
 70
     0
280
     1
281
     0
  0
ENDTAB
  0
ENDSEC
  0
SECTION
  2
BLOCKS
  0
BLOCK
  5
20
330
1F
100
AcDbEntity
  8
0
100
AcDbBlockBegin
  2
*Model_Space
 70
     0
 10
0.0
 20
0.0
 30
0.0
  3
*Model_Space
  1

  0
ENDBLK
  5
21
330
1F
100
AcDbEntity
  8
0
100
AcDbBlockEnd
  0
BLOCK
  5
1C
330
1B
100
AcDbEntity
 67
     1
  8
0
100
AcDbBlockBegin
  2
*Paper_Space
 70
     0
 10
0.0
 20
0.0
 30
0.0
  3
*Paper_Space
  1

  0
ENDBLK
  5
1D
330
1B
100
AcDbEntity
 67
     1
  8
0
100
AcDbBlockEnd
  0
BLOCK
  5
24
330
23
100
AcDbEntity
  8
0
100
AcDbBlockBegin
  2
*Paper_Space0
 70
     0
 10
0.0
 20
0.0
 30
0.0
  3
*Paper_Space0
  1

  0
ENDBLK
  5
25
330
23
100
AcDbEntity
  8
0
100
AcDbBlockEnd
  0
ENDSEC
  0
SECTION
  2
ENTITIES
  0
SPLINE
  5
41
330
1F
100
AcDbEntity
  8
Layer 1
 62
     1
420
 15597568
370
    18
100
AcDbSpline
210
0.0
220
0.0
230
1.0
 70
    11
 71
     3
 72
   287
 73
   283
 74
     0
 42
0.0000000001
 43
0.0000000001
 12
1.0
 22
0.0
 32
0.0
 13
1.0
 23
0.0
 33
0.0
 40
0.0
 40
0.0
 40
0.0
 40
0.0
 40
1.0
 40
1.0
 40
1.0
 40
2.0
 40
2.0
 40
2.0
 40
3.0
 40
3.0
 40
3.0
 40
4.0
 40
4.0
 40
4.0
 40
5.0
 40
5.0
 40
5.0
 40
6.0
 40
6.0
 40
6.0
 40
7.0
 40
7.0
 40
7.0
 40
8.0
 40
8.0
 40
8.0
 40
9.0
 40
9.0
 40
9.0
 40
10.0
 40
10.0
 40
10.0
 40
11.0
 40
11.0
 40
11.0
 40
12.0
 40
12.0
 40
12.0
 40
13.0
 40
13.0
 40
13.0
 40
14.0
 40
14.0
 40
14.0
 40
15.0
 40
15.0
 40
15.0
 40
16.0
 40
16.0
 40
16.0
 40
17.0
 40
17.0
 40
17.0
 40
18.0
 40
18.0
 40
18.0
 40
19.0
 40
19.0
 40
19.0
 40
20.0
 40
20.0
 40
20.0
 40
21.0
 40
21.0
 40
21.0
 40
22.0
 40
22.0
 40
22.0
 40
23.0
 40
23.0
 40
23.0
 40
24.0
 40
24.0
 40
24.0
 40
25.0
 40
25.0
 40
25.0
 40
26.0
 40
26.0
 40
26.0
 40
27.0
 40
27.0
 40
27.0
 40
28.0
 40
28.0
 40
28.0
 40
29.0
 40
29.0
 40
29.0
 40
30.0
 40
30.0
 40
30.0
 40
31.0
 40
31.0
 40
31.0
 40
32.0
 40
32.0
 40
32.0
 40
33.0
 40
33.0
 40
33.0
 40
34.0
 40
34.0
 40
34.0
 40
35.0
 40
35.0
 40
35.0
 40
36.0
 40
36.0
 40
36.0
 40
37.0
 40
37.0
 40
37.0
 40
38.0
 40
38.0
 40
38.0
 40
39.0
 40
39.0
 40
39.0
 40
40.0
 40
40.0
 40
40.0
 40
41.0
 40
41.0
 40
41.0
 40
42.0
 40
42.0
 40
42.0
 40
43.0
 40
43.0
 40
43.0
 40
44.0
 40
44.0
 40
44.0
 40
45.0
 40
45.0
 40
45.0
 40
46.0
 40
46.0
 40
46.0
 40
47.0
 40
47.0
 40
47.0
 40
48.0
 40
48.0
 40
48.0
 40
49.0
 40
49.0
 40
49.0
 40
50.0
 40
50.0
 40
50.0
 40
51.0
 40
51.0
 40
51.0
 40
52.0
 40
52.0
 40
52.0
 40
53.0
 40
53.0
 40
53.0
 40
54.0
 40
54.0
 40
54.0
 40
55.0
 40
55.0
 40
55.0
 40
56.0
 40
56.0
 40
56.0
 40
57.0
 40
57.0
 40
57.0
 40
58.0
 40
58.0
 40
58.0
 40
59.0
 40
59.0
 40
59.0
 40
60.0
 40
60.0
 40
60.0
 40
61.0
 40
61.0
 40
61.0
 40
62.0
 40
62.0
 40
62.0
 40
63.0
 40
63.0
 40
63.0
 40
64.0
 40
64.0
 40
64.0
 40
65.0
 40
65.0
 40
65.0
 40
66.0
 40
66.0
 40
66.0
 40
67.0
 40
67.0
 40
67.0
 40
68.0
 40
68.0
 40
68.0
 40
69.0
 40
69.0
 40
69.0
 40
70.0
 40
70.0
 40
70.0
 40
71.0
 40
71.0
 40
71.0
 40
72.0
 40
72.0
 40
72.0
 40
73.0
 40
73.0
 40
73.0
 40
74.0
 40
74.0
 40
74.0
 40
75.0
 40
75.0
 40
75.0
 40
76.0
 40
76.0
 40
76.0
 40
77.0
 40
77.0
 40
77.0
 40
78.0
 40
78.0
 40
78.0
 40
79.0
 40
79.0
 40
79.0
 40
80.0
 40
80.0
 40
80.0
 40
81.0
 40
81.0
 40
81.0
 40
82.0
 40
82.0
 40
82.0
 40
83.0
 40
83.0
 40
83.0
 40
84.0
 40
84.0
 40
84.0
 40
85.0
 40
85.0
 40
85.0
 40
86.0
 40
86.0
 40
86.0
 40
87.0
 40
87.0
 40
87.0
 40
88.0
 40
88.0
 40
88.0
 40
89.0
 40
89.0
 40
89.0
 40
90.0
 40
90.0
 40
90.0
 40
91.0
 40
91.0
 40
91.0
 40
92.0
 40
92.0
 40
92.0
 40
93.0
 40
93.0
 40
93.0
 40
94.0
 40
94.0
 40
94.0
 40
94.0
 10
147.3853405054171
 20
-172.9362488867814
 30
0.0
 10
147.4225475366578
 20
-172.2677065760219
 30
0.0
 10
147.4452851668605
 20
-171.5581030334476
 30
0.0
 10
147.4122983775892
 20
-171.1084965407757
 30
0.0
 10
147.3027012774647
 20
-169.6173946192192
 30
0.0
 10
146.2286496962445
 20
-168.4233029921848
 30
0.0
 10
144.8442380754968
 20
-168.0190210369908
 30
0.0
 10
143.9582456440777
 20
-167.7602943660485
 30
0.0
 10
143.0329791241267
 20
-166.8350493779443
 30
0.0
 10
142.7742955168781
 20
-165.949078478372
 30
0.0
 10
142.3699704979904
 20
-164.564602262084
 30
0.0
 10
141.1759004028028
 20
-163.4904430216299
 30
0.0
 10
139.684733885706
 20
-163.3808459215053
 30
0.0
 10
139.2371729184785
 20
-163.3479452596212
 30
0.0
 10
138.8056747089509
 20
-163.3999446696017
 30
0.0
 10
138.4045364033871
 20
-163.5222670911749
 30
0.0
 10
137.3408631723163
 20
-163.8466012992643
 30
0.0
 10
136.1871437579996
 20
-163.6086959241611
 30
0.0
 10
135.4008007134914
 20
-162.8223744114996
 30
0.0
 10
135.4008007134914
 20
-162.8223744114996
 30
0.0
 10
124.2798602323306
 20
-151.7014985258792
 30
0.0
 10
124.2798602323306
 20
-151.7014985258792
 30
0.0
 10
121.9367216017315
 20
-149.3583598952801
 30
0.0
 10
121.936678538038
 20
-145.5593885081547
 30
0.0
 10
124.2798602323306
 20
-143.2162283457088
 30
0.0
 10
124.2798602323306
 20
-143.2162283457088
 30
0.0
 10
125.5192333331493
 20
-141.9768337130434
 30
0.0
 10
125.5192333331493
 20
-141.9768337130434
 30
0.0
 10
126.6908241802956
 20
-140.8052428658971
 30
0.0
 10
126.6908241802956
 20
-138.9057679382578
 30
0.0
 10
125.5192333331493
 20
-137.7341986229582
 30
0.0
 10
125.5192333331493
 20
-137.7341986229582
 30
0.0
 10
124.3225794163478
 20
-136.5375447061567
 30
0.0
 10
124.3225794163478
 20
-136.5375447061567
 30
0.0
 10
121.9794407857486
 20
-134.1943845437108
 30
0.0
 10
121.9794407857486
 20
-130.3953916247387
 30
0.0
 10
124.3225794163478
 20
-128.0522529941396
 30
0.0
 10
124.3225794163478
 20
-128.0522529941396
 30
0.0
 10
135.4098440891402
 20
-116.9650959805811
 30
0.0
 10
135.4098440891402
 20
-116.9650959805811
 30
0.0
 10
136.194550713293
 20
-116.1803893564283
 30
0.0
 10
137.3454709875278
 20
-115.9416657711473
 30
0.0
 10
138.4075939256303
 20
-116.2632439028486
 30
0.0
 10
138.8080862757906
 20
-116.3844682002358
 30
0.0
 10
139.2387232114468
 20
-116.4356278681917
 30
0.0
 10
139.6853798411095
 20
-116.4021458464445
 30
0.0
 10
141.1740056002859
 20
-116.2906324119563
 30
0.0
 10
142.3654057464724
 20
-115.2180019326237
 30
0.0
 10
142.7696015742794
 20
-113.8358726876351
 30
0.0
 10
143.0289742006251
 20
-112.9488682594172
 30
0.0
 10
143.9546282938182
 20
-112.0233648891516
 30
0.0
 10
144.8416542538829
 20
-111.7639276672655
 30
0.0
 10
146.2234820530166
 20
-111.3597749031521
 30
0.0
 10
147.2958541501878
 20
-110.168633139127
 30
0.0
 10
147.407561371297
 20
-108.6803088258055
 30
0.0
 10
147.4449406573119
 20
-108.1816743180091
 30
0.0
 10
147.4143223711868
 20
-107.3620645702214
 30
0.0
 10
147.3713878687019
 20
-106.6343958081963
 30
0.0
 10
147.3215201115529
 20
-105.78847414364
 30
0.0
 10
147.539508528382
 20
-104.9621249278092
 30
0.0
 10
147.9134305796124
 20
-104.2016631631339
 30
0.0
 10
148.4845843473732
 20
-103.0401061565884
 30
0.0
 10
148.3750303109423
 20
-101.6100039569676
 30
0.0
 10
147.4866263126835
 20
-100.598351667724
 30
0.0
 10
146.485266246202
 20
-99.45811118949341
 30
0.0
 10
144.8942350237265
 20
-99.1963054644612
 30
0.0
 10
143.6220904521045
 20
-99.81297755632093
 30
0.0
 10
142.8652460376886
 20
-100.1798371618065
 30
0.0
 10
142.0511699745241
 20
-100.4119935338187
 30
0.0
 10
141.2102652302682
 20
-100.3973088143129
 30
0.0
 10
140.4604401979036
 20
-100.3842174514689
 30
0.0
 10
139.6140663645648
 20
-100.3827748177345
 30
0.0
 10
139.1159055573977
 20
-100.4250418329691
 30
0.0
 10
137.6449789762767
 20
-100.5497973532287
 30
0.0
 10
136.4721823457105
 20
-101.6119848868716
 30
0.0
 10
136.0688908554685
 20
-102.9778145238457
 30
0.0
 10
135.8049534776048
 20
-103.8715799519534
 30
0.0
 10
134.8773184545077
 20
-104.7992795705908
 30
0.0
 10
133.9835314945532
 20
-105.0632169484546
 30
0.0
 10
132.6176803257323
 20
-105.4665515023902
 30
0.0
 10
131.5555143239362
 20
-106.6393696648031
 30
0.0
 10
131.4307588036766
 20
-108.1103393096177
 30
0.0
 10
131.3930780718067
 20
-108.5544121176664
 30
0.0
 10
131.4394576697769
 20
-108.9826805501765
 30
0.0
 10
131.5553851328555
 20
-109.3816441392152
 30
0.0
 10
131.8610512297843
 20
-110.4333241316281
 30
0.0
 10
131.6155020490731
 20
-111.5664806322671
 30
0.0
 10
130.8410876476825
 20
-112.3408950336577
 30
0.0
 10
130.8410876476825
 20
-112.3408950336577
 30
0.0
 10
119.726176083621
 20
-123.4557420021789
 30
0.0
 10
119.726176083621
 20
-123.4557420021789
 30
0.0
 10
117.3830159211751
 20
-125.7989021646248
 30
0.0
 10
113.5840014703562
 20
-125.798880632778
 30
0.0
 10
111.2408628397571
 20
-123.4556774066386
 30
0.0
 10
111.2408628397571
 20
-123.4556774066386
 30
0.0
 10
110.0442089229555
 20
-122.2590019579902
 30
0.0
 10
110.0442089229555
 20
-122.2590019579902
 30
0.0
 10
108.8725965439624
 20
-121.0873680471503
 30
0.0
 10
106.9730139570892
 20
-121.0873680471503
 30
0.0
 10
105.8014015780961
 20
-122.2590019579902
 30
0.0
 10
105.8014015780961
 20
-122.2590019579902
 30
0.0
 10
104.5620069454307
 20
-123.4983965906556
 30
0.0
 10
104.5620069454307
 20
-123.4983965906556
 30
0.0
 10
102.2188898466784
 20
-125.8415567531015
 30
0.0
 10
98.41987539585945
 20
-125.8415782849483
 30
0.0
 10
96.07671523341355
 20
-123.4984396543492
 30
0.0
 10
96.07671523341355
 20
-123.4984396543492
 30
0.0
 10
84.97147146855748
 20
-112.3932389531867
 30
0.0
 10
84.97147146855748
 20
-112.3932389531867
 30
0.0
 10
84.18555906098486
 20
-111.6073480774609
 30
0.0
 10
83.94739530372019
 20
-110.4543176822413
 30
0.0
 10
84.27106202455941
 20
-109.3910750881061
 30
0.0
 10
84.39314759581795
 20
-108.9900229099295
 30
0.0
 10
84.44493168733061
 20
-108.5586323596358
 30
0.0
 10
84.411880302519
 20
-108.111200583489
 30
0.0
 10
84.30174490622491
 20
-106.6207661491828
 30
0.0
 10
83.22803783455323
 20
-105.4274496686326
 30
0.0
 10
81.84427216920908
 20
-105.0231892452853
 30
0.0
 10
80.95806441932211
 20
-104.764268787722
 30
0.0
 10
80.03277636752436
 20
-103.8389376722307
 30
0.0
 10
79.77387744180784
 20
-102.9527299223437
 30
0.0
 10
79.36963855030733
 20
-101.5689642569995
 30
0.0
 10
78.17640819714427
 20
-100.4952141216343
 30
0.0
 10
76.68603835837841
 20
-100.3850141297999
 30
0.0
 10
76.18553057991195
 20
-100.3480008851802
 30
0.0
 10
75.35823396282277
 20
-100.3757339038365
 30
0.0
 10
74.62401951937568
 20
-100.4153525019169
 30
0.0
 10
73.77488960964872
 20
-100.4611722718707
 30
0.0
 10
72.94643027283327
 20
-100.2402339920323
 30
0.0
 10
72.18329855915687
 20
-99.86506309368855
 30
0.0
 10
71.02174155261132
 20
-99.2940169851616
 30
0.0
 10
69.59168241668411
 20
-99.40359255343934
 30
0.0
 10
68.58007319113406
 20
-100.2919965516981
 30
0.0
 10
67.43985424475028
 20
-101.2933566181796
 30
0.0
 10
67.17807005156486
 20
-102.8843663088083
 30
0.0
 10
67.79474214342459
 20
-104.1565108804304
 30
0.0
 10
68.16386259282231
 20
-104.9179846419045
 30
0.0
 10
68.40097128959464
 20
-105.7356780553285
 30
0.0
 10
68.39373658907562
 20
-106.5818365701995
 30
0.0
 10
68.38727703504077
 20
-107.3357741852996
 30
0.0
 10
68.39235855088151
 20
-108.185162477188
 30
0.0
 10
68.43518539413253
 20
-108.6820313735481
 30
0.0
 10
68.56179265321546
 20
-110.1504387285955
 30
0.0
 10
69.62242989388997
 20
-111.320630005701
 30
0.0
 10
70.98591255956472
 20
-111.7238353685559
 30
0.0
 10
71.88066845262445
 20
-111.9884187018231
 30
0.0
 10
72.80869104896362
 20
-112.9163982344687
 30
0.0
 10
73.0732959140776
 20
-113.8111756593752
 30
0.0
 10
73.47650127693252
 20
-115.1747444524371
 30
0.0
 10
74.64677868142512
 20
-116.2354678204987
 30
0.0
 10
76.11531522755321
 20
-116.3619674203477
 30
0.0
 10
76.55923731267443
 20
-116.4002295120808
 30
0.0
 10
76.98737655410386
 20
-116.3544312739738
 30
0.0
 10
77.38631861129579
 20
-116.2390851707582
 30
0.0
 10
78.4365559699742
 20
-115.935443067427
 30
0.0
 10
79.56738703116068
 20
-116.1819611812434
 30
0.0
 10
80.34042339435717
 20
-116.9549975444399
 30
0.0
 10
80.34042339435717
 20
-116.9549975444399
 30
0.0
 10
91.48029036884
 20
-128.094842987076
 30
0.0
 10
91.48029036884
 20
-128.094842987076
 30
0.0
 10
93.82342899943912
 20
-130.4380031495219
 30
0.0
 10
93.82342899943912
 20
-134.236996068494
 30
0.0
 10
91.48029036884
 20
-136.5801346990931
 30
0.0
 10
91.48029036884
 20
-136.5801346990931
 30
0.0
 10
90.24505138260368
 20
-137.8153521534826
 30
0.0
 10
90.24505138260368
 20
-137.8153521534826
 30
0.0
 10
89.07348206730411
 20
-138.9869214687822
 30
0.0
 10
89.07348206730411
 20
-140.8864179282683
 30
0.0
 10
90.24507291445046
 20
-142.0579872435679
 30
0.0
 10
90.24507291445046
 20
-142.0579872435679
 30
0.0
 10
91.44181295863912
 20
-143.2547272877565
 30
0.0
 10
91.44181295863912
 20
-143.2547272877565
 30
0.0
 10
93.7849946529318
 20
-145.5978659183556
 30
0.0
 10
93.7849946529318
 20
-149.3969019010213
 30
0.0
 10
91.4418344904859
 20
-151.7400405316204
 30
0.0
 10
91.4418344904859
 20
-151.7400405316204
 30
0.0
 10
80.37549877276638
 20
-162.806268590106
 30
0.0
 10
80.37549877276638
 20
-162.806268590106
 30
0.0
 10
79.59763927589053
 20
-163.5841280869819
 30
0.0
 10
78.45862611292658
 20
-163.8270503823856
 30
0.0
 10
77.4033287702542
 20
-163.5164965562371
 30
0.0
 10
77.0044943722962
 20
-163.399126459424
 30
0.0
 10
76.57616134424572
 20
-163.3513042277193
 30
0.0
 10
76.13189474957598
 20
-163.3874561984677
 30
0.0
 10
74.65478852842833
 20
-163.5076254353625
 30
0.0
 10
73.47551081198051
 20
-164.5734303192649
 30
0.0
 10
73.0719178758835
 20
-165.9449013000961
 30
0.0
 10
72.80955232283495
 20
-166.8364274161384
 30
0.0
 10
71.88245559590743
 20
-167.7633088245981
 30
0.0
 10
70.9909510117119
 20
-168.0257605050338
 30
0.0
 10
69.6198891359696
 20
-168.4293965048244
 30
0.0
 10
68.55436416607539
 20
-169.6081789887962
 30
0.0
 10
68.43382888778521
 20
-171.0848330411614
 30
0.0
 10
68.39164799993767
 20
-171.6015758321021
 30
0.0
 10
68.40775382133123
 20
-172.48054888147
 30
0.0
 10
68.43499160751148
 20
-173.2398694582658
 30
0.0
 10
68.46375815481332
 20
-174.042189133087
 30
0.0
 10
68.24363808515264
 20
-174.8219219006329
 30
0.0
 10
67.88155854965288
 20
-175.5384802297181
 30
0.0
 10
67.25024480198084
 20
-176.787844107444
 30
0.0
 10
67.41438207000621
 20
-178.3737507503852
 30
0.0
 10
68.45116202444537
 20
-179.3851661893142
 30
0.0
 10
69.08195900779462
 20
-180.0005033066734
 30
0.0
 10
69.9012242460338
 20
-180.308171865353
 30
0.0
 10
70.72016650657126
 20
-180.308171865353
 30
0.0
 10
71.23167705874373
 20
-180.308171865353
 30
0.0
 10
71.7433168019969
 20
-180.1881318195388
 30
0.0
 10
72.20907217975589
 20
-179.9480732597572
 30
0.0
 10
72.93941089078207
 20
-179.5716535143001
 30
0.0
 10
73.75055862278415
 20
-179.3812689250465
 30
0.0
 10
74.57210623678232
 20
-179.3929822496963
 30
0.0
 10
75.33517335491838
 20
-179.4038558323217
 30
0.0
 10
76.19657641731153
 20
-179.4040065552491
 30
0.0
 10
76.69984027216618
 20
-179.3647539985641
 30
0.0
 10
78.18316919703408
 20
-179.2491279813404
 30
0.0
 10
79.36888493566994
 20
-178.1795334924042
 30
0.0
 10
79.7728008494687
 20
-176.8022919766352
 30
0.0
 10
80.0334869184682
 20
-175.9133712140537
 30
0.0
 10
80.95965777598404
 20
-174.9872649520781
 30
0.0
 10
81.84853547487207
 20
-174.7265358193851
 30
0.0
 10
83.22564779956035
 20
-174.3225983737395
 30
0.0
 10
84.29511309741581
 20
-173.1369902943376
 30
0.0
 10
84.41078217833308
 20
-171.6537905605504
 30
0.0
 10
84.44553457904053
 20
-171.208102863993
 30
0.0
 10
84.39590367220615
 20
-170.7783917977484
 30
0.0
 10
84.27638039071476
 20
-170.3785454029916
 30
0.0
 10
83.95981917931387
 20
-169.3195661145194
 30
0.0
 10
84.20056675819248
 20
-168.1741149293674
 30
0.0
 10
84.98212973271498
 20
-167.3925519548449
 30
0.0
 10
84.98212973271498
 20
-167.3925519548449
 30
0.0
 10
96.03830241875302
 20
-156.336465396194
 30
0.0
 10
96.03830241875302
 20
-156.336465396194
 30
0.0
 10
98.3814625811989
 20
-153.9933267655948
 30
0.0
 10
102.180455500171
 20
-153.9933482974416
 30
0.0
 10
104.5235941307701
 20
-156.3365084598875
 30
0.0
 10
104.5235941307701
 20
-156.3365084598875
 30
0.0
 10
105.7202480475717
 20
-157.5331623766891
 30
0.0
 10
105.7202480475717
 20
-157.5331623766891
 30
0.0
 10
106.8918173628712
 20
-158.7047532238354
 30
0.0
 10
108.7913138223573
 20
-158.7047532238354
 30
0.0
 10
109.9629046695036
 20
-157.5331839085358
 30
0.0
 10
109.9629046695036
 20
-157.5331839085358
 30
0.0
 10
111.19814365574
 20
-156.2979449222995
 30
0.0
 10
111.19814365574
 20
-156.2979449222995
 30
0.0
 10
113.5412822863391
 20
-153.9548062917004
 30
0.0
 10
117.3402536734644
 20
-153.9548062917004
 30
0.0
 10
119.6834138359103
 20
-156.2979449222995
 30
0.0
 10
119.6834138359103
 20
-156.2979449222995
 30
0.0
 10
130.8414321572311
 20
-167.4558986480799
 30
0.0
 10
130.8414321572311
 20
-167.4558986480799
 30
0.0
 10
131.6140378834919
 20
-168.2285043743408
 30
0.0
 10
131.8608359113165
 20
-169.3585602890431
 30
0.0
 10
131.5578828270823
 20
-170.408345478939
 30
0.0
 10
131.4427305104878
 20
-170.8072229405906
 30
0.0
 10
131.3971691226954
 20
-171.2352975864797
 30
0.0
 10
131.4355819373559
 20
-171.6791335442138
 30
0.0
 10
131.5626628970681
 20
-173.146959539398
 30
0.0
 10
132.6229340963473
 20
-174.3164833292532
 30
0.0
 10
133.9858999976993
 20
-174.7196671602614
 30
0.0
 10
134.8808927410736
 20
-174.9844442801496
 30
0.0
 10
135.8089584011064
 20
-175.9125314720291
 30
0.0
 10
136.0737139891478
 20
-176.807567279097
 30
0.0
 10
136.4768332246156
 20
-178.1704039893683
 30
0.0
 10
137.6462708870837
 20
-179.2306751886475
 30
0.0
 10
139.1140107548808
 20
-179.3577992120532
 30
0.0
 10
139.6075206831428
 20
-179.4005399279171
 30
0.0
 10
140.445626287317
 20
-179.4025208578211
 30
0.0
 10
141.1920062241964
 20
-179.3927238675349
 30
0.0
 10
142.0121112044601
 20
-179.3819579441435
 30
0.0
 10
142.8217947708809
 20
-179.5719764920019
 30
0.0
 10
143.5508631029469
 20
-179.9478579412894
 30
0.0
 10
144.0167261399398
 20
-180.1880672239984
 30
0.0
 10
144.5284950742737
 20
-180.308171865353
 30
0.0
 10
145.0401778812204
 20
-180.308171865353
 30
0.0
 10
145.8590770780643
 20
-180.308171865353
 30
0.0
 10
146.6783638481503
 20
-180.0005033066734
 30
0.0
 10
147.3091608314995
 20
-179.3851661893142
 30
0.0
 10
148.3459192540919
 20
-178.3737938140787
 30
0.0
 10
148.5100780539641
 20
-176.7879517666779
 30
0.0
 10
147.8788073699856
 20
-175.538587888952
 30
0.0
 10
147.4746546058722
 20
-174.7387443765109
 30
0.0
 10
147.3355588756553
 20
-173.8310047798412
 30
0.0
 10
147.3853405054171
 20
-172.9362488867814
 30
0.0
  0
SPLINE
  5
42
330
1F
100
AcDbEntity
  8
Layer 1
 62
     1
420
 15597568
370
    18
100
AcDbSpline
210
0.0
220
0.0
230
1.0
 70
    11
 71
     3
 72
    17
 73
    13
 74
     0
 42
0.0000000001
 43
0.0000000001
 12
1.0
 22
0.0
 32
0.0
 13
1.0
 23
0.0
 33
0.0
 40
0.0
 40
0.0
 40
0.0
 40
0.0
 40
1.0
 40
1.0
 40
1.0
 40
2.0
 40
2.0
 40
2.0
 40
3.0
 40
3.0
 40
3.0
 40
4.0
 40
4.0
 40
4.0
 40
4.0
 10
145.0400056264462
 20
-101.2382781541091
 30
0.0
 10
145.8683788358745
 20
-101.2382781541091
 30
0.0
 10
146.5400002007239
 20
-101.9098349234182
 30
0.0
 10
146.5400002007239
 20
-102.7382727283869
 30
0.0
 10
146.5400002007239
 20
-103.5666890015088
 30
0.0
 10
145.8683788358745
 20
-104.2382673026647
 30
0.0
 10
145.0400056264462
 20
-104.2382673026647
 30
0.0
 10
144.2116324170179
 20
-104.2382673026647
 30
0.0
 10
143.5400110521684
 20
-103.5666890015088
 30
0.0
 10
143.5400110521684
 20
-102.7382727283869
 30
0.0
 10
143.5400110521684
 20
-101.9098349234182
 30
0.0
 10
144.2116324170179
 20
-101.2382781541091
 30
0.0
 10
145.0400056264462
 20
-101.2382781541091
 30
0.0
  0
SPLINE
  5
43
330
1F
100
AcDbEntity
  8
Layer 1
 62
     1
420
 15597568
370
    18
100
AcDbSpline
210
0.0
220
0.0
230
1.0
 70
    11
 71
     3
 72
    65
 73
    61
 74
     0
 42
0.0000000001
 43
0.0000000001
 12
1.0
 22
0.0
 32
0.0
 13
1.0
 23
0.0
 33
0.0
 40
0.0
 40
0.0
 40
0.0
 40
0.0
 40
1.0
 40
1.0
 40
1.0
 40
2.0
 40
2.0
 40
2.0
 40
3.0
 40
3.0
 40
3.0
 40
4.0
 40
4.0
 40
4.0
 40
5.0
 40
5.0
 40
5.0
 40
6.0
 40
6.0
 40
6.0
 40
7.0
 40
7.0
 40
7.0
 40
8.0
 40
8.0
 40
8.0
 40
9.0
 40
9.0
 40
9.0
 40
10.0
 40
10.0
 40
10.0
 40
11.0
 40
11.0
 40
11.0
 40
12.0
 40
12.0
 40
12.0
 40
13.0
 40
13.0
 40
13.0
 40
14.0
 40
14.0
 40
14.0
 40
15.0
 40
15.0
 40
15.0
 40
16.0
 40
16.0
 40
16.0
 40
17.0
 40
17.0
 40
17.0
 40
18.0
 40
18.0
 40
18.0
 40
19.0
 40
19.0
 40
19.0
 40
20.0
 40
20.0
 40
20.0
 40
20.0
 10
134.9177983264593
 20
-107.4122337732254
 30
0.0
 10
134.9524215360861
 20
-107.4122337732254
 30
0.0
 10
135.8807025145867
 20
-107.4122337732254
 30
0.0
 10
137.1271380611501
 20
-107.4122337732254
 30
0.0
 10
137.3791467958961
 20
-106.8359984896238
 30
0.0
 10
137.8416508647909
 20
-106.3735590162693
 30
0.0
 10
138.4178430846989
 20
-106.1216148770636
 30
0.0
 10
138.4178430846989
 20
-104.8759760088312
 30
0.0
 10
138.4178430846989
 20
-103.9481471991131
 30
0.0
 10
138.4178430846989
 20
-103.9122320786794
 30
0.0
 10
138.4178430846989
 20
-103.3599402087003
 30
0.0
 10
138.8655332430071
 20
-102.9122285185452
 30
0.0
 10
139.4177820492927
 20
-102.9122285185452
 30
0.0
 10
139.9700308555782
 20
-102.9122285185452
 30
0.0
 10
140.4178932686607
 20
-103.3599402087003
 30
0.0
 10
140.4178932686607
 20
-103.9122320786794
 30
0.0
 10
140.4178932686607
 20
-103.9481471991131
 30
0.0
 10
140.4178932686607
 20
-104.8760190725248
 30
0.0
 10
140.4178932686607
 20
-106.121679472604
 30
0.0
 10
140.9940854885688
 20
-106.3736451436565
 30
0.0
 10
141.4564173026893
 20
-106.8360415533173
 30
0.0
 10
141.7084260374353
 20
-107.4122337732254
 30
0.0
 10
142.9548615839987
 20
-107.4122337732254
 30
0.0
 10
143.8831425624993
 20
-107.4122337732254
 30
0.0
 10
143.917765772126
 20
-107.4122337732254
 30
0.0
 10
144.4700145784116
 20
-107.4122337732254
 30
0.0
 10
144.9177047367198
 20
-107.8599454633804
 30
0.0
 10
144.9177047367198
 20
-108.4122373333595
 30
0.0
 10
144.9177047367198
 20
-108.9645076714918
 30
0.0
 10
144.4700145784116
 20
-109.4122193616468
 30
0.0
 10
143.917765772126
 20
-109.4122193616468
 30
0.0
 10
143.8831425624993
 20
-109.4122193616468
 30
0.0
 10
142.9548615839987
 20
-109.4122193616468
 30
0.0
 10
141.7084260374353
 20
-109.4122193616468
 30
0.0
 10
141.4564173026893
 20
-109.9884115815548
 30
0.0
 10
140.9940854885688
 20
-110.4508079912157
 30
0.0
 10
140.4178932686607
 20
-110.7027736622682
 30
0.0
 10
140.4178932686607
 20
-111.9484340623474
 30
0.0
 10
140.4178932686607
 20
-112.8763059357591
 30
0.0
 10
140.4178932686607
 20
-112.9122210561928
 30
0.0
 10
140.4178932686607
 20
-113.4645129261719
 30
0.0
 10
139.9700308555782
 20
-113.9122246163269
 30
0.0
 10
139.4177820492927
 20
-113.9122246163269
 30
0.0
 10
138.8655332430071
 20
-113.9122246163269
 30
0.0
 10
138.4178430846989
 20
-113.4645129261719
 30
0.0
 10
138.4178430846989
 20
-112.9122210561928
 30
0.0
 10
138.4178430846989
 20
-112.8763059357591
 30
0.0
 10
138.4178430846989
 20
-111.948477126041
 30
0.0
 10
138.4178430846989
 20
-110.7028382578085
 30
0.0
 10
137.8416508647909
 20
-110.4508941186029
 30
0.0
 10
137.3791467958961
 20
-109.9884546452484
 30
0.0
 10
137.1271380611501
 20
-109.4122193616468
 30
0.0
 10
135.8807025145867
 20
-109.4122193616468
 30
0.0
 10
134.9524215360861
 20
-109.4122193616468
 30
0.0
 10
134.9177983264593
 20
-109.4122193616468
 30
0.0
 10
134.3655495201738
 20
-109.4122193616468
 30
0.0
 10
133.9178593618656
 20
-108.9645076714918
 30
0.0
 10
133.9178593618656
 20
-108.4122373333595
 30
0.0
 10
133.9178593618656
 20
-107.8599454633804
 30
0.0
 10
134.3655495201738
 20
-107.4122337732254
 30
0.0
 10
134.9177983264593
 20
-107.4122337732254
 30
0.0
  0
SPLINE
  5
44
330
1F
100
AcDbEntity
  8
Layer 1
 62
     1
420
 15597568
370
    18
100
AcDbSpline
210
0.0
220
0.0
230
1.0
 70
    11
 71
     3
 72
    17
 73
    13
 74
     0
 42
0.0000000001
 43
0.0000000001
 12
1.0
 22
0.0
 32
0.0
 13
1.0
 23
0.0
 33
0.0
 40
0.0
 40
0.0
 40
0.0
 40
0.0
 40
1.0
 40
1.0
 40
1.0
 40
2.0
 40
2.0
 40
2.0
 40
3.0
 40
3.0
 40
3.0
 40
4.0
 40
4.0
 40
4.0
 40
4.0
 10
69.22034418706775
 20
-102.7382727283869
 30
0.0
 10
69.22034418706775
 20
-101.9098349234182
 30
0.0
 10
69.89196555191721
 20
-101.2382781541091
 30
0.0
 10
70.72033876134553
 20
-101.2382781541091
 30
0.0
 10
71.54871197077385
 20
-101.2382781541091
 30
0.0
 10
72.22033333562331
 20
-101.9098349234182
 30
0.0
 10
72.22033333562331
 20
-102.7382727283869
 30
0.0
 10
72.22033333562331
 20
-103.5666890015088
 30
0.0
 10
71.54871197077385
 20
-104.2382673026647
 30
0.0
 10
70.72033876134553
 20
-104.2382673026647
 30
0.0
 10
69.89196555191721
 20
-104.2382673026647
 30
0.0
 10
69.22034418706775
 20
-103.5666890015088
 30
0.0
 10
69.22034418706775
 20
-102.7382727283869
 30
0.0
  0
SPLINE
  5
45
330
1F
100
AcDbEntity
  8
Layer 1
 62
     1
420
 15597568
370
    18
100
AcDbSpline
210
0.0
220
0.0
230
1.0
 70
    11
 71
     3
 72
    65
 73
    61
 74
     0
 42
0.0000000001
 43
0.0000000001
 12
1.0
 22
0.0
 32
0.0
 13
1.0
 23
0.0
 33
0.0
 40
0.0
 40
0.0
 40
0.0
 40
0.0
 40
1.0
 40
1.0
 40
1.0
 40
2.0
 40
2.0
 40
2.0
 40
3.0
 40
3.0
 40
3.0
 40
4.0
 40
4.0
 40
4.0
 40
5.0
 40
5.0
 40
5.0
 40
6.0
 40
6.0
 40
6.0
 40
7.0
 40
7.0
 40
7.0
 40
8.0
 40
8.0
 40
8.0
 40
9.0
 40
9.0
 40
9.0
 40
10.0
 40
10.0
 40
10.0
 40
11.0
 40
11.0
 40
11.0
 40
12.0
 40
12.0
 40
12.0
 40
13.0
 40
13.0
 40
13.0
 40
14.0
 40
14.0
 40
14.0
 40
15.0
 40
15.0
 40
15.0
 40
16.0
 40
16.0
 40
16.0
 40
17.0
 40
17.0
 40
17.0
 40
18.0
 40
18.0
 40
18.0
 40
19.0
 40
19.0
 40
19.0
 40
20.0
 40
20.0
 40
20.0
 40
20.0
 10
80.92178325749308
 20
-109.3752061170272
 30
0.0
 10
80.88716004786632
 20
-109.3752061170272
 30
0.0
 10
79.95887906936575
 20
-109.3752061170272
 30
0.0
 10
78.71244352280236
 20
-109.3752061170272
 30
0.0
 10
78.46043478805633
 20
-109.9513983369352
 30
0.0
 10
77.9981029739358
 20
-110.4137947465961
 30
0.0
 10
77.42191075402778
 20
-110.6657604176485
 30
0.0
 10
77.42191075402778
 20
-111.9114208177277
 30
0.0
 10
77.42191075402778
 20
-112.8392926911394
 30
0.0
 10
77.42191075402778
 20
-112.8752078115732
 30
0.0
 10
77.42191075402778
 20
-113.4274996815523
 30
0.0
 10
76.97404834094529
 20
-113.8752113717073
 30
0.0
 10
76.42179953465974
 20
-113.8752113717073
 30
0.0
 10
75.8695507283742
 20
-113.8752113717073
 30
0.0
 10
75.42186057006597
 20
-113.4274996815523
 30
0.0
 10
75.42186057006597
 20
-112.8752078115732
 30
0.0
 10
75.42186057006597
 20
-112.8392926911394
 30
0.0
 10
75.42186057006597
 20
-111.9114638814213
 30
0.0
 10
75.42186057006597
 20
-110.6658250131889
 30
0.0
 10
74.84566835015795
 20
-110.4138808739832
 30
0.0
 10
74.38316428126315
 20
-109.9514414006288
 30
0.0
 10
74.13115554651712
 20
-109.3752061170272
 30
0.0
 10
72.88471999995373
 20
-109.3752061170272
 30
0.0
 10
71.95643902145316
 20
-109.3752061170272
 30
0.0
 10
71.9218158118264
 20
-109.3752061170272
 30
0.0
 10
71.36956700554086
 20
-109.3752061170272
 30
0.0
 10
70.92187684723264
 20
-108.9274944268722
 30
0.0
 10
70.92187684723264
 20
-108.3752240887398
 30
0.0
 10
70.92187684723264
 20
-107.8229322187607
 30
0.0
 10
71.36956700554086
 20
-107.3752205286057
 30
0.0
 10
71.9218158118264
 20
-107.3752205286057
 30
0.0
 10
71.95643902145316
 20
-107.3752205286057
 30
0.0
 10
72.88471999995373
 20
-107.3752205286057
 30
0.0
 10
74.13115554651712
 20
-107.3752205286057
 30
0.0
 10
74.38316428126315
 20
-106.7989852450041
 30
0.0
 10
74.84566835015795
 20
-106.3365457716497
 30
0.0
 10
75.42186057006597
 20
-106.084601632444
 30
0.0
 10
75.42186057006597
 20
-104.8389627642116
 30
0.0
 10
75.42186057006597
 20
-103.9111339544934
 30
0.0
 10
75.42186057006597
 20
-103.8752188340597
 30
0.0
 10
75.42186057006597
 20
-103.3229269640806
 30
0.0
 10
75.8695507283742
 20
-102.8752152739256
 30
0.0
 10
76.42179953465974
 20
-102.8752152739256
 30
0.0
 10
76.97404834094529
 20
-102.8752152739256
 30
0.0
 10
77.42191075402778
 20
-103.3229269640806
 30
0.0
 10
77.42191075402778
 20
-103.8752188340597
 30
0.0
 10
77.42191075402778
 20
-103.9111339544934
 30
0.0
 10
77.42191075402778
 20
-104.8390058279051
 30
0.0
 10
77.42191075402778
 20
-106.0846662279843
 30
0.0
 10
77.9981029739358
 20
-106.3366318990368
 30
0.0
 10
78.46043478805633
 20
-106.7990283086977
 30
0.0
 10
78.71244352280236
 20
-107.3752205286057
 30
0.0
 10
79.95887906936575
 20
-107.3752205286057
 30
0.0
 10
80.88716004786632
 20
-107.3752205286057
 30
0.0
 10
80.92178325749308
 20
-107.3752205286057
 30
0.0
 10
81.47403206377864
 20
-107.3752205286057
 30
0.0
 10
81.92172222208684
 20
-107.8229322187607
 30
0.0
 10
81.92172222208684
 20
-108.3752240887398
 30
0.0
 10
81.92172222208684
 20
-108.9274944268722
 30
0.0
 10
81.47403206377864
 20
-109.3752061170272
 30
0.0
 10
80.92178325749308
 20
-109.3752061170272
 30
0.0
  0
SPLINE
  5
46
330
1F
100
AcDbEntity
  8
Layer 1
 62
     1
420
 15597568
370
    18
100
AcDbSpline
210
0.0
220
0.0
230
1.0
 70
    11
 71
     3
 72
    17
 73
    13
 74
     0
 42
0.0000000001
 43
0.0000000001
 12
1.0
 22
0.0
 32
0.0
 13
1.0
 23
0.0
 33
0.0
 40
0.0
 40
0.0
 40
0.0
 40
0.0
 40
1.0
 40
1.0
 40
1.0
 40
2.0
 40
2.0
 40
2.0
 40
3.0
 40
3.0
 40
3.0
 40
4.0
 40
4.0
 40
4.0
 40
4.0
 10
70.72033876134553
 20
-178.5579987633057
 30
0.0
 10
69.89196555191721
 20
-178.5579987633057
 30
0.0
 10
69.22034418706775
 20
-177.8864204621498
 30
0.0
 10
69.22034418706775
 20
-177.0580041890279
 30
0.0
 10
69.22034418706775
 20
-176.2295663840592
 30
0.0
 10
69.89196555191721
 20
-175.5580096147501
 30
0.0
 10
70.72033876134553
 20
-175.5580096147501
 30
0.0
 10
71.54871197077385
 20
-175.5580096147501
 30
0.0
 10
72.22033333562331
 20
-176.2295663840592
 30
0.0
 10
72.22033333562331
 20
-177.0580041890279
 30
0.0
 10
72.22033333562331
 20
-177.8864204621498
 30
0.0
 10
71.54871197077385
 20
-178.5579987633057
 30
0.0
 10
70.72033876134553
 20
-178.5579987633057
 30
0.0
  0
SPLINE
  5
47
330
1F
100
AcDbEntity
  8
Layer 1
 62
     1
420
 15597568
370
    18
100
AcDbSpline
210
0.0
220
0.0
230
1.0
 70
    11
 71
     3
 72
    65
 73
    61
 74
     0
 42
0.0000000001
 43
0.0000000001
 12
1.0
 22
0.0
 32
0.0
 13
1.0
 23
0.0
 33
0.0
 40
0.0
 40
0.0
 40
0.0
 40
0.0
 40
1.0
 40
1.0
 40
1.0
 40
2.0
 40
2.0
 40
2.0
 40
3.0
 40
3.0
 40
3.0
 40
4.0
 40
4.0
 40
4.0
 40
5.0
 40
5.0
 40
5.0
 40
6.0
 40
6.0
 40
6.0
 40
7.0
 40
7.0
 40
7.0
 40
8.0
 40
8.0
 40
8.0
 40
9.0
 40
9.0
 40
9.0
 40
10.0
 40
10.0
 40
10.0
 40
11.0
 40
11.0
 40
11.0
 40
12.0
 40
12.0
 40
12.0
 40
13.0
 40
13.0
 40
13.0
 40
14.0
 40
14.0
 40
14.0
 40
15.0
 40
15.0
 40
15.0
 40
16.0
 40
16.0
 40
16.0
 40
17.0
 40
17.0
 40
17.0
 40
18.0
 40
18.0
 40
18.0
 40
19.0
 40
19.0
 40
19.0
 40
20.0
 40
20.0
 40
20.0
 40
20.0
 10
80.92178325749308
 20
-172.3756241920974
 30
0.0
 10
80.88716004786632
 20
-172.3756241920974
 30
0.0
 10
79.95887906936575
 20
-172.3756241920974
 30
0.0
 10
78.71244352280236
 20
-172.3756241920974
 30
0.0
 10
78.46043478805633
 20
-172.9518164120054
 30
0.0
 10
77.9981029739358
 20
-173.4142128216663
 30
0.0
 10
77.42191075402778
 20
-173.6661784927187
 30
0.0
 10
77.42191075402778
 20
-174.911838892798
 30
0.0
 10
77.42191075402778
 20
-175.8397107662096
 30
0.0
 10
77.42191075402778
 20
-175.8756258866434
 30
0.0
 10
77.42191075402778
 20
-176.4279177566225
 30
0.0
 10
76.97404834094529
 20
-176.8756294467775
 30
0.0
 10
76.42179953465974
 20
-176.8756294467775
 30
0.0
 10
75.8695507283742
 20
-176.8756294467775
 30
0.0
 10
75.42186057006597
 20
-176.4279177566225
 30
0.0
 10
75.42186057006597
 20
-175.8756258866434
 30
0.0
 10
75.42186057006597
 20
-175.8397107662096
 30
0.0
 10
75.42186057006597
 20
-174.9118819564915
 30
0.0
 10
75.42186057006597
 20
-173.6662430882591
 30
0.0
 10
74.84566835015795
 20
-173.4142989490534
 30
0.0
 10
74.38316428126315
 20
-172.951859475699
 30
0.0
 10
74.13115554651712
 20
-172.3756241920974
 30
0.0
 10
72.88471999995373
 20
-172.3756241920974
 30
0.0
 10
71.95643902145316
 20
-172.3756241920974
 30
0.0
 10
71.9218158118264
 20
-172.3756241920974
 30
0.0
 10
71.36956700554086
 20
-172.3756241920974
 30
0.0
 10
70.92187684723264
 20
-171.9279125019424
 30
0.0
 10
70.92187684723264
 20
-171.37564216381
 30
0.0
 10
70.92187684723264
 20
-170.8233502938309
 30
0.0
 10
71.36956700554086
 20
-170.3756386036759
 30
0.0
 10
71.9218158118264
 20
-170.3756386036759
 30
0.0
 10
71.95643902145316
 20
-170.3756386036759
 30
0.0
 10
72.88471999995373
 20
-170.3756386036759
 30
0.0
 10
74.13115554651712
 20
-170.3756386036759
 30
0.0
 10
74.38316428126315
 20
-169.7994033200743
 30
0.0
 10
74.84566835015795
 20
-169.3369638467199
 30
0.0
 10
75.42186057006597
 20
-169.0850197075142
 30
0.0
 10
75.42186057006597
 20
-167.8393808392818
 30
0.0
 10
75.42186057006597
 20
-166.9115520295636
 30
0.0
 10
75.42186057006597
 20
-166.8756369091299
 30
0.0
 10
75.42186057006597
 20
-166.3233450391508
 30
0.0
 10
75.8695507283742
 20
-165.8756333489958
 30
0.0
 10
76.42179953465974
 20
-165.8756333489958
 30
0.0
 10
76.97404834094529
 20
-165.8756333489958
 30
0.0
 10
77.42191075402778
 20
-166.3233450391508
 30
0.0
 10
77.42191075402778
 20
-166.8756369091299
 30
0.0
 10
77.42191075402778
 20
-166.9115520295636
 30
0.0
 10
77.42191075402778
 20
-167.8394239029753
 30
0.0
 10
77.42191075402778
 20
-169.0850843030545
 30
0.0
 10
77.9981029739358
 20
-169.337049974107
 30
0.0
 10
78.46043478805633
 20
-169.7994463837679
 30
0.0
 10
78.71244352280236
 20
-170.3756386036759
 30
0.0
 10
79.95887906936575
 20
-170.3756386036759
 30
0.0
 10
80.88716004786632
 20
-170.3756386036759
 30
0.0
 10
80.92178325749308
 20
-170.3756386036759
 30
0.0
 10
81.47403206377864
 20
-170.3756386036759
 30
0.0
 10
81.92172222208684
 20
-170.8233502938309
 30
0.0
 10
81.92172222208684
 20
-171.37564216381
 30
0.0
 10
81.92172222208684
 20
-171.9279125019424
 30
0.0
 10
81.47403206377864
 20
-172.3756241920974
 30
0.0
 10
80.92178325749308
 20
-172.3756241920974
 30
0.0
  0
SPLINE
  5
48
330
1F
100
AcDbEntity
  8
Layer 1
 62
     1
420
 15597568
370
    18
100
AcDbSpline
210
0.0
220
0.0
230
1.0
 70
    11
 71
     3
 72
    17
 73
    13
 74
     0
 42
0.0000000001
 43
0.0000000001
 12
1.0
 22
0.0
 32
0.0
 13
1.0
 23
0.0
 33
0.0
 40
0.0
 40
0.0
 40
0.0
 40
0.0
 40
1.0
 40
1.0
 40
1.0
 40
2.0
 40
2.0
 40
2.0
 40
3.0
 40
3.0
 40
3.0
 40
4.0
 40
4.0
 40
4.0
 40
4.0
 10
94.79862787207942
 20
-140.9588079971521
 30
0.0
 10
94.21296163958695
 20
-141.5445818888785
 30
0.0
 10
93.26314881430358
 20
-141.5445818888785
 30
0.0
 10
92.67731032703684
 20
-140.9588079971521
 30
0.0
 10
92.09164409454436
 20
-140.3730125735789
 30
0.0
 10
92.09164409454436
 20
-139.4232643438359
 30
0.0
 10
92.67731032703684
 20
-138.8374689202627
 30
0.0
 10
93.26314881430358
 20
-138.2516950285363
 30
0.0
 10
94.21296163958695
 20
-138.2516950285363
 30
0.0
 10
94.79862787207942
 20
-138.8374689202627
 30
0.0
 10
95.38446635934616
 20
-139.4232643438359
 30
0.0
 10
95.38446635934616
 20
-140.3730125735789
 30
0.0
 10
94.79862787207942
 20
-140.9588079971521
 30
0.0
  0
SPLINE
  5
49
330
1F
100
AcDbEntity
  8
Layer 1
 62
     1
420
 15597568
370
    18
100
AcDbSpline
210
0.0
220
0.0
230
1.0
 70
    11
 71
     3
 72
    17
 73
    13
 74
     0
 42
0.0000000001
 43
0.0000000001
 12
1.0
 22
0.0
 32
0.0
 13
1.0
 23
0.0
 33
0.0
 40
0.0
 40
0.0
 40
0.0
 40
0.0
 40
1.0
 40
1.0
 40
1.0
 40
2.0
 40
2.0
 40
2.0
 40
3.0
 40
3.0
 40
3.0
 40
4.0
 40
4.0
 40
4.0
 40
4.0
 10
106.8195995487617
 20
-124.6953519533121
 30
0.0
 10
107.4052657812542
 20
-124.109556529739
 30
0.0
 10
108.3550786065375
 20
-124.109556529739
 30
0.0
 10
108.94074483903
 20
-124.6953519533121
 30
0.0
 10
109.5265833262967
 20
-125.2811258450385
 30
0.0
 10
109.5265833262967
 20
-126.2308740747816
 30
0.0
 10
108.94074483903
 20
-126.8166694983547
 30
0.0
 10
108.3550786065375
 20
-127.4024433900811
 30
0.0
 10
107.4052657812542
 20
-127.4024433900811
 30
0.0
 10
106.8195995487617
 20
-126.8166694983547
 30
0.0
 10
106.2337610614949
 20
-126.2308740747816
 30
0.0
 10
106.2337610614949
 20
-125.2811258450385
 30
0.0
 10
106.8195995487617
 20
-124.6953519533121
 30
0.0
  0
SPLINE
  5
4A
330
1F
100
AcDbEntity
  8
Layer 1
 62
     1
420
 15597568
370
    18
100
AcDbSpline
210
0.0
220
0.0
230
1.0
 70
    11
 71
     3
 72
    17
 73
    13
 74
     0
 42
0.0000000001
 43
0.0000000001
 12
1.0
 22
0.0
 32
0.0
 13
1.0
 23
0.0
 33
0.0
 40
0.0
 40
0.0
 40
0.0
 40
0.0
 40
1.0
 40
1.0
 40
1.0
 40
2.0
 40
2.0
 40
2.0
 40
3.0
 40
3.0
 40
3.0
 40
4.0
 40
4.0
 40
4.0
 40
4.0
 10
108.94074483903
 20
-155.1009464959495
 30
0.0
 10
108.3550786065375
 20
-155.6867203876758
 30
0.0
 10
107.4052657812542
 20
-155.6867203876758
 30
0.0
 10
106.8195995487617
 20
-155.1009464959495
 30
0.0
 10
106.2337610614949
 20
-154.5151510723763
 30
0.0
 10
106.2337610614949
 20
-153.5654028426333
 30
0.0
 10
106.8195995487617
 20
-152.9796074190601
 30
0.0
 10
107.4052657812542
 20
-152.3938335273337
 30
0.0
 10
108.3550786065375
 20
-152.3938335273337
 30
0.0
 10
108.94074483903
 20
-152.9796074190601
 30
0.0
 10
109.5265833262967
 20
-153.5654028426333
 30
0.0
 10
109.5265833262967
 20
-154.5151510723763
 30
0.0
 10
108.94074483903
 20
-155.1009464959495
 30
0.0
  0
SPLINE
  5
4B
330
1F
100
AcDbEntity
  8
Layer 1
 62
     1
420
 15597568
370
    18
100
AcDbSpline
210
0.0
220
0.0
230
1.0
 70
    11
 71
     3
 72
   101
 73
    97
 74
     0
 42
0.0000000001
 43
0.0000000001
 12
1.0
 22
0.0
 32
0.0
 13
1.0
 23
0.0
 33
0.0
 40
0.0
 40
0.0
 40
0.0
 40
0.0
 40
1.0
 40
1.0
 40
1.0
 40
2.0
 40
2.0
 40
2.0
 40
3.0
 40
3.0
 40
3.0
 40
4.0
 40
4.0
 40
4.0
 40
5.0
 40
5.0
 40
5.0
 40
6.0
 40
6.0
 40
6.0
 40
7.0
 40
7.0
 40
7.0
 40
8.0
 40
8.0
 40
8.0
 40
9.0
 40
9.0
 40
9.0
 40
10.0
 40
10.0
 40
10.0
 40
11.0
 40
11.0
 40
11.0
 40
12.0
 40
12.0
 40
12.0
 40
13.0
 40
13.0
 40
13.0
 40
14.0
 40
14.0
 40
14.0
 40
15.0
 40
15.0
 40
15.0
 40
16.0
 40
16.0
 40
16.0
 40
17.0
 40
17.0
 40
17.0
 40
18.0
 40
18.0
 40
18.0
 40
19.0
 40
19.0
 40
19.0
 40
20.0
 40
20.0
 40
20.0
 40
21.0
 40
21.0
 40
21.0
 40
22.0
 40
22.0
 40
22.0
 40
23.0
 40
23.0
 40
23.0
 40
24.0
 40
24.0
 40
24.0
 40
25.0
 40
25.0
 40
25.0
 40
26.0
 40
26.0
 40
26.0
 40
27.0
 40
27.0
 40
27.0
 40
28.0
 40
28.0
 40
28.0
 40
29.0
 40
29.0
 40
29.0
 40
30.0
 40
30.0
 40
30.0
 40
31.0
 40
31.0
 40
31.0
 40
32.0
 40
32.0
 40
32.0
 40
32.0
 10
116.6168482171023
 20
-141.3181099244169
 30
0.0
 10
116.6168482171023
 20
-141.3181099244169
 30
0.0
 10
115.5444761199312
 20
-142.362921257706
 30
0.0
 10
115.5444761199312
 20
-142.362921257706
 30
0.0
 10
115.1874565684254
 20
-142.7107682424823
 30
0.0
 10
114.9832485335372
 20
-143.1861914194468
 30
0.0
 10
114.9767459158088
 20
-143.6845890769285
 30
0.0
 10
114.9767459158088
 20
-143.6845890769285
 30
0.0
 10
114.956699766454
 20
-145.223082593254
 30
0.0
 10
114.956699766454
 20
-145.223082593254
 30
0.0
 10
114.9431777666744
 20
-146.2609606718791
 30
0.0
 10
114.0908396117768
 20
-147.0914009385986
 30
0.0
 10
113.0529400013049
 20
-147.0778789388189
 30
0.0
 10
113.0529400013049
 20
-147.0778789388189
 30
0.0
 10
111.5145541442134
 20
-147.0578543213109
 30
0.0
 10
111.5145541442134
 20
-147.0578543213109
 30
0.0
 10
111.0161349548849
 20
-147.0513732354293
 30
0.0
 10
110.5355441346925
 20
-147.2431573947238
 30
0.0
 10
110.1785245831867
 20
-147.5910043795001
 30
0.0
 10
110.1785245831867
 20
-147.5910043795001
 30
0.0
 10
109.076567728536
 20
-148.6646253237847
 30
0.0
 10
109.076567728536
 20
-148.6646253237847
 30
0.0
 10
108.3331161228191
 20
-149.3889781814052
 30
0.0
 10
107.1432232059073
 20
-149.3734967835684
 30
0.0
 10
106.41884881644
 20
-148.6300451778515
 30
0.0
 10
106.41884881644
 20
-148.6300451778515
 30
0.0
 10
105.3451632766151
 20
-147.528066791354
 30
0.0
 10
105.3451632766151
 20
-147.528066791354
 30
0.0
 10
104.9973162918388
 20
-147.1710472398482
 30
0.0
 10
104.5218931148743
 20
-146.96683920496
 30
0.0
 10
104.0234739255458
 20
-146.9603581190784
 30
0.0
 10
104.0234739255458
 20
-146.9603581190784
 30
0.0
 10
102.5264292142773
 20
-146.9408717977399
 30
0.0
 10
102.5264292142773
 20
-146.9408717977399
 30
0.0
 10
101.4885296038054
 20
-146.9273713298071
 30
0.0
 10
100.6581108689327
 20
-146.0750331749095
 30
0.0
 10
100.6715898050187
 20
-145.0371550962844
 30
0.0
 10
100.6715898050187
 20
-145.0371550962844
 30
0.0
 10
100.6910545945104
 20
-143.5401103850159
 30
0.0
 10
100.6910545945104
 20
-143.5401103850159
 30
0.0
 10
100.697535680392
 20
-143.0416911956873
 30
0.0
 10
100.5057515210975
 20
-142.5611219073418
 30
0.0
 10
100.1578830044744
 20
-142.204102355836
 30
0.0
 10
100.1578830044744
 20
-142.204102355836
 30
0.0
 10
99.1130501393385
 20
-141.1317302586648
 30
0.0
 10
99.1130501393385
 20
-141.1317302586648
 30
0.0
 10
98.38867574987115
 20
-140.3882571211012
 30
0.0
 10
98.40415714770799
 20
-139.1983426723426
 30
0.0
 10
99.14763028527169
 20
-138.4739682828753
 30
0.0
 10
99.14763028527169
 20
-138.4739682828753
 30
0.0
 10
100.219980850596
 20
-137.4291784814329
 30
0.0
 10
100.219980850596
 20
-137.4291784814329
 30
0.0
 10
100.5770004021018
 20
-137.0813314966566
 30
0.0
 10
100.7812299688368
 20
-136.6058867878453
 30
0.0
 10
100.7877110547184
 20
-136.1074460666701
 30
0.0
 10
100.7877110547184
 20
-136.1074460666701
 30
0.0
 10
100.8076926085329
 20
-134.5690386777318
 30
0.0
 10
100.8076926085329
 20
-134.5690386777318
 30
0.0
 10
100.8211930764657
 20
-133.5311175354131
 30
0.0
 10
101.6735312313633
 20
-132.7006772686936
 30
0.0
 10
102.711452373682
 20
-132.7141777366265
 30
0.0
 10
102.711452373682
 20
-132.7141777366265
 30
0.0
 10
104.2499243581606
 20
-132.7342023541345
 30
0.0
 10
104.2499243581606
 20
-132.7342023541345
 30
0.0
 10
104.7483435474891
 20
-132.7406834400161
 30
0.0
 10
105.2289343676815
 20
-132.5489208125684
 30
0.0
 10
105.5859539191873
 20
-132.2010522959453
 30
0.0
 10
105.5859539191873
 20
-132.2010522959453
 30
0.0
 10
106.6880399649187
 20
-131.12730216058
 30
0.0
 10
106.6880399649187
 20
-131.12730216058
 30
0.0
 10
107.4314915706356
 20
-130.4029493029595
 30
0.0
 10
108.6214275512409
 20
-130.4184307007963
 30
0.0
 10
109.3457804088615
 20
-131.1619253702068
 30
0.0
 10
109.3457804088615
 20
-131.1619253702068
 30
0.0
 10
110.4194444168396
 20
-132.2639468203978
 30
0.0
 10
110.4194444168396
 20
-132.2639468203978
 30
0.0
 10
110.7673129334627
 20
-132.6209663719036
 30
0.0
 10
111.2427361104272
 20
-132.8251959386386
 30
0.0
 10
111.7411768316025
 20
-132.8316770245202
 30
0.0
 10
111.7411768316025
 20
-132.8316770245202
 30
0.0
 10
113.238221542871
 20
-132.8511633458587
 30
0.0
 10
113.238221542871
 20
-132.8511633458587
 30
0.0
 10
114.2761426851897
 20
-132.8646853456383
 30
0.0
 10
115.1066044837559
 20
-133.7170450323827
 30
0.0
 10
115.0930609521295
 20
-134.7549661747013
 30
0.0
 10
115.0930609521295
 20
-134.7549661747013
 30
0.0
 10
115.0735530989443
 20
-136.2520324178166
 30
0.0
 10
115.0735530989443
 20
-136.2520324178166
 30
0.0
 10
115.0670504812159
 20
-136.7504516071452
 30
0.0
 10
115.2588346405104
 20
-137.2310639591843
 30
0.0
 10
115.6067031571335
 20
-137.5880835106901
 30
0.0
 10
115.6067031571335
 20
-137.5880835106901
 30
0.0
 10
116.6514283630355
 20
-138.6603910123209
 30
0.0
 10
116.6514283630355
 20
-138.6603910123209
 30
0.0
 10
117.3758027525028
 20
-139.4038426180378
 30
0.0
 10
117.3602998228192
 20
-140.5937570667963
 30
0.0
 10
116.6168482171023
 20
-141.3181099244169
 30
0.0
  0
SPLINE
  5
4C
330
1F
100
AcDbEntity
  8
Layer 1
 62
     1
420
 15597568
370
    18
100
AcDbSpline
210
0.0
220
0.0
230
1.0
 70
    11
 71
     3
 72
    17
 73
    13
 74
     0
 42
0.0000000001
 43
0.0000000001
 12
1.0
 22
0.0
 32
0.0
 13
1.0
 23
0.0
 33
0.0
 40
0.0
 40
0.0
 40
0.0
 40
0.0
 40
1.0
 40
1.0
 40
1.0
 40
2.0
 40
2.0
 40
2.0
 40
3.0
 40
3.0
 40
3.0
 40
4.0
 40
4.0
 40
4.0
 40
4.0
 10
120.9617165157123
 20
-140.9588079971521
 30
0.0
 10
120.3758780284455
 20
-140.3730125735789
 30
0.0
 10
120.3758780284455
 20
-139.4232643438359
 30
0.0
 10
120.9617165157123
 20
-138.8374689202627
 30
0.0
 10
121.5473827482047
 20
-138.2516950285363
 30
0.0
 10
122.4971955734881
 20
-138.2516950285363
 30
0.0
 10
123.0830340607549
 20
-138.8374689202627
 30
0.0
 10
123.6687002932473
 20
-139.4232643438359
 30
0.0
 10
123.6687002932473
 20
-140.3730125735789
 30
0.0
 10
123.0830340607549
 20
-140.9588079971521
 30
0.0
 10
122.4971955734881
 20
-141.5445818888785
 30
0.0
 10
121.5473827482047
 20
-141.5445818888785
 30
0.0
 10
120.9617165157123
 20
-140.9588079971521
 30
0.0
  0
SPLINE
  5
4D
330
1F
100
AcDbEntity
  8
Layer 1
 62
     1
420
 15597568
370
    18
100
AcDbSpline
210
0.0
220
0.0
230
1.0
 70
    11
 71
     3
 72
    65
 73
    61
 74
     0
 42
0.0000000001
 43
0.0000000001
 12
1.0
 22
0.0
 32
0.0
 13
1.0
 23
0.0
 33
0.0
 40
0.0
 40
0.0
 40
0.0
 40
0.0
 40
1.0
 40
1.0
 40
1.0
 40
2.0
 40
2.0
 40
2.0
 40
3.0
 40
3.0
 40
3.0
 40
4.0
 40
4.0
 40
4.0
 40
5.0
 40
5.0
 40
5.0
 40
6.0
 40
6.0
 40
6.0
 40
7.0
 40
7.0
 40
7.0
 40
8.0
 40
8.0
 40
8.0
 40
9.0
 40
9.0
 40
9.0
 40
10.0
 40
10.0
 40
10.0
 40
11.0
 40
11.0
 40
11.0
 40
12.0
 40
12.0
 40
12.0
 40
13.0
 40
13.0
 40
13.0
 40
14.0
 40
14.0
 40
14.0
 40
15.0
 40
15.0
 40
15.0
 40
16.0
 40
16.0
 40
16.0
 40
17.0
 40
17.0
 40
17.0
 40
18.0
 40
18.0
 40
18.0
 40
19.0
 40
19.0
 40
19.0
 40
20.0
 40
20.0
 40
20.0
 40
20.0
 10
140.4221996380173
 20
-173.6617214004347
 30
0.0
 10
140.4221996380173
 20
-174.9073818005139
 30
0.0
 10
140.4221996380173
 20
-175.8352536739256
 30
0.0
 10
140.4221996380173
 20
-175.8711687943593
 30
0.0
 10
140.4221996380173
 20
-176.4234606643384
 30
0.0
 10
139.9743372249348
 20
-176.8711723544934
 30
0.0
 10
139.4220884186493
 20
-176.8711723544934
 30
0.0
 10
138.8698396123637
 20
-176.8711723544934
 30
0.0
 10
138.4221494540555
 20
-176.4234606643384
 30
0.0
 10
138.4221494540555
 20
-175.8711687943593
 30
0.0
 10
138.4221494540555
 20
-175.8352536739256
 30
0.0
 10
138.4221494540555
 20
-174.9074248642075
 30
0.0
 10
138.4221494540555
 20
-173.661785995975
 30
0.0
 10
137.8459572341474
 20
-173.4098418567694
 30
0.0
 10
137.3834531652527
 20
-172.9474023834149
 30
0.0
 10
137.1314444305066
 20
-172.3711670998133
 30
0.0
 10
135.8850088839432
 20
-172.3711670998133
 30
0.0
 10
134.9567279054427
 20
-172.3711670998133
 30
0.0
 10
134.9221046958159
 20
-172.3711670998133
 30
0.0
 10
134.3698558895304
 20
-172.3711670998133
 30
0.0
 10
133.9221657312222
 20
-171.9234554096583
 30
0.0
 10
133.9221657312222
 20
-171.371185071526
 30
0.0
 10
133.9221657312222
 20
-170.8188932015469
 30
0.0
 10
134.3698558895304
 20
-170.3711815113919
 30
0.0
 10
134.9221046958159
 20
-170.3711815113919
 30
0.0
 10
134.9567279054427
 20
-170.3711815113919
 30
0.0
 10
135.8850088839432
 20
-170.3711815113919
 30
0.0
 10
137.1314444305066
 20
-170.3711815113919
 30
0.0
 10
137.3834531652527
 20
-169.7949462277903
 30
0.0
 10
137.8459572341474
 20
-169.3325067544359
 30
0.0
 10
138.4221494540555
 20
-169.0805626152301
 30
0.0
 10
138.4221494540555
 20
-167.8349237469977
 30
0.0
 10
138.4221494540555
 20
-166.9070949372796
 30
0.0
 10
138.4221494540555
 20
-166.8711798168459
 30
0.0
 10
138.4221494540555
 20
-166.3188879468668
 30
0.0
 10
138.8698396123637
 20
-165.8711762567118
 30
0.0
 10
139.4220884186493
 20
-165.8711762567118
 30
0.0
 10
139.9743372249348
 20
-165.8711762567118
 30
0.0
 10
140.4221996380173
 20
-166.3188879468668
 30
0.0
 10
140.4221996380173
 20
-166.8711798168459
 30
0.0
 10
140.4221996380173
 20
-166.9070949372796
 30
0.0
 10
140.4221996380173
 20
-167.8349668106913
 30
0.0
 10
140.4221996380173
 20
-169.0806272107705
 30
0.0
 10
140.9983918579253
 20
-169.332592881823
 30
0.0
 10
141.4607236720458
 20
-169.7949892914839
 30
0.0
 10
141.7127324067919
 20
-170.3711815113919
 30
0.0
 10
142.9591679533553
 20
-170.3711815113919
 30
0.0
 10
143.8874489318558
 20
-170.3711815113919
 30
0.0
 10
143.9220721414826
 20
-170.3711815113919
 30
0.0
 10
144.4743209477681
 20
-170.3711815113919
 30
0.0
 10
144.9220111060764
 20
-170.8188932015469
 30
0.0
 10
144.9220111060764
 20
-171.371185071526
 30
0.0
 10
144.9220111060764
 20
-171.9234554096583
 30
0.0
 10
144.4743209477681
 20
-172.3711670998133
 30
0.0
 10
143.9220721414826
 20
-172.3711670998133
 30
0.0
 10
143.8874489318558
 20
-172.3711670998133
 30
0.0
 10
142.9591679533553
 20
-172.3711670998133
 30
0.0
 10
141.7127324067919
 20
-172.3711670998133
 30
0.0
 10
141.4607236720458
 20
-172.9473593197214
 30
0.0
 10
140.9983918579253
 20
-173.4097557293822
 30
0.0
 10
140.4221996380173
 20
-173.6617214004347
 30
0.0
  0
SPLINE
  5
4E
330
1F
100
AcDbEntity
  8
Layer 1
 62
     1
420
 15597568
370
    18
100
AcDbSpline
210
0.0
220
0.0
230
1.0
 70
    11
 71
     3
 72
    17
 73
    13
 74
     0
 42
0.0000000001
 43
0.0000000001
 12
1.0
 22
0.0
 32
0.0
 13
1.0
 23
0.0
 33
0.0
 40
0.0
 40
0.0
 40
0.0
 40
0.0
 40
1.0
 40
1.0
 40
1.0
 40
2.0
 40
2.0
 40
2.0
 40
3.0
 40
3.0
 40
3.0
 40
4.0
 40
4.0
 40
4.0
 40
4.0
 10
145.0400056264462
 20
-178.5579987633057
 30
0.0
 10
144.2116324170179
 20
-178.5579987633057
 30
0.0
 10
143.5400110521684
 20
-177.8864204621498
 30
0.0
 10
143.5400110521684
 20
-177.0580041890279
 30
0.0
 10
143.5400110521684
 20
-176.2295663840592
 30
0.0
 10
144.2116324170179
 20
-175.5580096147501
 30
0.0
 10
145.0400056264462
 20
-175.5580096147501
 30
0.0
 10
145.8683788358745
 20
-175.5580096147501
 30
0.0
 10
146.5400002007239
 20
-176.2295663840592
 30
0.0
 10
146.5400002007239
 20
-177.0580041890279
 30
0.0
 10
146.5400002007239
 20
-177.8864204621498
 30
0.0
 10
145.8683788358745
 20
-178.5579987633057
 30
0.0
 10
145.0400056264462
 20
-178.5579987633057
 30
0.0
  0
ENDSEC
  0
SECTION
  2
OBJECTS
  0
DICTIONARY
  5
C
330
0
100
AcDbDictionary
281
     1
  3
ACAD_GROUP
350
D
  3
ACAD_LAYOUT
350
1A
  3
ACAD_MATERIAL
350
3B
  3
ACAD_MLEADERSTYLE
350
50
  3
ACAD_MLINESTYLE
350
17
  3
ACAD_PLOTSETTINGS
350
19
  3
ACAD_PLOTSTYLENAME
350
E
  3
ACAD_TABLESTYLE
350
4F
  3
ACAD_VISUALSTYLE
350
2A
  0
SUN
  5
3F
330
29
100
AcDbSun
 90
        1
290
     0
 63
     7
421
 16777215
 40
1.0
291
     1
 91
  2455826
 92
 54000000
292
     0
 70
     2
 71
   256
280
     1
  0
DICTIONARY
  5
D
102
{ACAD_REACTORS
330
C
102
}
330
C
100
AcDbDictionary
281
     1
  0
DICTIONARY
  5
1A
102
{ACAD_REACTORS
330
C
102
}
330
C
100
AcDbDictionary
281
     1
  3
Layout1
350
1E
  3
Layout2
350
26
  3
Model
350
22
  0
DICTIONARY
  5
3B
102
{ACAD_REACTORS
330
C
102
}
330
C
100
AcDbDictionary
281
     1
  3
ByBlock
350
3D
  3
ByLayer
350
3C
  3
Global
350
3E
  0
DICTIONARY
  5
50
102
{ACAD_REACTORS
330
C
102
}
330
C
100
AcDbDictionary
281
     1
  0
DICTIONARY
  5
17
102
{ACAD_REACTORS
330
C
102
}
330
C
100
AcDbDictionary
281
     1
  3
Standard
350
18
  0
DICTIONARY
  5
19
102
{ACAD_REACTORS
330
C
102
}
330
C
100
AcDbDictionary
281
     1
  0
ACDBDICTIONARYWDFLT
  5
E
102
{ACAD_REACTORS
330
C
102
}
330
C
100
AcDbDictionary
281
     1
  3
Normal
350
F
100
AcDbDictionaryWithDefault
340
F
  0
DICTIONARY
  5
4F
102
{ACAD_REACTORS
330
C
102
}
330
C
100
AcDbDictionary
281
     1
  0
DICTIONARY
  5
2A
102
{ACAD_REACTORS
330
C
102
}
330
C
100
AcDbDictionary
281
     1
  3
2dWireframe
350
2F
  3
3D Hidden
350
31
  3
3dWireframe
350
30
  3
Basic
350
32
  3
Brighten
350
36
  3
ColorChange
350
3A
  3
Conceptual
350
34
  3
Dim
350
35
  3
Facepattern
350
39
  3
Flat
350
2B
  3
FlatWithEdges
350
2C
  3
Gouraud
350
2D
  3
GouraudWithEdges
350
2E
  3
Linepattern
350
38
  3
Realistic
350
33
  3
Thicken
350
37
  0
LAYOUT
  5
1E
102
{ACAD_REACTORS
330
1A
102
}
330
1A
100
AcDbPlotSettings
  1

  2
none_device
  4

  6

 40
0.0
 41
0.0
 42
0.0
 43
0.0
 44
0.0
 45
0.0
 46
0.0
 47
0.0
 48
0.0
 49
0.0
140
0.0
141
0.0
142
1.0
143
1.0
 70
   688
 72
     0
 73
     0
 74
     5
  7

 75
    16
 76
     0
 77
     2
 78
   300
147
1.0
148
0.0
149
0.0
100
AcDbLayout
  1
Layout1
 70
     1
 71
     1
 10
0.0
 20
0.0
 11
12.0
 21
9.0
 12
0.0
 22
0.0
 32
0.0
 14
1.000000000000000E+20
 24
1.000000000000000E+20
 34
1.000000000000000E+20
 15
-1.000000000000000E+20
 25
-1.000000000000000E+20
 35
-1.000000000000000E+20
146
0.0
 13
0.0
 23
0.0
 33
0.0
 16
1.0
 26
0.0
 36
0.0
 17
0.0
 27
1.0
 37
0.0
 76
     0
330
1B
  0
LAYOUT
  5
26
102
{ACAD_REACTORS
330
1A
102
}
330
1A
100
AcDbPlotSettings
  1

  2
none_device
  4

  6

 40
0.0
 41
0.0
 42
0.0
 43
0.0
 44
0.0
 45
0.0
 46
0.0
 47
0.0
 48
0.0
 49
0.0
140
0.0
141
0.0
142
1.0
143
1.0
 70
   688
 72
     0
 73
     0
 74
     5
  7

 75
    16
 76
     0
 77
     2
 78
   300
147
1.0
148
0.0
149
0.0
100
AcDbLayout
  1
Layout2
 70
     1
 71
     2
 10
0.0
 20
0.0
 11
0.0
 21
0.0
 12
0.0
 22
0.0
 32
0.0
 14
0.0
 24
0.0
 34
0.0
 15
0.0
 25
0.0
 35
0.0
146
0.0
 13
0.0
 23
0.0
 33
0.0
 16
1.0
 26
0.0
 36
0.0
 17
0.0
 27
1.0
 37
0.0
 76
     0
330
23
  0
LAYOUT
  5
22
102
{ACAD_REACTORS
330
1A
102
}
330
1A
100
AcDbPlotSettings
  1

  2
none_device
  4

  6

 40
0.0
 41
0.0
 42
0.0
 43
0.0
 44
0.0
 45
0.0
 46
0.0
 47
0.0
 48
0.0
 49
0.0
140
0.0
141
0.0
142
1.0
143
1.0
 70
  1712
 72
     0
 73
     0
 74
     0
  7

 75
     0
 76
     0
 77
     2
 78
   300
147
1.0
148
0.0
149
0.0
100
AcDbLayout
  1
Model
 70
     1
 71
     0
 10
0.0
 20
0.0
 11
12.0
 21
9.0
 12
0.0
 22
0.0
 32
0.0
 14
1.000000000000000E+20
 24
1.000000000000000E+20
 34
1.000000000000000E+20
 15
-1.000000000000000E+20
 25
-1.000000000000000E+20
 35
-1.000000000000000E+20
146
0.0
 13
0.0
 23
0.0
 33
0.0
 16
1.0
 26
0.0
 36
0.0
 17
0.0
 27
1.0
 37
0.0
 76
     0
330
1F
331
29
  0
MATERIAL
  5
3D
102
{ACAD_REACTORS
330
3B
102
}
330
3B
100
AcDbMaterial
  1
ByBlock
 72
     1
 94
      127
  0
MATERIAL
  5
3C
102
{ACAD_REACTORS
330
3B
102
}
330
3B
100
AcDbMaterial
  1
ByLayer
 72
     1
 94
      127
  0
MATERIAL
  5
3E
102
{ACAD_REACTORS
330
3B
102
}
330
3B
100
AcDbMaterial
  1
Global
 72
     1
 94
      127
  0
MLINESTYLE
  5
18
102
{ACAD_REACTORS
330
17
102
}
330
17
100
AcDbMlineStyle
  2
Standard
 70
     0
  3

 62
   256
 51
90.0
 52
90.0
 71
     2
 49
0.5
 62
   256
  6
BYLAYER
 49
-0.5
 62
   256
  6
BYLAYER
  0
ACDBPLACEHOLDER
  5
F
102
{ACAD_REACTORS
330
E
102
}
330
E
  0
VISUALSTYLE
  5
2F
102
{ACAD_REACTORS
330
2A
102
}
330
2A
100
AcDbVisualStyle
  2
2dWireframe
 70
     4
177
     2
291
     0
 71
     0
176
     1
 72
     2
176
     1
 73
     0
176
     1
 90
        0
176
     1
 40
-0.6
176
     1
 41
-30.0
176
     1
 62
     5
 63
     7
421
 16777215
176
     1
 74
     1
176
     1
 91
        4
176
     1
 64
     7
176
     1
 65
   257
176
     1
 75
     1
176
     1
175
     1
176
     1
 42
1.0
176
     1
 92
        0
176
     1
 66
   257
176
     1
 43
1.0
176
     1
 76
     1
176
     1
 77
     6
176
     1
 78
     2
176
     1
 67
     7
176
     1
 79
     5
176
     1
170
     0
176
     1
171
     0
176
     1
290
     0
176
     1
 93
        1
176
     1
 44
0.0
176
     1
173
     0
176
     1
  0
VISUALSTYLE
  5
31
102
{ACAD_REACTORS
330
2A
102
}
330
2A
100
AcDbVisualStyle
  2
3D Hidden
 70
     6
177
     2
291
     0
 71
     1
176
     1
 72
     2
176
     1
 73
     2
176
     1
 90
        0
176
     1
 40
-0.6
176
     1
 41
-30.0
176
     1
 62
     5
 63
     7
421
 16777215
176
     1
 74
     2
176
     1
 91
        2
176
     1
 64
     7
176
     1
 65
   257
176
     1
 75
     2
176
     1
175
     1
176
     1
 42
40.0
176
     1
 92
        0
176
     1
 66
   257
176
     1
 43
1.0
176
     1
 76
     1
176
     1
 77
     6
176
     1
 78
     2
176
     1
 67
     7
176
     1
 79
     3
176
     1
170
     0
176
     1
171
     0
176
     1
290
     0
176
     1
 93
        1
176
     1
 44
0.0
176
     1
173
     0
176
     1
  0
VISUALSTYLE
  5
30
102
{ACAD_REACTORS
330
2A
102
}
330
2A
100
AcDbVisualStyle
  2
3dWireframe
 70
     5
177
     2
291
     0
 71
     0
176
     1
 72
     2
176
     1
 73
     0
176
     1
 90
        0
176
     1
 40
-0.6
176
     1
 41
-30.0
176
     1
 62
     5
 63
     7
421
 16777215
176
     1
 74
     1
176
     1
 91
        4
176
     1
 64
     7
176
     1
 65
   257
176
     1
 75
     1
176
     1
175
     1
176
     1
 42
1.0
176
     1
 92
        0
176
     1
 66
   257
176
     1
 43
1.0
176
     1
 76
     1
176
     1
 77
     6
176
     1
 78
     2
176
     1
 67
     7
176
     1
 79
     5
176
     1
170
     0
176
     1
171
     0
176
     1
290
     0
176
     1
 93
        1
176
     1
 44
0.0
176
     1
173
     0
176
     1
  0
VISUALSTYLE
  5
32
102
{ACAD_REACTORS
330
2A
102
}
330
2A
100
AcDbVisualStyle
  2
Basic
 70
     7
177
     2
291
     1
 71
     1
176
     1
 72
     0
176
     1
 73
     1
176
     1
 90
        0
176
     1
 40
-0.6
176
     1
 41
-30.0
176
     1
 62
     5
 63
     7
421
 16777215
176
     1
 74
     0
176
     1
 91
        4
176
     1
 64
     7
176
     1
 65
   257
176
     1
 75
     1
176
     1
175
     1
176
     1
 42
1.0
176
     1
 92
        8
176
     1
 66
     7
176
     1
 43
1.0
176
     1
 76
     1
176
     1
 77
     6
176
     1
 78
     2
176
     1
 67
     7
176
     1
 79
     5
176
     1
170
     0
176
     1
171
     0
176
     1
290
     0
176
     1
 93
        1
176
     1
 44
0.0
176
     1
173
     0
176
     1
  0
VISUALSTYLE
  5
36
102
{ACAD_REACTORS
330
2A
102
}
330
2A
100
AcDbVisualStyle
  2
Brighten
 70
    12
177
     2
291
     1
 71
     2
176
     1
 72
     2
176
     1
 73
     0
176
     1
 90
        0
176
     1
 40
-0.6
176
     1
 41
-30.0
176
     1
 62
     5
 63
     7
421
 16777215
176
     1
 74
     1
176
     1
 91
        4
176
     1
 64
     7
176
     1
 65
   257
176
     1
 75
     1
176
     1
175
     1
176
     1
 42
1.0
176
     1
 92
        8
176
     1
 66
     7
176
     1
 43
1.0
176
     1
 76
     1
176
     1
 77
     6
176
     1
 78
     2
176
     1
 67
     7
176
     1
 79
     5
176
     1
170
     0
176
     1
171
     0
176
     1
290
     0
176
     1
 93
        1
176
     1
 44
50.0
176
     1
173
     0
176
     1
  0
VISUALSTYLE
  5
3A
102
{ACAD_REACTORS
330
2A
102
}
330
2A
100
AcDbVisualStyle
  2
ColorChange
 70
    16
177
     2
291
     1
 71
     2
176
     1
 72
     2
176
     1
 73
     3
176
     1
 90
        0
176
     1
 40
-0.6
176
     1
 41
-30.0
176
     1
 62
     5
 63
     8
421
  8421504
176
     1
 74
     1
176
     1
 91
        4
176
     1
 64
     7
176
     1
 65
   257
176
     1
 75
     1
176
     1
175
     1
176
     1
 42
1.0
176
     1
 92
        8
176
     1
 66
     8
424
  8421504
176
     1
 43
1.0
176
     1
 76
     1
176
     1
 77
     6
176
     1
 78
     2
176
     1
 67
     7
176
     1
 79
     5
176
     1
170
     0
176
     1
171
     0
176
     1
290
     0
176
     1
 93
        1
176
     1
 44
0.0
176
     1
173
     0
176
     1
  0
VISUALSTYLE
  5
34
102
{ACAD_REACTORS
330
2A
102
}
330
2A
100
AcDbVisualStyle
  2
Conceptual
 70
     9
177
     2
291
     0
 71
     3
176
     1
 72
     2
176
     1
 73
     0
176
     1
 90
        0
176
     1
 40
-0.6
176
     1
 41
-30.0
176
     1
 62
     5
 63
     7
421
 16777215
176
     1
 74
     2
176
     1
 91
        2
176
     1
 64
     7
176
     1
 65
   257
176
     1
 75
     1
176
     1
175
     1
176
     1
 42
40.0
176
     1
 92
        8
176
     1
 66
     7
176
     1
 43
1.0
176
     1
 76
     1
176
     1
 77
     6
176
     1
 78
     2
176
     1
 67
     7
176
     1
 79
     3
176
     1
170
     0
176
     1
171
     0
176
     1
290
     0
176
     1
 93
        1
176
     1
 44
0.0
176
     1
173
     0
176
     1
  0
VISUALSTYLE
  5
35
102
{ACAD_REACTORS
330
2A
102
}
330
2A
100
AcDbVisualStyle
  2
Dim
 70
    11
177
     2
291
     1
 71
     2
176
     1
 72
     2
176
     1
 73
     0
176
     1
 90
        0
176
     1
 40
-0.6
176
     1
 41
-30.0
176
     1
 62
     5
 63
     7
421
 16777215
176
     1
 74
     1
176
     1
 91
        4
176
     1
 64
     7
176
     1
 65
   257
176
     1
 75
     1
176
     1
175
     1
176
     1
 42
1.0
176
     1
 92
        8
176
     1
 66
     7
176
     1
 43
1.0
176
     1
 76
     1
176
     1
 77
     6
176
     1
 78
     2
176
     1
 67
     7
176
     1
 79
     5
176
     1
170
     0
176
     1
171
     0
176
     1
290
     0
176
     1
 93
        1
176
     1
 44
-50.0
176
     1
173
     0
176
     1
  0
VISUALSTYLE
  5
39
102
{ACAD_REACTORS
330
2A
102
}
330
2A
100
AcDbVisualStyle
  2
Facepattern
 70
    15
177
     2
291
     1
 71
     2
176
     1
 72
     2
176
     1
 73
     0
176
     1
 90
        0
176
     1
 40
-0.6
176
     1
 41
-30.0
176
     1
 62
     5
 63
     7
421
 16777215
176
     1
 74
     1
176
     1
 91
        4
176
     1
 64
     7
176
     1
 65
   257
176
     1
 75
     1
176
     1
175
     1
176
     1
 42
1.0
176
     1
 92
        8
176
     1
 66
     7
176
     1
 43
1.0
176
     1
 76
     1
176
     1
 77
     6
176
     1
 78
     2
176
     1
 67
     7
176
     1
 79
     5
176
     1
170
     0
176
     1
171
     0
176
     1
290
     0
176
     1
 93
        1
176
     1
 44
0.0
176
     1
173
     0
176
     1
  0
VISUALSTYLE
  5
2B
102
{ACAD_REACTORS
330
2A
102
}
330
2A
100
AcDbVisualStyle
  2
Flat
 70
     0
177
     2
291
     1
 71
     2
176
     1
 72
     1
176
     1
 73
     1
176
     1
 90
        2
176
     1
 40
-0.6
176
     1
 41
30.0
176
     1
 62
     5
 63
     7
421
 16777215
176
     1
 74
     0
176
     1
 91
        4
176
     1
 64
     7
176
     1
 65
   257
176
     1
 75
     1
176
     1
175
     1
176
     1
 42
1.0
176
     1
 92
        8
176
     1
 66
     7
176
     1
 43
1.0
176
     1
 76
     1
176
     1
 77
     6
176
     1
 78
     2
176
     1
 67
     7
176
     1
 79
     5
176
     1
170
     0
176
     1
171
     0
176
     1
290
     0
176
     1
 93
       13
176
     1
 44
0.0
176
     1
173
     0
176
     1
  0
VISUALSTYLE
  5
2C
102
{ACAD_REACTORS
330
2A
102
}
330
2A
100
AcDbVisualStyle
  2
FlatWithEdges
 70
     1
177
     2
291
     1
 71
     2
176
     1
 72
     1
176
     1
 73
     1
176
     1
 90
        2
176
     1
 40
-0.6
176
     1
 41
30.0
176
     1
 62
     5
 63
     7
421
 16777215
176
     1
 74
     1
176
     1
 91
        4
176
     1
 64
     7
176
     1
 65
   257
176
     1
 75
     1
176
     1
175
     1
176
     1
 42
1.0
176
     1
 92
        0
176
     1
 66
   257
176
     1
 43
1.0
176
     1
 76
     1
176
     1
 77
     6
176
     1
 78
     2
176
     1
 67
     7
176
     1
 79
     5
176
     1
170
     0
176
     1
171
     0
176
     1
290
     0
176
     1
 93
       13
176
     1
 44
0.0
176
     1
173
     0
176
     1
  0
VISUALSTYLE
  5
2D
102
{ACAD_REACTORS
330
2A
102
}
330
2A
100
AcDbVisualStyle
  2
Gouraud
 70
     2
177
     2
291
     1
 71
     2
176
     1
 72
     2
176
     1
 73
     1
176
     1
 90
        2
176
     1
 40
-0.6
176
     1
 41
30.0
176
     1
 62
     5
 63
     7
421
 16777215
176
     1
 74
     0
176
     1
 91
        4
176
     1
 64
     7
176
     1
 65
   257
176
     1
 75
     1
176
     1
175
     1
176
     1
 42
1.0
176
     1
 92
        0
176
     1
 66
     7
176
     1
 43
1.0
176
     1
 76
     1
176
     1
 77
     6
176
     1
 78
     2
176
     1
 67
     7
176
     1
 79
     5
176
     1
170
     0
176
     1
171
     0
176
     1
290
     0
176
     1
 93
       13
176
     1
 44
0.0
176
     1
173
     0
176
     1
  0
VISUALSTYLE
  5
2E
102
{ACAD_REACTORS
330
2A
102
}
330
2A
100
AcDbVisualStyle
  2
GouraudWithEdges
 70
     3
177
     2
291
     1
 71
     2
176
     1
 72
     2
176
     1
 73
     1
176
     1
 90
        2
176
     1
 40
-0.6
176
     1
 41
30.0
176
     1
 62
     5
 63
     7
421
 16777215
176
     1
 74
     1
176
     1
 91
        4
176
     1
 64
     7
176
     1
 65
   257
176
     1
 75
     1
176
     1
175
     1
176
     1
 42
1.0
176
     1
 92
        0
176
     1
 66
   257
176
     1
 43
1.0
176
     1
 76
     1
176
     1
 77
     6
176
     1
 78
     2
176
     1
 67
     7
176
     1
 79
     5
176
     1
170
     0
176
     1
171
     0
176
     1
290
     0
176
     1
 93
       13
176
     1
 44
0.0
176
     1
173
     0
176
     1
  0
VISUALSTYLE
  5
38
102
{ACAD_REACTORS
330
2A
102
}
330
2A
100
AcDbVisualStyle
  2
Linepattern
 70
    14
177
     2
291
     1
 71
     2
176
     1
 72
     2
176
     1
 73
     0
176
     1
 90
        0
176
     1
 40
-0.6
176
     1
 41
-30.0
176
     1
 62
     5
 63
     7
421
 16777215
176
     1
 74
     1
176
     1
 91
        4
176
     1
 64
     7
176
     1
 65
   257
176
     1
 75
     7
176
     1
175
     7
176
     1
 42
1.0
176
     1
 92
        8
176
     1
 66
     7
176
     1
 43
1.0
176
     1
 76
     1
176
     1
 77
     6
176
     1
 78
     2
176
     1
 67
     7
176
     1
 79
     5
176
     1
170
     0
176
     1
171
     0
176
     1
290
     0
176
     1
 93
        1
176
     1
 44
0.0
176
     1
173
     0
176
     1
  0
VISUALSTYLE
  5
33
102
{ACAD_REACTORS
330
2A
102
}
330
2A
100
AcDbVisualStyle
  2
Realistic
 70
     8
177
     2
291
     0
 71
     2
176
     1
 72
     2
176
     1
 73
     0
176
     1
 90
        0
176
     1
 40
-0.6
176
     1
 41
-30.0
176
     1
 62
     5
 63
     7
421
 16777215
176
     1
 74
     1
176
     1
 91
        0
176
     1
 64
     7
176
     1
 65
   257
176
     1
 75
     1
176
     1
175
     1
176
     1
 42
1.0
176
     1
 92
        8
176
     1
 66
     8
424
  7895160
176
     1
 43
1.0
176
     1
 76
     1
176
     1
 77
     6
176
     1
 78
     2
176
     1
 67
     7
176
     1
 79
     5
176
     1
170
     0
176
     1
171
     0
176
     1
290
     0
176
     1
 93
       13
176
     1
 44
0.0
176
     1
173
     0
176
     1
  0
VISUALSTYLE
  5
37
102
{ACAD_REACTORS
330
2A
102
}
330
2A
100
AcDbVisualStyle
  2
Thicken
 70
    13
177
     2
291
     1
 71
     2
176
     1
 72
     2
176
     1
 73
     0
176
     1
 90
        0
176
     1
 40
-0.6
176
     1
 41
-30.0
176
     1
 62
     5
 63
     7
421
 16777215
176
     1
 74
     1
176
     1
 91
        4
176
     1
 64
     7
176
     1
 65
   257
176
     1
 75
     1
176
     1
175
     1
176
     1
 42
1.0
176
     1
 92
       12
176
     1
 66
     7
176
     1
 43
1.0
176
     1
 76
     1
176
     1
 77
     6
176
     1
 78
     2
176
     1
 67
     7
176
     1
 79
     5
176
     1
170
     0
176
     1
171
     0
176
     1
290
     0
176
     1
 93
        1
176
     1
 44
0.0
176
     1
173
     0
176
     1
  0
ENDSEC
  0
EOF
