  0
SECTION
  2
HEADER
  9
$ACADVER
  1
AC1024
  9
$ACADMAINTVER
 70
     6
  9
$DWGCODEPAGE
  3
UNDEFINED
  9
$INSBASE
 10
0.0
 20
0.0
 30
0.0
  9
$EXTMIN
 10
1.000000000000000E+20
 20
1.000000000000000E+20
 30
1.000000000000000E+20
  9
$EXTMAX
 10
-1.000000000000000E+20
 20
-1.000000000000000E+20
 30
-1.000000000000000E+20
  9
$LIMMIN
 10
0.0
 20
0.0
  9
$LIMMAX
 10
12.0
 20
9.0
  9
$ORTHOMODE
 70
     0
  9
$REGENMODE
 70
     1
  9
$FILLMODE
 70
     1
  9
$QTEXTMODE
 70
     0
  9
$MIRRTEXT
 70
     1
  9
$LTSCALE
 40
1.0
  9
$ATTMODE
 70
     1
  9
$TEXTSIZE
 40
0.2
  9
$TRACEWID
 40
0.05
  9
$TEXTSTYLE
  7
Standard
  9
$CLAYER
  8
0
  9
$CELTYPE
  6
ByLayer
  9
$CECOLOR
 62
   256
  9
$CELTSCALE
 40
1.0
  9
$DISPSILH
 70
     0
  9
$DIMSCALE
 40
1.0
  9
$DIMASZ
 40
0.18
  9
$DIMEXO
 40
0.0625
  9
$DIMDLI
 40
0.38
  9
$DIMRND
 40
0.0
  9
$DIMDLE
 40
0.0
  9
$DIMEXE
 40
0.18
  9
$DIMTP
 40
0.0
  9
$DIMTM
 40
0.0
  9
$DIMTXT
 40
0.18
  9
$DIMCEN
 40
0.09
  9
$DIMTSZ
 40
0.0
  9
$DIMTOL
 70
     0
  9
$DIMLIM
 70
     0
  9
$DIMTIH
 70
     1
  9
$DIMTOH
 70
     1
  9
$DIMSE1
 70
     0
  9
$DIMSE2
 70
     0
  9
$DIMTAD
 70
     0
  9
$DIMZIN
 70
     0
  9
$DIMBLK
  1

  9
$DIMASO
 70
     1
  9
$DIMSHO
 70
     1
  9
$DIMPOST
  1

  9
$DIMAPOST
  1

  9
$DIMALT
 70
     0
  9
$DIMALTD
 70
     2
  9
$DIMALTF
 40
25.4
  9
$DIMLFAC
 40
1.0
  9
$DIMTOFL
 70
     0
  9
$DIMTVP
 40
0.0
  9
$DIMTIX
 70
     0
  9
$DIMSOXD
 70
     0
  9
$DIMSAH
 70
     0
  9
$DIMBLK1
  1

  9
$DIMBLK2
  1

  9
$DIMSTYLE
  2
Standard
  9
$DIMCLRD
 70
     0
  9
$DIMCLRE
 70
     0
  9
$DIMCLRT
 70
     0
  9
$DIMTFAC
 40
1.0
  9
$DIMGAP
 40
0.09
  9
$DIMJUST
 70
     0
  9
$DIMSD1
 70
     0
  9
$DIMSD2
 70
     0
  9
$DIMTOLJ
 70
     1
  9
$DIMTZIN
 70
     0
  9
$DIMALTZ
 70
     0
  9
$DIMALTTZ
 70
     0
  9
$DIMUPT
 70
     0
  9
$DIMDEC
 70
     4
  9
$DIMTDEC
 70
     4
  9
$DIMALTU
 70
     2
  9
$DIMALTTD
 70
     2
  9
$DIMTXSTY
  7
Standard
  9
$DIMAUNIT
 70
     0
  9
$DIMADEC
 70
     0
  9
$DIMALTRND
 40
0.0
  9
$DIMAZIN
 70
     0
  9
$DIMDSEP
 70
    46
  9
$DIMATFIT
 70
     3
  9
$DIMFRAC
 70
     0
  9
$DIMLDRBLK
  1

  9
$DIMLUNIT
 70
     2
  9
$DIMLWD
 70
    -2
  9
$DIMLWE
 70
    -2
  9
$DIMTMOVE
 70
     0
  9
$DIMFXL
 40
1.0
  9
$DIMFXLON
 70
     0
  9
$DIMJOGANG
 40
0.7853981633974483
  9
$DIMTFILL
 70
     0
  9
$DIMTFILLCLR
 70
     0
  9
$DIMARCSYM
 70
     0
  9
$DIMLTYPE
  6

  9
$DIMLTEX1
  6

  9
$DIMLTEX2
  6

  9
$DIMTXTDIRECTION
 70
     0
  9
$LUNITS
 70
     2
  9
$LUPREC
 70
     4
  9
$SKETCHINC
 40
0.1
  9
$FILLETRAD
 40
0.5
  9
$AUNITS
 70
     0
  9
$AUPREC
 70
     0
  9
$MENU
  1
.
  9
$ELEVATION
 40
0.0
  9
$PELEVATION
 40
0.0
  9
$THICKNESS
 40
0.0
  9
$LIMCHECK
 70
     0
  9
$CHAMFERA
 40
0.5
  9
$CHAMFERB
 40
0.5
  9
$CHAMFERC
 40
1.0
  9
$CHAMFERD
 40
0.0
  9
$SKPOLY
 70
     0
  9
$TDCREATE
 40
2457862.79247684
  9
$TDUCREATE
 40
2457863.000810185
  9
$TDUPDATE
 40
2457862.79247684
  9
$TDUUPDATE
 40
2457863.000810185
  9
$TDINDWG
 40
0.0000000116
  9
$TDUSRTIMER
 40
0.0000000116
  9
$USRTIMER
 70
     1
  9
$ANGBASE
 50
0.0
  9
$ANGDIR
 70
     0
  9
$PDMODE
 70
     0
  9
$PDSIZE
 40
0.0
  9
$PLINEWID
 40
0.0
  9
$SPLFRAME
 70
     0
  9
$SPLINETYPE
 70
     6
  9
$SPLINESEGS
 70
     8
  9
$HANDSEED
  5
56
  9
$SURFTAB1
 70
     6
  9
$SURFTAB2
 70
     6
  9
$SURFTYPE
 70
     6
  9
$SURFU
 70
     6
  9
$SURFV
 70
     6
  9
$UCSBASE
  2

  9
$UCSNAME
  2

  9
$UCSORG
 10
0.0
 20
0.0
 30
0.0
  9
$UCSXDIR
 10
1.0
 20
0.0
 30
0.0
  9
$UCSYDIR
 10
0.0
 20
1.0
 30
0.0
  9
$UCSORTHOREF
  2

  9
$UCSORTHOVIEW
 70
     0
  9
$UCSORGTOP
 10
0.0
 20
0.0
 30
0.0
  9
$UCSORGBOTTOM
 10
0.0
 20
0.0
 30
0.0
  9
$UCSORGLEFT
 10
0.0
 20
0.0
 30
0.0
  9
$UCSORGRIGHT
 10
0.0
 20
0.0
 30
0.0
  9
$UCSORGFRONT
 10
0.0
 20
0.0
 30
0.0
  9
$UCSORGBACK
 10
0.0
 20
0.0
 30
0.0
  9
$PUCSBASE
  2

  9
$PUCSNAME
  2

  9
$PUCSORG
 10
0.0
 20
0.0
 30
0.0
  9
$PUCSXDIR
 10
1.0
 20
0.0
 30
0.0
  9
$PUCSYDIR
 10
0.0
 20
1.0
 30
0.0
  9
$PUCSORTHOREF
  2

  9
$PUCSORTHOVIEW
 70
     0
  9
$PUCSORGTOP
 10
0.0
 20
0.0
 30
0.0
  9
$PUCSORGBOTTOM
 10
0.0
 20
0.0
 30
0.0
  9
$PUCSORGLEFT
 10
0.0
 20
0.0
 30
0.0
  9
$PUCSORGRIGHT
 10
0.0
 20
0.0
 30
0.0
  9
$PUCSORGFRONT
 10
0.0
 20
0.0
 30
0.0
  9
$PUCSORGBACK
 10
0.0
 20
0.0
 30
0.0
  9
$USERI1
 70
     0
  9
$USERI2
 70
     0
  9
$USERI3
 70
     0
  9
$USERI4
 70
     0
  9
$USERI5
 70
     0
  9
$USERR1
 40
0.0
  9
$USERR2
 40
0.0
  9
$USERR3
 40
0.0
  9
$USERR4
 40
0.0
  9
$USERR5
 40
0.0
  9
$WORLDVIEW
 70
     1
  9
$SHADEDGE
 70
     3
  9
$SHADEDIF
 70
    70
  9
$TILEMODE
 70
     1
  9
$MAXACTVP
 70
    64
  9
$PINSBASE
 10
0.0
 20
0.0
 30
0.0
  9
$PLIMCHECK
 70
     0
  9
$PEXTMIN
 10
1.000000000000000E+20
 20
1.000000000000000E+20
 30
1.000000000000000E+20
  9
$PEXTMAX
 10
-1.000000000000000E+20
 20
-1.000000000000000E+20
 30
-1.000000000000000E+20
  9
$PLIMMIN
 10
0.0
 20
0.0
  9
$PLIMMAX
 10
12.0
 20
9.0
  9
$UNITMODE
 70
     0
  9
$VISRETAIN
 70
     1
  9
$PLINEGEN
 70
     0
  9
$PSLTSCALE
 70
     1
  9
$TREEDEPTH
 70
  3020
  9
$CMLSTYLE
  2
Standard
  9
$CMLJUST
 70
     0
  9
$CMLSCALE
 40
1.0
  9
$PROXYGRAPHICS
 70
     1
  9
$MEASUREMENT
 70
     0
  9
$CELWEIGHT
370
    -1
  9
$ENDCAPS
280
     0
  9
$JOINSTYLE
280
     0
  9
$LWDISPLAY
290
     1
  9
$INSUNITS
 70
     1
  9
$HYPERLINKBASE
  1

  9
$STYLESHEET
  1

  9
$XEDIT
290
     1
  9
$CEPSNTYPE
380
     0
  9
$PSTYLEMODE
290
     1
  9
$FINGERPRINTGUID
  2
{45603283-2F6F-572C-B911-13BCF817B32E}
  9
$VERSIONGUID
  2
{FAEB1C32-E019-11D5-929B-00C0DF256EC4}
  9
$EXTNAMES
290
     1
  9
$PSVPSCALE
 40
0.0
  9
$OLESTARTUP
290
     0
  9
$SORTENTS
280
   127
  9
$INDEXCTL
280
     0
  9
$HIDETEXT
280
     1
  9
$XCLIPFRAME
280
     2
  9
$HALOGAP
280
     0
  9
$OBSCOLOR
 70
   257
  9
$OBSLTYPE
280
     0
  9
$INTERSECTIONDISPLAY
280
     0
  9
$INTERSECTIONCOLOR
 70
   257
  9
$DIMASSOC
280
     2
  9
$PROJECTNAME
  1

  9
$CAMERADISPLAY
290
     0
  9
$LENSLENGTH
 40
50.0
  9
$CAMERAHEIGHT
 40
0.0
  9
$STEPSPERSEC
 40
2.0
  9
$STEPSIZE
 40
6.0
  9
$3DDWFPREC
 40
2.0
  9
$PSOLWIDTH
 40
0.25
  9
$PSOLHEIGHT
 40
4.0
  9
$LOFTANG1
 40
1.570796326794897
  9
$LOFTANG2
 40
1.570796326794897
  9
$LOFTMAG1
 40
0.0
  9
$LOFTMAG2
 40
0.0
  9
$LOFTPARAM
 70
     7
  9
$LOFTNORMALS
280
     1
  9
$LATITUDE
 40
37.795
  9
$LONGITUDE
 40
-122.394
  9
$NORTHDIRECTION
 40
0.0
  9
$TIMEZONE
 70
 -8000
  9
$LIGHTGLYPHDISPLAY
280
     1
  9
$TILEMODELIGHTSYNCH
280
     1
  9
$CMATERIAL
347
3C
  9
$SOLIDHIST
280
     1
  9
$SHOWHIST
280
     1
  9
$DWFFRAME
280
     2
  9
$DGNFRAME
280
     2
  9
$REALWORLDSCALE
290
     1
  9
$INTERFERECOLOR
 62
   256
  9
$CSHADOW
280
     0
  9
$SHADOWPLANELOCATION
 40
0.0
  0
ENDSEC
  0
SECTION
  2
CLASSES
  0
CLASS
  1
ACDBDICTIONARYWDFLT
  2
AcDbDictionaryWithDefault
  3
ObjectDBX Classes
 90
        0
 91
        4
280
     0
281
     0
  0
CLASS
  1
VISUALSTYLE
  2
AcDbVisualStyle
  3
ObjectDBX Classes
 90
     4095
 91
        4
280
     0
281
     0
  0
CLASS
  1
MATERIAL
  2
AcDbMaterial
  3
ObjectDBX Classes
 90
     1153
 91
        4
280
     0
281
     0
  0
CLASS
  1
SUN
  2
AcDbSun
  3
SCENEOE
 90
     1024
 91
        4
280
     0
281
     0
  0
ENDSEC
  0
SECTION
  2
TABLES
  0
TABLE
  2
VPORT
  5
8
330
0
100
AcDbSymbolTable
 70
     1
  0
VPORT
  5
29
330
8
100
AcDbSymbolTableRecord
100
AcDbViewportTableRecord
  2
*Active
 70
     0
 10
0.0
 20
0.0
 11
1.0
 21
1.0
 12
0.0
 22
0.0
 13
0.0
 23
0.0
 14
0.5
 24
0.5
 15
0.5
 25
0.5
 16
0.0
 26
0.0
 36
1.0
 17
107.6657388324622
 27
-139.8952449608041
 37
0.0
 40
129.4827884234335
 41
0.803092866860656
 42
50.0
 43
0.0
 44
0.0
 50
0.0
 51
0.0
 71
     0
 72
   100
 73
     1
 74
     3
 75
     0
 76
     0
 77
     0
 78
     0
281
     0
 65
     1
110
0.0
120
0.0
130
0.0
111
1.0
121
0.0
131
0.0
112
0.0
122
1.0
132
0.0
 79
     0
146
0.0
 60
     3
 61
     5
292
     1
282
     1
141
0.0
142
0.0
 63
   250
361
3F
  0
ENDTAB
  0
TABLE
  2
LTYPE
  5
5
330
0
100
AcDbSymbolTable
 70
     1
  0
LTYPE
  5
14
330
5
100
AcDbSymbolTableRecord
100
AcDbLinetypeTableRecord
  2
ByBlock
 70
     0
  3

 72
    65
 73
     0
 40
0.0
  0
LTYPE
  5
15
330
5
100
AcDbSymbolTableRecord
100
AcDbLinetypeTableRecord
  2
ByLayer
 70
     0
  3

 72
    65
 73
     0
 40
0.0
  0
LTYPE
  5
16
330
5
100
AcDbSymbolTableRecord
100
AcDbLinetypeTableRecord
  2
Continuous
 70
     0
  3
Solid line
 72
    65
 73
     0
 40
0.0
  0
ENDTAB
  0
TABLE
  2
LAYER
  5
2
330
0
100
AcDbSymbolTable
 70
     2
  0
LAYER
  5
10
330
2
100
AcDbSymbolTableRecord
100
AcDbLayerTableRecord
  2
0
 70
     0
 62
     7
  6
Continuous
370
    -3
390
F
347
3E
  0
LAYER
  5
40
330
2
100
AcDbSymbolTableRecord
100
AcDbLayerTableRecord
  2
Layer 1
 70
     0
 62
     7
  6
Continuous
370
    -3
390
F
347
3E
  0
ENDTAB
  0
TABLE
  2
STYLE
  5
3
330
0
100
AcDbSymbolTable
 70
     1
  0
STYLE
  5
11
330
3
100
AcDbSymbolTableRecord
100
AcDbTextStyleTableRecord
  2
Standard
 70
     0
 40
0.0
 41
1.0
 50
0.0
 71
     0
 42
0.2
  3
txt
  4

  0
ENDTAB
  0
TABLE
  2
VIEW
  5
6
330
0
100
AcDbSymbolTable
 70
     0
  0
ENDTAB
  0
TABLE
  2
UCS
  5
7
330
0
100
AcDbSymbolTable
 70
     0
  0
ENDTAB
  0
TABLE
  2
APPID
  5
9
330
0
100
AcDbSymbolTable
 70
     1
  0
APPID
  5
12
330
9
100
AcDbSymbolTableRecord
100
AcDbRegAppTableRecord
  2
ACAD
 70
     0
  0
ENDTAB
  0
TABLE
  2
DIMSTYLE
  5
A
330
0
100
AcDbSymbolTable
 70
     1
100
AcDbDimStyleTable
  0
DIMSTYLE
105
27
330
A
100
AcDbSymbolTableRecord
100
AcDbDimStyleTableRecord
  2
Standard
 70
     0
178
     0
340
11
  0
ENDTAB
  0
TABLE
  2
BLOCK_RECORD
  5
1
330
0
100
AcDbSymbolTable
 70
     1
  0
BLOCK_RECORD
  5
1F
330
1
100
AcDbSymbolTableRecord
100
AcDbBlockTableRecord
  2
*Model_Space
340
22
 70
     0
280
     1
281
     0
  0
BLOCK_RECORD
  5
1B
330
1
100
AcDbSymbolTableRecord
100
AcDbBlockTableRecord
  2
*Paper_Space
340
1E
 70
     0
280
     1
281
     0
  0
BLOCK_RECORD
  5
23
330
1
100
AcDbSymbolTableRecord
100
AcDbBlockTableRecord
  2
*Paper_Space0
340
26
 70
     0
280
     1
281
     0
  0
ENDTAB
  0
ENDSEC
  0
SECTION
  2
BLOCKS
  0
BLOCK
  5
20
330
1F
100
AcDbEntity
  8
0
100
AcDbBlockBegin
  2
*Model_Space
 70
     0
 10
0.0
 20
0.0
 30
0.0
  3
*Model_Space
  1

  0
ENDBLK
  5
21
330
1F
100
AcDbEntity
  8
0
100
AcDbBlockEnd
  0
BLOCK
  5
1C
330
1B
100
AcDbEntity
 67
     1
  8
0
100
AcDbBlockBegin
  2
*Paper_Space
 70
     0
 10
0.0
 20
0.0
 30
0.0
  3
*Paper_Space
  1

  0
ENDBLK
  5
1D
330
1B
100
AcDbEntity
 67
     1
  8
0
100
AcDbBlockEnd
  0
BLOCK
  5
24
330
23
100
AcDbEntity
  8
0
100
AcDbBlockBegin
  2
*Paper_Space0
 70
     0
 10
0.0
 20
0.0
 30
0.0
  3
*Paper_Space0
  1

  0
ENDBLK
  5
25
330
23
100
AcDbEntity
  8
0
100
AcDbBlockEnd
  0
ENDSEC
  0
SECTION
  2
ENTITIES
  0
SPLINE
  5
41
330
1F
100
AcDbEntity
  8
Layer 1
 62
     1
420
 15597568
370
    18
100
AcDbSpline
210
0.0
220
0.0
230
1.0
 70
    11
 71
     3
 72
   620
 73
   616
 74
     0
 42
0.0000000001
 43
0.0000000001
 12
1.0
 22
0.0
 32
0.0
 13
1.0
 23
0.0
 33
0.0
 40
0.0
 40
0.0
 40
0.0
 40
0.0
 40
1.0
 40
1.0
 40
1.0
 40
2.0
 40
2.0
 40
2.0
 40
3.0
 40
3.0
 40
3.0
 40
4.0
 40
4.0
 40
4.0
 40
5.0
 40
5.0
 40
5.0
 40
6.0
 40
6.0
 40
6.0
 40
7.0
 40
7.0
 40
7.0
 40
8.0
 40
8.0
 40
8.0
 40
9.0
 40
9.0
 40
9.0
 40
10.0
 40
10.0
 40
10.0
 40
11.0
 40
11.0
 40
11.0
 40
12.0
 40
12.0
 40
12.0
 40
13.0
 40
13.0
 40
13.0
 40
14.0
 40
14.0
 40
14.0
 40
15.0
 40
15.0
 40
15.0
 40
16.0
 40
16.0
 40
16.0
 40
17.0
 40
17.0
 40
17.0
 40
18.0
 40
18.0
 40
18.0
 40
19.0
 40
19.0
 40
19.0
 40
20.0
 40
20.0
 40
20.0
 40
21.0
 40
21.0
 40
21.0
 40
22.0
 40
22.0
 40
22.0
 40
23.0
 40
23.0
 40
23.0
 40
24.0
 40
24.0
 40
24.0
 40
25.0
 40
25.0
 40
25.0
 40
26.0
 40
26.0
 40
26.0
 40
27.0
 40
27.0
 40
27.0
 40
28.0
 40
28.0
 40
28.0
 40
29.0
 40
29.0
 40
29.0
 40
30.0
 40
30.0
 40
30.0
 40
31.0
 40
31.0
 40
31.0
 40
32.0
 40
32.0
 40
32.0
 40
33.0
 40
33.0
 40
33.0
 40
34.0
 40
34.0
 40
34.0
 40
35.0
 40
35.0
 40
35.0
 40
36.0
 40
36.0
 40
36.0
 40
37.0
 40
37.0
 40
37.0
 40
38.0
 40
38.0
 40
38.0
 40
39.0
 40
39.0
 40
39.0
 40
40.0
 40
40.0
 40
40.0
 40
41.0
 40
41.0
 40
41.0
 40
42.0
 40
42.0
 40
42.0
 40
43.0
 40
43.0
 40
43.0
 40
44.0
 40
44.0
 40
44.0
 40
45.0
 40
45.0
 40
45.0
 40
46.0
 40
46.0
 40
46.0
 40
47.0
 40
47.0
 40
47.0
 40
48.0
 40
48.0
 40
48.0
 40
49.0
 40
49.0
 40
49.0
 40
50.0
 40
50.0
 40
50.0
 40
51.0
 40
51.0
 40
51.0
 40
52.0
 40
52.0
 40
52.0
 40
53.0
 40
53.0
 40
53.0
 40
54.0
 40
54.0
 40
54.0
 40
55.0
 40
55.0
 40
55.0
 40
56.0
 40
56.0
 40
56.0
 40
57.0
 40
57.0
 40
57.0
 40
58.0
 40
58.0
 40
58.0
 40
59.0
 40
59.0
 40
59.0
 40
60.0
 40
60.0
 40
60.0
 40
61.0
 40
61.0
 40
61.0
 40
62.0
 40
62.0
 40
62.0
 40
63.0
 40
63.0
 40
63.0
 40
64.0
 40
64.0
 40
64.0
 40
65.0
 40
65.0
 40
65.0
 40
66.0
 40
66.0
 40
66.0
 40
67.0
 40
67.0
 40
67.0
 40
68.0
 40
68.0
 40
68.0
 40
69.0
 40
69.0
 40
69.0
 40
70.0
 40
70.0
 40
70.0
 40
71.0
 40
71.0
 40
71.0
 40
72.0
 40
72.0
 40
72.0
 40
73.0
 40
73.0
 40
73.0
 40
74.0
 40
74.0
 40
74.0
 40
75.0
 40
75.0
 40
75.0
 40
76.0
 40
76.0
 40
76.0
 40
77.0
 40
77.0
 40
77.0
 40
78.0
 40
78.0
 40
78.0
 40
79.0
 40
79.0
 40
79.0
 40
80.0
 40
80.0
 40
80.0
 40
81.0
 40
81.0
 40
81.0
 40
82.0
 40
82.0
 40
82.0
 40
83.0
 40
83.0
 40
83.0
 40
84.0
 40
84.0
 40
84.0
 40
85.0
 40
85.0
 40
85.0
 40
86.0
 40
86.0
 40
86.0
 40
87.0
 40
87.0
 40
87.0
 40
88.0
 40
88.0
 40
88.0
 40
89.0
 40
89.0
 40
89.0
 40
90.0
 40
90.0
 40
90.0
 40
91.0
 40
91.0
 40
91.0
 40
92.0
 40
92.0
 40
92.0
 40
93.0
 40
93.0
 40
93.0
 40
94.0
 40
94.0
 40
94.0
 40
95.0
 40
95.0
 40
95.0
 40
96.0
 40
96.0
 40
96.0
 40
97.0
 40
97.0
 40
97.0
 40
98.0
 40
98.0
 40
98.0
 40
99.0
 40
99.0
 40
99.0
 40
100.0
 40
100.0
 40
100.0
 40
101.0
 40
101.0
 40
101.0
 40
102.0
 40
102.0
 40
102.0
 40
103.0
 40
103.0
 40
103.0
 40
104.0
 40
104.0
 40
104.0
 40
105.0
 40
105.0
 40
105.0
 40
106.0
 40
106.0
 40
106.0
 40
107.0
 40
107.0
 40
107.0
 40
108.0
 40
108.0
 40
108.0
 40
109.0
 40
109.0
 40
109.0
 40
110.0
 40
110.0
 40
110.0
 40
111.0
 40
111.0
 40
111.0
 40
112.0
 40
112.0
 40
112.0
 40
113.0
 40
113.0
 40
113.0
 40
114.0
 40
114.0
 40
114.0
 40
115.0
 40
115.0
 40
115.0
 40
116.0
 40
116.0
 40
116.0
 40
117.0
 40
117.0
 40
117.0
 40
118.0
 40
118.0
 40
118.0
 40
119.0
 40
119.0
 40
119.0
 40
120.0
 40
120.0
 40
120.0
 40
121.0
 40
121.0
 40
121.0
 40
122.0
 40
122.0
 40
122.0
 40
123.0
 40
123.0
 40
123.0
 40
124.0
 40
124.0
 40
124.0
 40
125.0
 40
125.0
 40
125.0
 40
126.0
 40
126.0
 40
126.0
 40
127.0
 40
127.0
 40
127.0
 40
128.0
 40
128.0
 40
128.0
 40
129.0
 40
129.0
 40
129.0
 40
130.0
 40
130.0
 40
130.0
 40
131.0
 40
131.0
 40
131.0
 40
132.0
 40
132.0
 40
132.0
 40
133.0
 40
133.0
 40
133.0
 40
134.0
 40
134.0
 40
134.0
 40
135.0
 40
135.0
 40
135.0
 40
136.0
 40
136.0
 40
136.0
 40
137.0
 40
137.0
 40
137.0
 40
138.0
 40
138.0
 40
138.0
 40
139.0
 40
139.0
 40
139.0
 40
140.0
 40
140.0
 40
140.0
 40
141.0
 40
141.0
 40
141.0
 40
142.0
 40
142.0
 40
142.0
 40
143.0
 40
143.0
 40
143.0
 40
144.0
 40
144.0
 40
144.0
 40
145.0
 40
145.0
 40
145.0
 40
146.0
 40
146.0
 40
146.0
 40
147.0
 40
147.0
 40
147.0
 40
148.0
 40
148.0
 40
148.0
 40
149.0
 40
149.0
 40
149.0
 40
150.0
 40
150.0
 40
150.0
 40
151.0
 40
151.0
 40
151.0
 40
152.0
 40
152.0
 40
152.0
 40
153.0
 40
153.0
 40
153.0
 40
154.0
 40
154.0
 40
154.0
 40
155.0
 40
155.0
 40
155.0
 40
156.0
 40
156.0
 40
156.0
 40
157.0
 40
157.0
 40
157.0
 40
158.0
 40
158.0
 40
158.0
 40
159.0
 40
159.0
 40
159.0
 40
160.0
 40
160.0
 40
160.0
 40
161.0
 40
161.0
 40
161.0
 40
162.0
 40
162.0
 40
162.0
 40
163.0
 40
163.0
 40
163.0
 40
164.0
 40
164.0
 40
164.0
 40
165.0
 40
165.0
 40
165.0
 40
166.0
 40
166.0
 40
166.0
 40
167.0
 40
167.0
 40
167.0
 40
168.0
 40
168.0
 40
168.0
 40
169.0
 40
169.0
 40
169.0
 40
170.0
 40
170.0
 40
170.0
 40
171.0
 40
171.0
 40
171.0
 40
172.0
 40
172.0
 40
172.0
 40
173.0
 40
173.0
 40
173.0
 40
174.0
 40
174.0
 40
174.0
 40
175.0
 40
175.0
 40
175.0
 40
176.0
 40
176.0
 40
176.0
 40
177.0
 40
177.0
 40
177.0
 40
178.0
 40
178.0
 40
178.0
 40
179.0
 40
179.0
 40
179.0
 40
180.0
 40
180.0
 40
180.0
 40
181.0
 40
181.0
 40
181.0
 40
182.0
 40
182.0
 40
182.0
 40
183.0
 40
183.0
 40
183.0
 40
184.0
 40
184.0
 40
184.0
 40
185.0
 40
185.0
 40
185.0
 40
186.0
 40
186.0
 40
186.0
 40
187.0
 40
187.0
 40
187.0
 40
188.0
 40
188.0
 40
188.0
 40
189.0
 40
189.0
 40
189.0
 40
190.0
 40
190.0
 40
190.0
 40
191.0
 40
191.0
 40
191.0
 40
192.0
 40
192.0
 40
192.0
 40
193.0
 40
193.0
 40
193.0
 40
194.0
 40
194.0
 40
194.0
 40
195.0
 40
195.0
 40
195.0
 40
196.0
 40
196.0
 40
196.0
 40
197.0
 40
197.0
 40
197.0
 40
198.0
 40
198.0
 40
198.0
 40
199.0
 40
199.0
 40
199.0
 40
200.0
 40
200.0
 40
200.0
 40
201.0
 40
201.0
 40
201.0
 40
202.0
 40
202.0
 40
202.0
 40
203.0
 40
203.0
 40
203.0
 40
204.0
 40
204.0
 40
204.0
 40
205.0
 40
205.0
 40
205.0
 40
205.0
 10
158.9201358825061
 20
-192.0980716755681
 30
0.0
 10
158.4212085709879
 20
-191.5232083272819
 30
0.0
 10
157.7043162106213
 20
-191.1822593055346
 30
0.0
 10
156.9498111359462
 20
-191.081668929901
 30
0.0
 10
156.9498111359462
 20
-191.081668929901
 30
0.0
 10
156.5796569767455
 20
-191.0323200955938
 30
0.0
 10
156.5796569767455
 20
-191.0323200955938
 30
0.0
 10
156.3167249803737
 20
-190.997266085796
 30
0.0
 10
156.0784827377588
 20
-190.8592108121217
 30
0.0
 10
155.9173289410837
 20
-190.6485179737609
 30
0.0
 10
155.9173289410837
 20
-190.6485179737609
 30
0.0
 10
154.1811395050542
 20
-188.3786199772228
 30
0.0
 10
154.1811395050542
 20
-188.3786199772228
 30
0.0
 10
154.0200552877449
 20
-188.1680181070842
 30
0.0
 10
153.9492434638495
 20
-187.9020450708563
 30
0.0
 10
153.98428586431
 20
-187.6392270673952
 30
0.0
 10
153.98428586431
 20
-187.6392270673952
 30
0.0
 10
154.0476756212386
 20
-187.1638038904307
 30
0.0
 10
154.0476756212386
 20
-187.1638038904307
 30
0.0
 10
154.2660946750034
 20
-185.5239384394518
 30
0.0
 10
153.1095761206051
 20
-184.0122305405241
 30
0.0
 10
151.4700551791746
 20
-183.7941559963078
 30
0.0
 10
151.4700551791746
 20
-183.7941559963078
 30
0.0
 10
150.2263357945748
 20
-183.6283671124231
 30
0.0
 10
150.2263357945748
 20
-183.6283671124231
 30
0.0
 10
148.7123896398479
 20
-183.4265567632655
 30
0.0
 10
147.255337481999
 20
-182.9188068506638
 30
0.0
 10
145.9438496255223
 20
-182.136016981819
 30
0.0
 10
145.9438496255223
 20
-182.136016981819
 30
0.0
 10
145.4982062674763
 20
-181.8700251130577
 30
0.0
 10
145.4982062674763
 20
-181.8700251130577
 30
0.0
 10
144.2708332140005
 20
-181.1374409821309
 30
0.0
 10
143.1941926462078
 20
-180.1778304420883
 30
0.0
 10
142.3258144708707
 20
-179.0424699416841
 30
0.0
 10
142.3258144708707
 20
-179.0424699416841
 30
0.0
 10
124.6964569619944
 20
-155.9929775297527
 30
0.0
 10
124.6964569619944
 20
-155.9929775297527
 30
0.0
 10
124.0269604163008
 20
-155.1176446912174
 30
0.0
 10
123.6654023680313
 20
-154.0456507026678
 30
0.0
 10
123.6679881817177
 20
-152.9436404865272
 30
0.0
 10
123.6679881817177
 20
-152.9436404865272
 30
0.0
 10
123.6693630033479
 20
-152.3577253105565
 30
0.0
 10
123.6693630033479
 20
-152.3577253105565
 30
0.0
 10
123.6709983645849
 20
-151.6607745599004
 30
0.0
 10
124.0196535857295
 20
-150.9877290372346
 30
0.0
 10
124.6311307558693
 20
-150.6533061109225
 30
0.0
 10
125.2518544927512
 20
-150.3138261455966
 30
0.0
 10
125.6728356760753
 20
-149.6547924922624
 30
0.0
 10
125.6728356760753
 20
-148.8974273198662
 30
0.0
 10
125.6728356760753
 20
-148.8974273198662
 30
0.0
 10
125.6728356760753
 20
-145.8974310505413
 30
0.0
 10
125.6728356760753
 20
-145.8974310505413
 30
0.0
 10
125.6728356760753
 20
-144.7928615511579
 30
0.0
 10
126.5682661761908
 20
-143.8974310510418
 30
0.0
 10
127.6728356755742
 20
-143.8974310510418
 30
0.0
 10
127.6728356755742
 20
-143.8974310510418
 30
0.0
 10
128.6676517561039
 20
-143.8974310510418
 30
0.0
 10
128.6676517561039
 20
-143.8974310510418
 30
0.0
 10
130.3245000125109
 20
-143.8974310510418
 30
0.0
 10
131.6676409046595
 20
-142.5542901588906
 30
0.0
 10
131.6676409046595
 20
-140.8974419024862
 30
0.0
 10
131.6676409046595
 20
-140.8974419024862
 30
0.0
 10
131.6676409046595
 20
-138.897434782218
 30
0.0
 10
131.6676409046595
 20
-138.897434782218
 30
0.0
 10
131.6676409046595
 20
-137.2405746341024
 30
0.0
 10
130.324490372374
 20
-135.8974241018156
 30
0.0
 10
128.6676302242559
 20
-135.8974241018156
 30
0.0
 10
128.6676302242559
 20
-135.8974241018156
 30
0.0
 10
127.6728356755742
 20
-135.8974241018156
 30
0.0
 10
127.6728356755742
 20
-135.8974241018156
 30
0.0
 10
126.5682661761908
 20
-135.8974241018156
 30
0.0
 10
125.6728356760753
 20
-135.0019936017008
 30
0.0
 10
125.6728356760753
 20
-133.8974241023148
 30
0.0
 10
125.6728356760753
 20
-133.8974241023148
 30
0.0
 10
125.6728356760753
 20
-130.8974278329918
 30
0.0
 10
125.6728356760753
 20
-130.8974278329918
 30
0.0
 10
125.6728356760753
 20
-130.1400780830761
 30
0.0
 10
125.251855225404
 20
-129.4810495584496
 30
0.0
 10
124.6311323758668
 20
-129.1415707929675
 30
0.0
 10
124.0196544597294
 20
-128.807148162571
 30
0.0
 10
123.6709972970512
 20
-128.1341035225147
 30
0.0
 10
123.6693609561926
 20
-127.4371522616399
 30
0.0
 10
123.6693609561926
 20
-127.4371522616399
 30
0.0
 10
123.6679909969483
 20
-126.8536584146686
 30
0.0
 10
123.6679909969483
 20
-126.8536584146686
 30
0.0
 10
123.665403372538
 20
-125.751535904569
 30
0.0
 10
124.0270337759247
 20
-124.6794385172435
 30
0.0
 10
124.6966547307084
 20
-123.804059456504
 30
0.0
 10
124.6966547307084
 20
-123.804059456504
 30
0.0
 10
142.3407530351078
 20
-100.7383622274805
 30
0.0
 10
142.3407530351078
 20
-100.7383622274805
 30
0.0
 10
143.2092751512392
 20
-99.6029645538957
 30
0.0
 10
144.2860817991996
 20
-98.64335983659036
 30
0.0
 10
145.5136249475254
 20
-97.91083245663594
 30
0.0
 10
145.5136249475254
 20
-97.91083245663594
 30
0.0
 10
145.9436847614987
 20
-97.65419741355635
 30
0.0
 10
145.9436847614987
 20
-97.65419741355635
 30
0.0
 10
147.2550205113562
 20
-96.871667412557
 30
0.0
 10
148.7118465694715
 20
-96.36409478249095
 30
0.0
 10
150.2255363914839
 20
-96.16235788935101
 30
0.0
 10
150.2255363914839
 20
-96.16235788935101
 30
0.0
 10
151.4693661600776
 20
-95.99658657381309
 30
0.0
 10
151.4693661600776
 20
-95.99658657381309
 30
0.0
 10
153.1092316110565
 20
-95.77851202959677
 30
0.0
 10
154.2657501654549
 20
-94.26680413066914
 30
0.0
 10
154.0473311116901
 20
-92.62693867969023
 30
0.0
 10
154.0473311116901
 20
-92.62693867969023
 30
0.0
 10
153.9839413547614
 20
-92.1522045218228
 30
0.0
 10
153.9839413547614
 20
-92.1522045218228
 30
0.0
 10
153.9488925216139
 20
-91.88971923880342
 30
0.0
 10
154.0195822732537
 20
-91.62406400456766
 30
0.0
 10
154.1804512377268
 20
-91.4137116316904
 30
0.0
 10
154.1804512377268
 20
-91.4137116316904
 30
0.0
 10
155.9173289410837
 20
-89.14256910590854
 30
0.0
 10
155.9173289410837
 20
-89.14256910590854
 30
0.0
 10
156.0783891243761
 20
-88.93196669516934
 30
0.0
 10
156.3164950055916
 20
-88.7939484952415
 30
0.0
 10
156.5792927530506
 20
-88.75886143233888
 30
0.0
 10
156.5792927530506
 20
-88.75886143233888
 30
0.0
 10
156.9511007746965
 20
-88.70922001961937
 30
0.0
 10
156.9511007746965
 20
-88.70922001961937
 30
0.0
 10
157.7046852253945
 20
-88.60860627661634
 30
0.0
 10
158.42079781541
 20
-88.26827017393278
 30
0.0
 10
158.9193468757026
 20
-87.69428281858585
 30
0.0
 10
159.4925879435711
 20
-87.03430138299692
 30
0.0
 10
159.746391294256
 20
-86.18401364862257
 30
0.0
 10
159.6321754028286
 20
-85.32609232734876
 30
0.0
 10
159.6321754028286
 20
-85.32609232734876
 30
0.0
 10
159.3683095330458
 20
-83.34330910740755
 30
0.0
 10
159.3683095330458
 20
-83.34330910740755
 30
0.0
 10
159.1497260644461
 20
-81.7007941658203
 30
0.0
 10
157.6407280380858
 20
-80.5466687149083
 30
0.0
 10
155.998288684987
 20
-80.76581943352356
 30
0.0
 10
155.998288684987
 20
-80.76581943352356
 30
0.0
 10
155.5245243958188
 20
-80.82903381293421
 30
0.0
 10
155.5245243958188
 20
-80.82903381293421
 30
0.0
 10
155.2611491047405
 20
-80.86417598375262
 30
0.0
 10
154.9946027635151
 20
-80.793228296952
 30
0.0
 10
154.7835480168912
 20
-80.63180521914862
 30
0.0
 10
154.7835480168912
 20
-80.63180521914862
 30
0.0
 10
152.5128045562879
 20
-78.89505016305152
 30
0.0
 10
152.5128045562879
 20
-78.89505016305152
 30
0.0
 10
152.3025541871719
 20
-78.73424230521006
 30
0.0
 10
152.1648824645829
 20
-78.49642499516833
 30
0.0
 10
152.1301354741485
 20
-78.23401876141537
 30
0.0
 10
152.1301354741485
 20
-78.23401876141537
 30
0.0
 10
152.0670902267684
 20
-77.75790656535192
 30
0.0
 10
152.0670902267684
 20
-77.75790656535192
 30
0.0
 10
151.8483266634551
 20
-76.11838562392153
 30
0.0
 10
150.3338626881392
 20
-74.96083354087757
 30
0.0
 10
148.6974423326456
 20
-75.18063063283653
 30
0.0
 10
148.6974423326456
 20
-75.18063063283653
 30
0.0
 10
146.7147898808843
 20
-75.44486945655518
 30
0.0
 10
146.7147898808843
 20
-75.44486945655518
 30
0.0
 10
145.0720448967605
 20
-75.66380697224992
 30
0.0
 10
143.9179633520855
 20
-77.17319888454254
 30
0.0
 10
144.137306687286
 20
-78.81588973188636
 30
0.0
 10
144.137306687286
 20
-78.81588973188636
 30
0.0
 10
144.200559195749
 20
-79.28959601809592
 30
0.0
 10
144.200559195749
 20
-79.28959601809592
 30
0.0
 10
144.2356069934085
 20
-79.5520735462209
 30
0.0
 10
144.1649224696742
 20
-79.81772117646487
 30
0.0
 10
144.0040629972312
 20
-80.02807095900909
 30
0.0
 10
144.0040629972312
 20
-80.02807095900909
 30
0.0
 10
142.2675161189753
 20
-82.29888692445974
 30
0.0
 10
142.2675161189753
 20
-82.29888692445974
 30
0.0
 10
142.1064897919032
 20
-82.50945489642237
 30
0.0
 10
141.8684279875964
 20
-82.64745109230854
 30
0.0
 10
141.6056777331073
 20
-82.68253175067392
 30
0.0
 10
141.6056777331073
 20
-82.68253175067392
 30
0.0
 10
141.233650063148
 20
-82.73220239939576
 30
0.0
 10
141.233650063148
 20
-82.73220239939576
 30
0.0
 10
140.4798001422657
 20
-82.8328514038454
 30
0.0
 10
139.7634492803746
 20
-83.17335822514117
 30
0.0
 10
139.2647941228572
 20
-83.74760813519066
 30
0.0
 10
138.6914378656815
 20
-84.40788362647291
 30
0.0
 10
138.4377671149771
 20
-85.2583826756181
 30
0.0
 10
138.5523251476818
 20
-86.11570821256802
 30
0.0
 10
138.5523251476818
 20
-86.11570821256802
 30
0.0
 10
138.7177310497883
 20
-87.35836996430874
 30
0.0
 10
138.7177310497883
 20
-87.35836996430874
 30
0.0
 10
138.9192928508974
 20
-88.87266381755792
 30
0.0
 10
138.8105626987473
 20
-90.41213792500326
 30
0.0
 10
138.3981601182583
 20
-91.88306863216084
 30
0.0
 10
138.3981601182583
 20
-91.88306863216084
 30
0.0
 10
138.2452085373362
 20
-92.4286063851365
 30
0.0
 10
138.2452085373362
 20
-92.4286063851365
 30
0.0
 10
137.8594318096896
 20
-93.80456973174398
 30
0.0
 10
137.2152243542337
 20
-95.0945084216575
 30
0.0
 10
136.3469922007491
 20
-96.22952901286122
 30
0.0
 10
136.3469922007491
 20
-96.22952901286122
 30
0.0
 10
117.9261030687152
 20
-120.3107478311529
 30
0.0
 10
117.9261030687152
 20
-120.3107478311529
 30
0.0
 10
116.9800637516531
 20
-121.5474839974479
 30
0.0
 10
115.5118613970464
 20
-122.2728896678303
 30
0.0
 10
113.9547786328854
 20
-122.2728896678303
 30
0.0
 10
113.9547786328854
 20
-122.2728896678303
 30
0.0
 10
113.664646795614
 20
-122.2728896678303
 30
0.0
 10
113.664646795614
 20
-122.2728896678303
 30
0.0
 10
112.560077296228
 20
-122.2728896678303
 30
0.0
 10
111.6646467961158
 20
-121.3774591677154
 30
0.0
 10
111.6646467961158
 20
-120.2728896683307
 30
0.0
 10
111.6646467961158
 20
-120.2728896683307
 30
0.0
 10
111.6646467961158
 20
-119.3482243446204
 30
0.0
 10
111.6646467961158
 20
-119.3482243446204
 30
0.0
 10
111.6646467961158
 20
-117.6913760882151
 30
0.0
 10
110.3215059039626
 20
-116.3482351960648
 30
0.0
 10
108.6646576475602
 20
-116.3482351960648
 30
0.0
 10
108.6646576475602
 20
-116.3482351960648
 30
0.0
 10
106.6646935909836
 20
-116.3482351960648
 30
0.0
 10
106.6646935909836
 20
-116.3482351960648
 30
0.0
 10
105.0078453345767
 20
-116.3482351960648
 30
0.0
 10
103.6647044424281
 20
-117.6913760882151
 30
0.0
 10
103.6647044424281
 20
-119.3482243446204
 30
0.0
 10
103.6647044424281
 20
-119.3482243446204
 30
0.0
 10
103.6647044424281
 20
-120.2728896683307
 30
0.0
 10
103.6647044424281
 20
-120.2728896683307
 30
0.0
 10
103.6647044424281
 20
-121.3774591677154
 30
0.0
 10
102.7692739423119
 20
-122.2728896678303
 30
0.0
 10
101.6647044429292
 20
-122.2728896678303
 30
0.0
 10
101.6647044429292
 20
-122.2728896678303
 30
0.0
 10
101.3762336153596
 20
-122.2728896678303
 30
0.0
 10
101.3762336153596
 20
-122.2728896678303
 30
0.0
 10
99.81903961808287
 20
-122.2728896678303
 30
0.0
 10
98.35074555197141
 20
-121.5473808798492
 30
0.0
 10
97.40471692989674
 20
-120.3104964910019
 30
0.0
 10
97.40471692989674
 20
-120.3104964910019
 30
0.0
 10
79.031205638332
 20
-96.2880633905714
 30
0.0
 10
79.031205638332
 20
-96.2880633905714
 30
0.0
 10
78.18382188825291
 20
-95.1801521631739
 30
0.0
 10
77.54969546691814
 20
-93.9244208727017
 30
0.0
 10
77.16111955714307
 20
-92.58481821891506
 30
0.0
 10
77.16111955714307
 20
-92.58481821891506
 30
0.0
 10
76.96867920144946
 20
-91.92138642940121
 30
0.0
 10
76.96867920144946
 20
-91.92138642940121
 30
0.0
 10
76.53346809188615
 20
-90.42101045996333
 30
0.0
 10
76.41527844535433
 20
-88.84647926804872
 30
0.0
 10
76.62162806459294
 20
-87.29794557639214
 30
0.0
 10
76.62162806459294
 20
-87.29794557639214
 30
0.0
 10
76.76524535141903
 20
-86.22018149728157
 30
0.0
 10
76.76524535141903
 20
-86.22018149728157
 30
0.0
 10
76.86565281254266
 20
-85.46668198987709
 30
0.0
 10
76.72472154752866
 20
-84.68654495034488
 30
0.0
 10
76.30133722564602
 20
-84.05520599075588
 30
0.0
 10
75.81432630489499
 20
-83.3289888114075
 30
0.0
 10
75.05985592821146
 20
-82.86099600194031
 30
0.0
 10
74.20207559779719
 20
-82.74674933754221
 30
0.0
 10
74.20207559779719
 20
-82.74674933754221
 30
0.0
 10
73.72647971938137
 20
-82.68333655375373
 30
0.0
 10
73.72647971938137
 20
-82.68333655375373
 30
0.0
 10
73.4638216904929
 20
-82.64831548323454
 30
0.0
 10
73.22582980915172
 20
-82.51039867225836
 30
0.0
 10
73.06484957811622
 20
-82.2999204531053
 30
0.0
 10
73.06484957811622
 20
-82.2999204531053
 30
0.0
 10
71.32817694400178
 20
-80.02925801877714
 30
0.0
 10
71.32817694400178
 20
-80.02925801877714
 30
0.0
 10
71.1669471456295
 20
-79.818453495651
 30
0.0
 10
71.09609828448772
 20
-79.5522178153758
 30
0.0
 10
71.13122692142997
 20
-79.28915969685382
 30
0.0
 10
71.13122692142997
 20
-79.28915969685382
 30
0.0
 10
71.18045480522336
 20
-78.92052044362194
 30
0.0
 10
71.18045480522336
 20
-78.92052044362194
 30
0.0
 10
71.28111411316495
 20
-78.16674089324991
 30
0.0
 10
71.14040156622735
 20
-77.38622970265989
 30
0.0
 10
70.71704557078455
 20
-76.7544974746096
 30
0.0
 10
70.23005413766523
 20
-76.02780838458217
 30
0.0
 10
69.47533687805812
 20
-75.55950394893257
 30
0.0
 10
68.61723130665868
 20
-75.44521396610371
 30
0.0
 10
68.61723130665868
 20
-75.44521396610371
 30
0.0
 10
66.6345788548974
 20
-75.18097514238504
 30
0.0
 10
66.6345788548974
 20
-75.18097514238504
 30
0.0
 10
64.99195732753027
 20
-74.95980001223201
 30
0.0
 10
63.48266099544232
 20
-76.11907464301858
 30
0.0
 10
63.26493096077454
 20
-77.75825107490044
 30
0.0
 10
63.26493096077454
 20
-77.75825107490044
 30
0.0
 10
63.20154120384593
 20
-78.2333297423164
 30
0.0
 10
63.20154120384593
 20
-78.2333297423164
 30
0.0
 10
63.16643754238858
 20
-78.49641642247151
 30
0.0
 10
63.02828751125277
 20
-78.73479240101088
 30
0.0
 10
62.81746767325136
 20
-78.89604333660235
 30
0.0
 10
62.81746767325136
 20
-78.89604333660235
 30
0.0
 10
60.54812866110651
 20
-80.63180521914734
 30
0.0
 10
60.54812866110651
 20
-80.63180521914734
 30
0.0
 10
60.33740733965816
 20
-80.79298080183982
 30
0.0
 10
60.07130832096473
 20
-80.8638852771315
 30
0.0
 10
59.8083267270075
 20
-80.82893209400072
 30
0.0
 10
59.8083267270075
 20
-80.82893209400072
 30
0.0
 10
59.4372725328269
 20
-80.77961485850231
 30
0.0
 10
59.4372725328269
 20
-80.77961485850231
 30
0.0
 10
58.68313315026716
 20
-80.67938133436536
 30
0.0
 10
57.90238206481276
 20
-80.82053780960516
 30
0.0
 10
57.27061752807668
 20
-81.24438511443785
 30
0.0
 10
56.54466136541784
 20
-81.73142505586783
 30
0.0
 10
56.07757239408951
 20
-82.48546764043117
 30
0.0
 10
55.96339558933602
 20
-83.34309536603895
 30
0.0
 10
55.96339558933602
 20
-83.34309536603895
 30
0.0
 10
55.71293060349488
 20
-85.22186312893717
 30
0.0
 10
55.71293060349488
 20
-85.22186312893717
 30
0.0
 10
55.61246691595062
 20
-85.97545324401213
 30
0.0
 10
55.75344218409787
 20
-86.75569037909735
 30
0.0
 10
56.1769194189012
 20
-87.38708411176967
 30
0.0
 10
56.66393897342982
 20
-88.11321781895832
 30
0.0
 10
57.41833669020705
 20
-88.5811565642945
 30
0.0
 10
58.27643269813277
 20
-88.69539571192311
 30
0.0
 10
58.27643269813277
 20
-88.69539571192311
 30
0.0
 10
58.75205087658035
 20
-88.75881146904943
 30
0.0
 10
58.75205087658035
 20
-88.75881146904943
 30
0.0
 10
59.01470235429723
 20
-88.79383166607857
 30
0.0
 10
59.25268724087761
 20
-88.93174800250806
 30
0.0
 10
59.41365871781374
 20
-89.14222459636001
 30
0.0
 10
59.41365871781374
 20
-89.14222459636001
 30
0.0
 10
61.14998684237965
 20
-91.41254252113966
 30
0.0
 10
61.14998684237965
 20
-91.41254252113966
 30
0.0
 10
61.31113096259647
 20
-91.62324485292983
 30
0.0
 10
61.38197710899004
 20
-91.88933008061893
 30
0.0
 10
61.34694090608774
 20
-92.15226612719322
 30
0.0
 10
61.34694090608774
 20
-92.15226612719322
 30
0.0
 10
61.29779483703079
 20
-92.52109242773192
 30
0.0
 10
61.29779483703079
 20
-92.52109242773192
 30
0.0
 10
61.19727553936458
 20
-93.27545918391078
 30
0.0
 10
61.3381405198793
 20
-94.05654844635069
 30
0.0
 10
61.76188745948176
 20
-94.68869705483549
 30
0.0
 10
62.24890356642261
 20
-95.41523104373711
 30
0.0
 10
63.00327823010024
 20
-95.88270121150289
 30
0.0
 10
63.86093247972276
 20
-95.99693108336162
 30
0.0
 10
63.86093247972276
 20
-95.99693108336162
 30
0.0
 10
65.13681715407772
 20
-96.16695809430101
 30
0.0
 10
65.13681715407772
 20
-96.16695809430101
 30
0.0
 10
66.63379643990167
 20
-96.3664486270441
 30
0.0
 10
68.07533842873471
 20
-96.86508381440422
 30
0.0
 10
69.3756340506104
 20
-97.63318195303131
 30
0.0
 10
69.3756340506104
 20
-97.63318195303131
 30
0.0
 10
69.7555028433299
 20
-97.85757439710409
 30
0.0
 10
69.7555028433299
 20
-97.85757439710409
 30
0.0
 10
71.00104871441542
 20
-98.59333128888868
 30
0.0
 10
72.09312280397181
 20
-99.56224216402157
 30
0.0
 10
72.9719797457921
 20
-100.7112996893843
 30
0.0
 10
72.9719797457921
 20
-100.7112996893843
 30
0.0
 10
90.63209767491237
 20
-123.8009408352782
 30
0.0
 10
90.63209767491237
 20
-123.8009408352782
 30
0.0
 10
91.30123729472272
 20
-124.6758043984743
 30
0.0
 10
91.66277815100864
 20
-125.7471332070693
 30
0.0
 10
91.66057455799664
 20
-126.8485546655437
 30
0.0
 10
91.66057455799664
 20
-126.8485546655437
 30
0.0
 10
91.65939766313987
 20
-127.4368017888938
 30
0.0
 10
91.65939766313987
 20
-127.4368017888938
 30
0.0
 10
91.65800281533141
 20
-128.1339882938708
 30
0.0
 10
91.30921204126268
 20
-128.8071340502526
 30
0.0
 10
90.6976396762094
 20
-129.1418730689269
 30
0.0
 10
90.0772466406633
 20
-129.4814400078176
 30
0.0
 10
89.6565155624685
 20
-130.1403024285977
 30
0.0
 10
89.6565155624685
 20
-130.8974278329918
 30
0.0
 10
89.6565155624685
 20
-130.8974278329918
 30
0.0
 10
89.6565155624685
 20
-133.8974241023148
 30
0.0
 10
89.6565155624685
 20
-133.8974241023148
 30
0.0
 10
89.6565155624685
 20
-135.0019936017008
 30
0.0
 10
88.76108506235236
 20
-135.8974241018156
 30
0.0
 10
87.65651556296574
 20
-135.8974241018156
 30
0.0
 10
87.65651556296574
 20
-135.8974241018156
 30
0.0
 10
86.6616994824354
 20
-135.8974241018156
 30
0.0
 10
86.6616994824354
 20
-135.8974241018156
 30
0.0
 10
85.00485122603232
 20
-135.8974241018156
 30
0.0
 10
83.66171033387984
 20
-137.2405649939655
 30
0.0
 10
83.66171033387984
 20
-138.8974132503712
 30
0.0
 10
83.66171033387984
 20
-138.8974132503712
 30
0.0
 10
83.66171033387984
 20
-140.8974419024862
 30
0.0
 10
83.66171033387984
 20
-140.8974419024862
 30
0.0
 10
83.66171033387984
 20
-142.5542901588906
 30
0.0
 10
85.00485122603232
 20
-143.8974310510418
 30
0.0
 10
86.6616994824354
 20
-143.8974310510418
 30
0.0
 10
86.6616994824354
 20
-143.8974310510418
 30
0.0
 10
87.65651556296574
 20
-143.8974310510418
 30
0.0
 10
87.65651556296574
 20
-143.8974310510418
 30
0.0
 10
88.76108506235236
 20
-143.8974310510418
 30
0.0
 10
89.6565155624685
 20
-144.7928615511579
 30
0.0
 10
89.6565155624685
 20
-145.8974310505413
 30
0.0
 10
89.6565155624685
 20
-145.8974310505413
 30
0.0
 10
89.6565155624685
 20
-148.8974273198662
 30
0.0
 10
89.6565155624685
 20
-148.8974273198662
 30
0.0
 10
89.6565155624685
 20
-149.6545697370597
 30
0.0
 10
90.0772491453924
 20
-150.313438468946
 30
0.0
 10
90.69764521528622
 20
-150.6530059821343
 30
0.0
 10
91.309215955177
 20
-150.9877430402114
 30
0.0
 10
91.6580037308075
 20
-151.6608887570029
 30
0.0
 10
91.65939940754865
 20
-152.3580728933891
 30
0.0
 10
91.65939940754865
 20
-152.3580728933891
 30
0.0
 10
91.66057216082977
 20
-152.9438997961427
 30
0.0
 10
91.66057216082977
 20
-152.9438997961427
 30
0.0
 10
91.66277729571301
 20
-154.0454335626012
 30
0.0
 10
91.30116385580855
 20
-155.116865691559
 30
0.0
 10
90.63189965892546
 20
-155.9917753646324
 30
0.0
 10
90.63189965892546
 20
-155.9917753646324
 30
0.0
 10
72.99192300769933
 20
-179.0520052062771
 30
0.0
 10
72.99192300769933
 20
-179.0520052062771
 30
0.0
 10
72.12347889643193
 20
-180.1872970043582
 30
0.0
 10
71.04678811002769
 20
-181.1468288052631
 30
0.0
 10
69.81938209143009
 20
-181.8793293900397
 30
0.0
 10
69.81938209143009
 20
-181.8793293900397
 30
0.0
 10
69.38935926117256
 20
-182.1359616452629
 30
0.0
 10
69.38935926117256
 20
-182.1359616452629
 30
0.0
 10
68.07758882205121
 20
-182.9188098627118
 30
0.0
 10
66.62022169344283
 20
-183.4265094545197
 30
0.0
 10
65.10597836153795
 20
-183.6281530715794
 30
0.0
 10
65.10597836153795
 20
-183.6281530715794
 30
0.0
 10
63.86363872130025
 20
-183.7935887405994
 30
0.0
 10
63.86363872130025
 20
-183.7935887405994
 30
0.0
 10
62.22120549921424
 20
-184.0123027139115
 30
0.0
 10
61.06668382919904
 20
-185.5205418716376
 30
0.0
 10
61.2843455663044
 20
-187.1631148713336
 30
0.0
 10
61.2843455663044
 20
-187.1631148713336
 30
0.0
 10
61.34739081368447
 20
-187.6388825578466
 30
0.0
 10
61.34739081368447
 20
-187.6388825578466
 30
0.0
 10
61.38221329946607
 20
-187.9016686390792
 30
0.0
 10
61.31130630550629
 20
-188.1675318040583
 30
0.0
 10
61.15024470206135
 20
-188.3780746498196
 30
0.0
 10
61.15024470206135
 20
-188.3780746498196
 30
0.0
 10
59.41365871781374
 20
-190.6481734642124
 30
0.0
 10
59.41365871781374
 20
-190.6481734642124
 30
0.0
 10
59.25272669683521
 20
-190.8585469172592
 30
0.0
 10
59.01485611174054
 20
-190.9964215165622
 30
0.0
 10
58.75231914688245
 20
-191.0314992474696
 30
0.0
 10
58.75231914688245
 20
-191.0314992474696
 30
0.0
 10
58.38076941273842
 20
-191.0811422438382
 30
0.0
 10
58.38076941273842
 20
-191.0811422438382
 30
0.0
 10
57.62704858128083
 20
-191.1818473636637
 30
0.0
 10
56.91080156789648
 20
-191.522237920357
 30
0.0
 10
56.41211951188898
 20
-192.0963048327833
 30
0.0
 10
55.83878387148767
 20
-192.7563105757301
 30
0.0
 10
55.58493195386487
 20
-193.6066343591224
 30
0.0
 10
55.69915676561737
 20
-194.4649947523207
 30
0.0
 10
55.69915676561737
 20
-194.4649947523207
 30
0.0
 10
55.96339558933602
 20
-196.4469581849849
 30
0.0
 10
55.96339558933602
 20
-196.4469581849849
 30
0.0
 10
56.18243572888889
 20
-198.0899020218179
 30
0.0
 10
57.69203518649957
 20
-199.2440878074223
 30
0.0
 10
59.33493484946117
 20
-199.024716589728
 30
0.0
 10
59.33493484946117
 20
-199.024716589728
 30
0.0
 10
59.80857712197496
 20
-198.9614726288104
 30
0.0
 10
59.80857712197496
 20
-198.9614726288104
 30
0.0
 10
60.07132793589991
 20
-198.9263883401586
 30
0.0
 10
60.33724982616556
 20
-198.9971763127103
 30
0.0
 10
60.54778415155798
 20
-199.1582483318765
 30
0.0
 10
60.54778415155798
 20
-199.1582483318765
 30
0.0
 10
62.81686707314562
 20
-200.8942396822665
 30
0.0
 10
62.81686707314562
 20
-200.8942396822665
 30
0.0
 10
63.02780813045959
 20
-201.0556228769711
 30
0.0
 10
63.16604462619794
 20
-201.2941544047623
 30
0.0
 10
63.20119669429741
 20
-201.5574128278045
 30
0.0
 10
63.20119669429741
 20
-201.5574128278045
 30
0.0
 10
63.26458645122601
 20
-202.0321469856719
 30
0.0
 10
63.26458645122601
 20
-202.0321469856719
 30
0.0
 10
63.46509100846755
 20
-203.5379982222746
 30
0.0
 10
64.75631279633919
 20
-204.6362946629723
 30
0.0
 10
66.23632581680252
 20
-204.6362946629723
 30
0.0
 10
66.36758395479053
 20
-204.6362946629723
 30
0.0
 10
66.50056464052118
 20
-204.6276819242592
 30
0.0
 10
66.63423434534887
 20
-204.6097674277359
 30
0.0
 10
66.63423434534887
 20
-204.6097674277359
 30
0.0
 10
68.51123422164707
 20
-204.3599209002929
 30
0.0
 10
68.51123422164707
 20
-204.3599209002929
 30
0.0
 10
69.26572517175236
 20
-204.259490982183
 30
0.0
 10
69.98267158759096
 20
-203.9187286883019
 30
0.0
 10
70.48169482980498
 20
-203.3439952144494
 30
0.0
 10
71.05504911968345
 20
-202.6836534209297
 30
0.0
 10
71.30872096373079
 20
-201.8335248308654
 30
0.0
 10
71.19416272962556
 20
-200.9765697289914
 30
0.0
 10
71.19416272962556
 20
-200.9765697289914
 30
0.0
 10
71.13111748224549
 20
-200.5001130233813
 30
0.0
 10
71.13111748224549
 20
-200.5001130233813
 30
0.0
 10
71.09633492162607
 20
-200.2372480980445
 30
0.0
 10
71.1672923096764
 20
-199.9713236471918
 30
0.0
 10
71.32840890409356
 20
-199.7607310582942
 30
0.0
 10
71.32840890409356
 20
-199.7607310582942
 30
0.0
 10
73.0645050685677
 20
-197.4915111361126
 30
0.0
 10
73.0645050685677
 20
-197.4915111361126
 30
0.0
 10
73.22554203258105
 20
-197.2810226306838
 30
0.0
 10
73.46358024848222
 20
-197.1431042647945
 30
0.0
 10
73.72628098601409
 20
-197.1080808840772
 30
0.0
 10
73.72628098601409
 20
-197.1080808840772
 30
0.0
 10
74.09672828780313
 20
-197.0586926828558
 30
0.0
 10
74.09672828780313
 20
-197.0586926828558
 30
0.0
 10
74.85059253362243
 20
-196.9581871618648
 30
0.0
 10
75.56705338708795
 20
-196.6179430660765
 30
0.0
 10
76.06593811688563
 20
-196.0438989151154
 30
0.0
 10
76.63959130277081
 20
-195.3838220749825
 30
0.0
 10
76.89360628650927
 20
-194.5332476076766
 30
0.0
 10
76.7793515303126
 20
-193.6750343575529
 30
0.0
 10
76.7793515303126
 20
-193.6750343575529
 30
0.0
 10
76.61379677089867
 20
-192.4315583685453
 30
0.0
 10
76.61379677089867
 20
-192.4315583685453
 30
0.0
 10
76.41208695995792
 20
-190.9165230560931
 30
0.0
 10
76.52097587750602
 20
-189.3762806667018
 30
0.0
 10
76.93382791606098
 20
-187.9046923954513
 30
0.0
 10
76.93382791606098
 20
-187.9046923954513
 30
0.0
 10
77.08586687279981
 20
-187.3627579380278
 30
0.0
 10
77.08586687279981
 20
-187.3627579380278
 30
0.0
 10
77.47170254840958
 20
-185.9874679991803
 30
0.0
 10
78.1157275105283
 20
-184.6981640600949
 30
0.0
 10
78.98357537483633
 20
-183.5636458059959
 30
0.0
 10
78.98357537483633
 20
-183.5636458059959
 30
0.0
 10
97.40316204353242
 20
-159.4841289136714
 30
0.0
 10
97.40316204353242
 20
-159.4841289136714
 30
0.0
 10
98.34920135804056
 20
-158.2473927119225
 30
0.0
 10
99.81740373458305
 20
-157.5219870168745
 30
0.0
 10
101.374486525354
 20
-157.5219870168745
 30
0.0
 10
101.374486525354
 20
-157.5219870168745
 30
0.0
 10
101.6647044429292
 20
-157.5219870168745
 30
0.0
 10
101.6647044429292
 20
-157.5219870168745
 30
0.0
 10
102.7692739423119
 20
-157.5219870168745
 30
0.0
 10
103.6647044424281
 20
-158.4174175169868
 30
0.0
 10
103.6647044424281
 20
-159.5219870163741
 30
0.0
 10
103.6647044424281
 20
-159.5219870163741
 30
0.0
 10
103.6647044424281
 20
-160.4466523400847
 30
0.0
 10
103.6647044424281
 20
-160.4466523400847
 30
0.0
 10
103.6647044424281
 20
-162.1035005964878
 30
0.0
 10
105.0078453345767
 20
-163.4466414886403
 30
0.0
 10
106.6646935909836
 20
-163.4466414886403
 30
0.0
 10
106.6646935909836
 20
-163.4466414886403
 30
0.0
 10
108.6646576475602
 20
-163.4466414886403
 30
0.0
 10
108.6646576475602
 20
-163.4466414886403
 30
0.0
 10
110.3215059039626
 20
-163.4466414886403
 30
0.0
 10
111.6646467961158
 20
-162.1035005964878
 30
0.0
 10
111.6646467961158
 20
-160.4466523400847
 30
0.0
 10
111.6646467961158
 20
-160.4466523400847
 30
0.0
 10
111.6646467961158
 20
-159.5219870163741
 30
0.0
 10
111.6646467961158
 20
-159.5219870163741
 30
0.0
 10
111.6646467961158
 20
-158.4174175169868
 30
0.0
 10
112.560077296228
 20
-157.5219870168745
 30
0.0
 10
113.664646795614
 20
-157.5219870168745
 30
0.0
 10
113.664646795614
 20
-157.5219870168745
 30
0.0
 10
113.9530317002154
 20
-157.5219870168745
 30
0.0
 10
113.9530317002154
 20
-157.5219870168745
 30
0.0
 10
115.510225581978
 20
-157.5219870168745
 30
0.0
 10
116.9785195528543
 20
-158.2474956977676
 30
0.0
 10
117.9245481860413
 20
-159.4843799326841
 30
0.0
 10
117.9245481860413
 20
-159.4843799326841
 30
0.0
 10
136.3527435356948
 20
-183.5783063810056
 30
0.0
 10
136.3527435356948
 20
-183.5783063810056
 30
0.0
 10
137.2208751046081
 20
-184.7133441734744
 30
0.0
 10
137.8649873242807
 20
-186.0032759670836
 30
0.0
 10
138.2506814950134
 20
-187.3792131814763
 30
0.0
 10
138.2506814950134
 20
-187.3792131814763
 30
0.0
 10
138.3984932090959
 20
-187.9065212238606
 30
0.0
 10
138.3984932090959
 20
-187.9065212238606
 30
0.0
 10
138.8108604665842
 20
-189.3776128260507
 30
0.0
 10
138.919493610045
 20
-190.9172439828432
 30
0.0
 10
138.7177777871293
 20
-192.4316639985163
 30
0.0
 10
138.7177777871293
 20
-192.4316639985163
 30
0.0
 10
138.5661895979396
 20
-193.5697412426676
 30
0.0
 10
138.5661895979396
 20
-193.5697412426676
 30
0.0
 10
138.4657483789629
 20
-194.3238228522331
 30
0.0
 10
138.6068409197003
 20
-195.1045472559962
 30
0.0
 10
139.0305935521518
 20
-195.7363393253057
 30
0.0
 10
139.5176282935489
 20
-196.4624815685161
 30
0.0
 10
140.2717726146206
 20
-196.9301378707099
 30
0.0
 10
141.1299455897458
 20
-197.0443377421272
 30
0.0
 10
141.1299455897458
 20
-197.0443377421272
 30
0.0
 10
141.6039907285162
 20
-197.1073829895073
 30
0.0
 10
141.6039907285162
 20
-197.1073829895073
 30
0.0
 10
141.8669773395723
 20
-197.1423586797846
 30
0.0
 10
142.1052866956975
 20
-197.2804064318555
 30
0.0
 10
142.2664611588286
 20
-197.4911386053343
 30
0.0
 10
142.2664611588286
 20
-197.4911386053343
 30
0.0
 10
144.0031552244442
 20
-199.7618290608923
 30
0.0
 10
144.0031552244442
 20
-199.7618290608923
 30
0.0
 10
144.1641120234709
 20
-199.972276643197
 30
0.0
 10
144.2349069497096
 20
-200.2380302379522
 30
0.0
 10
144.1999750219637
 20
-200.5006612271261
 30
0.0
 10
144.1999750219637
 20
-200.5006612271261
 30
0.0
 10
144.1506145158093
 20
-200.8717715377915
 30
0.0
 10
144.1506145158093
 20
-200.8717715377915
 30
0.0
 10
144.0503363328116
 20
-201.6256995370071
 30
0.0
 10
144.1914432786259
 20
-202.4062262179274
 30
0.0
 10
144.6150966492288
 20
-203.0378756171703
 30
0.0
 10
145.1021272269199
 20
-203.7640177728979
 30
0.0
 10
145.8563006371299
 20
-204.2316733438462
 30
0.0
 10
146.7141008617872
 20
-204.3458731135657
 30
0.0
 10
146.7141008617872
 20
-204.3458731135657
 30
0.0
 10
148.696408804
 20
-204.6097674277359
 30
0.0
 10
148.696408804
 20
-204.6097674277359
 30
0.0
 10
148.8311120374733
 20
-204.6276819242592
 30
0.0
 10
148.9658152709465
 20
-204.6366391725208
 30
0.0
 10
149.0994849757742
 20
-204.6366391725208
 30
0.0
 10
149.893384946355
 20
-204.6366391725208
 30
0.0
 10
150.6563385112989
 20
-204.3226092530644
 30
0.0
 10
151.2387378136323
 20
-203.7345559746029
 30
0.0
 10
151.7117755540212
 20
-203.2569259483317
 30
0.0
 10
151.9884114790186
 20
-202.6182862505732
 30
0.0
 10
152.0771867473359
 20
-201.9519424222389
 30
0.0
 10
152.0771867473359
 20
-201.9519424222389
 30
0.0
 10
152.1296956604834
 20
-201.5578124931116
 30
0.0
 10
152.1296956604834
 20
-201.5578124931116
 30
0.0
 10
152.1647365053346
 20
-201.2947972282933
 30
0.0
 10
152.3028212140455
 20
-201.0564731054617
 30
0.0
 10
152.5135746016568
 20
-200.8952654755395
 30
0.0
 10
152.5135746016568
 20
-200.8952654755395
 30
0.0
 10
154.7835480168879
 20
-199.1589373509736
 30
0.0
 10
154.7835480168879
 20
-199.1589373509736
 30
0.0
 10
154.9943063617149
 20
-198.9977259292197
 30
0.0
 10
155.2604878509977
 20
-198.9268708473704
 30
0.0
 10
155.5235018514386
 20
-198.9619683969922
 30
0.0
 10
155.5235018514386
 20
-198.9619683969922
 30
0.0
 10
155.894948310724
 20
-199.011535570278
 30
0.0
 10
155.894948310724
 20
-199.011535570278
 30
0.0
 10
156.649391852128
 20
-199.1122112741832
 30
0.0
 10
157.4304802051562
 20
-198.9704877419082
 30
0.0
 10
158.0621371760616
 20
-198.5458347946351
 30
0.0
 10
158.7872810397138
 20
-198.0583320944656
 30
0.0
 10
159.2538343769283
 20
-197.3047145598757
 30
0.0
 10
159.3679365791099
 20
-196.447647204082
 30
0.0
 10
159.3679365791099
 20
-196.447647204082
 30
0.0
 10
159.6321754028286
 20
-194.4656837714177
 30
0.0
 10
159.6321754028286
 20
-194.4656837714177
 30
0.0
 10
159.7467048172013
 20
-193.6082005586253
 30
0.0
 10
159.4931894034425
 20
-192.758343138343
 30
0.0
 10
158.9201358825061
 20
-192.0980716755681
 30
0.0
  0
SPLINE
  5
42
330
1F
100
AcDbEntity
  8
Layer 1
 62
     1
420
 15597568
370
    18
100
AcDbSpline
210
0.0
220
0.0
230
1.0
 70
    11
 71
     3
 72
    65
 73
    61
 74
     0
 42
0.0000000001
 43
0.0000000001
 12
1.0
 22
0.0
 32
0.0
 13
1.0
 23
0.0
 33
0.0
 40
0.0
 40
0.0
 40
0.0
 40
0.0
 40
1.0
 40
1.0
 40
1.0
 40
2.0
 40
2.0
 40
2.0
 40
3.0
 40
3.0
 40
3.0
 40
4.0
 40
4.0
 40
4.0
 40
5.0
 40
5.0
 40
5.0
 40
6.0
 40
6.0
 40
6.0
 40
7.0
 40
7.0
 40
7.0
 40
8.0
 40
8.0
 40
8.0
 40
9.0
 40
9.0
 40
9.0
 40
10.0
 40
10.0
 40
10.0
 40
11.0
 40
11.0
 40
11.0
 40
12.0
 40
12.0
 40
12.0
 40
13.0
 40
13.0
 40
13.0
 40
14.0
 40
14.0
 40
14.0
 40
15.0
 40
15.0
 40
15.0
 40
16.0
 40
16.0
 40
16.0
 40
17.0
 40
17.0
 40
17.0
 40
18.0
 40
18.0
 40
18.0
 40
19.0
 40
19.0
 40
19.0
 40
20.0
 40
20.0
 40
20.0
 40
20.0
 10
143.0183746799855
 20
-85.51576636565855
 30
0.0
 10
143.1341298882899
 20
-85.50043569074919
 30
0.0
 10
144.9923282656484
 20
-85.2540252361667
 30
0.0
 10
146.3722612622653
 20
-85.07106913405315
 30
0.0
 10
146.5562293611776
 20
-84.29928161797005
 30
0.0
 10
147.0619693784123
 20
-83.63892140898801
 30
0.0
 10
147.7591705772378
 20
-83.26019775592513
 30
0.0
 10
147.5665897396123
 20
-81.80845605028763
 30
0.0
 10
147.3221602149338
 20
-79.96459788288836
 30
0.0
 10
147.314408750092
 20
-79.90635423734085
 30
0.0
 10
147.2418033627423
 20
-79.35888550104109
 30
0.0
 10
147.626792783219
 20
-78.85620300604957
 30
0.0
 10
148.1743045832104
 20
-78.78359761869793
 30
0.0
 10
148.7218163832056
 20
-78.71101376319307
 30
0.0
 10
149.2244558145036
 20
-79.09598165182295
 30
0.0
 10
149.2970612018533
 20
-79.64347191996951
 30
0.0
 10
149.3048126666951
 20
-79.70167250182345
 30
0.0
 10
149.5492421913736
 20
-81.54555220106951
 30
0.0
 10
149.7417369016138
 20
-82.99731543855378
 30
0.0
 10
150.513524417695
 20
-83.18126200561935
 30
0.0
 10
151.1738630948322
 20
-83.68698049100725
 30
0.0
 10
151.5526513434354
 20
-84.38418168983468
 30
0.0
 10
153.1225813560638
 20
-84.17601179513845
 30
0.0
 10
154.8090417234788
 20
-83.95238203445217
 30
0.0
 10
154.9064517983261
 20
-83.93948445822927
 30
0.0
 10
155.4539635983176
 20
-83.86687907087763
 30
0.0
 10
155.9566030296155
 20
-84.25184695950752
 30
0.0
 10
156.0292084169691
 20
-84.79933722765406
 30
0.0
 10
156.1018138043188
 20
-85.34682749580061
 30
0.0
 10
155.7168243838421
 20
-85.84950999079213
 30
0.0
 10
155.1693125838507
 20
-85.92211537814377
 30
0.0
 10
155.0719025090033
 20
-85.93503448621345
 30
0.0
 10
153.3854421415884
 20
-86.15864271505295
 30
0.0
 10
151.81551212896
 20
-86.36681260974918
 30
0.0
 10
151.6315440300476
 20
-87.13860012583227
 30
0.0
 10
151.125804012813
 20
-87.79893880296753
 30
0.0
 10
150.4286028139836
 20
-88.17768398787719
 30
0.0
 10
150.6103316008305
 20
-89.54760467574
 30
0.0
 10
150.863976755934
 20
-91.46055853946532
 30
0.0
 10
150.8738814054522
 20
-91.53542477072916
 30
0.0
 10
150.9464867928057
 20
-92.08291503887571
 30
0.0
 10
150.5614973723291
 20
-92.58559753386723
 30
0.0
 10
150.0139855723338
 20
-92.65820292121886
 30
0.0
 10
149.4665598997276
 20
-92.73078677672372
 30
0.0
 10
148.9638343410444
 20
-92.34581888809383
 30
0.0
 10
148.8912289536909
 20
-91.7983070881005
 30
0.0
 10
148.8813243041727
 20
-91.72348392053023
 30
0.0
 10
148.6276791490693
 20
-89.81048699311135
 30
0.0
 10
148.4459503622223
 20
-88.44056630524854
 30
0.0
 10
147.6742489735264
 20
-88.2565982063362
 30
0.0
 10
147.013824169004
 20
-87.75087972094829
 30
0.0
 10
146.6351220477898
 20
-87.05370005396765
 30
0.0
 10
145.2552751785582
 20
-87.23667768792798
 30
0.0
 10
143.3969906738144
 20
-87.48306661066368
 30
0.0
 10
143.2813215928991
 20
-87.49839728557305
 30
0.0
 10
142.7338097929039
 20
-87.57100267292469
 30
0.0
 10
142.2311703616059
 20
-87.18601325244802
 30
0.0
 10
142.1585649742562
 20
-86.63852298430147
 30
0.0
 10
142.0859595869026
 20
-86.09103271615493
 30
0.0
 10
142.4709490073793
 20
-85.5883717530102
 30
0.0
 10
143.0183746799855
 20
-85.51576636565855
 30
0.0
  0
SPLINE
  5
43
330
1F
100
AcDbEntity
  8
Layer 1
 62
     1
420
 15597568
370
    18
100
AcDbSpline
210
0.0
220
0.0
230
1.0
 70
    11
 71
     3
 72
    65
 73
    61
 74
     0
 42
0.0000000001
 43
0.0000000001
 12
1.0
 22
0.0
 32
0.0
 13
1.0
 23
0.0
 33
0.0
 40
0.0
 40
0.0
 40
0.0
 40
0.0
 40
1.0
 40
1.0
 40
1.0
 40
2.0
 40
2.0
 40
2.0
 40
3.0
 40
3.0
 40
3.0
 40
4.0
 40
4.0
 40
4.0
 40
5.0
 40
5.0
 40
5.0
 40
6.0
 40
6.0
 40
6.0
 40
7.0
 40
7.0
 40
7.0
 40
8.0
 40
8.0
 40
8.0
 40
9.0
 40
9.0
 40
9.0
 40
10.0
 40
10.0
 40
10.0
 40
11.0
 40
11.0
 40
11.0
 40
12.0
 40
12.0
 40
12.0
 40
13.0
 40
13.0
 40
13.0
 40
14.0
 40
14.0
 40
14.0
 40
15.0
 40
15.0
 40
15.0
 40
16.0
 40
16.0
 40
16.0
 40
17.0
 40
17.0
 40
17.0
 40
18.0
 40
18.0
 40
18.0
 40
19.0
 40
19.0
 40
19.0
 40
20.0
 40
20.0
 40
20.0
 40
20.0
 10
73.17147528338471
 20
-86.64597300328833
 30
0.0
 10
73.0983531317122
 20
-87.19339867589453
 30
0.0
 10
72.59528306347667
 20
-87.57784980020162
 30
0.0
 10
72.04785739087046
 20
-87.50466305298684
 30
0.0
 10
71.95044731602695
 20
-87.49163628568324
 30
0.0
 10
70.26415920338236
 20
-87.26624091356078
 30
0.0
 10
68.69448757291734
 20
-87.05639153481549
 30
0.0
 10
68.31501030521706
 20
-87.75316209670727
 30
0.0
 10
67.65415486375709
 20
-88.25819156299812
 30
0.0
 10
66.8821089655126
 20
-88.44134145173271
 30
0.0
 10
66.69900214047156
 20
-89.81106835297449
 30
0.0
 10
66.44337605546603
 20
-91.72374230269163
 30
0.0
 10
66.4333852785588
 20
-91.79860853395546
 30
0.0
 10
66.36017699949726
 20
-92.34601267471488
 30
0.0
 10
65.85702080387651
 20
-92.73046379902198
 30
0.0
 10
65.30968125865937
 20
-92.6572770518072
 30
0.0
 10
64.76225558605317
 20
-92.5841118364392
 30
0.0
 10
64.37778292989928
 20
-92.08102023635882
 30
0.0
 10
64.45099120896084
 20
-91.53359456375262
 30
0.0
 10
64.46098198586807
 20
-91.45877139618234
 30
0.0
 10
64.7166941982588
 20
-89.54605438277164
 30
0.0
 10
64.89980102329984
 20
-88.17632748152987
 30
0.0
 10
64.20303046140806
 20
-87.7968502138296
 30
0.0
 10
63.69797946327044
 20
-87.13597324052476
 30
0.0
 10
63.51487263822941
 20
-86.36399193782063
 30
0.0
 10
62.13511189638685
 20
-86.17955013827907
 30
0.0
 10
60.27717190119161
 20
-85.93118028563933
 30
0.0
 10
60.16150282027628
 20
-85.91572041964928
 30
0.0
 10
59.61407714767007
 20
-85.8425336724345
 30
0.0
 10
59.22960449151619
 20
-85.3394420723541
 30
0.0
 10
59.30281277057775
 20
-84.79201639974791
 30
0.0
 10
59.37593492225025
 20
-84.2446122589885
 30
0.0
 10
59.87909111787099
 20
-83.86018266652817
 30
0.0
 10
60.42651679047719
 20
-83.93334788189617
 30
0.0
 10
60.54209974400732
 20
-83.948829279733
 30
0.0
 10
62.40012586659162
 20
-84.19719913237275
 30
0.0
 10
63.77980048104512
 20
-84.3816409319143
 30
0.0
 10
64.1592777487454
 20
-83.68484883817574
 30
0.0
 10
64.82021931759057
 20
-83.17984090373169
 30
0.0
 10
65.59217908844985
 20
-82.99669101499708
 30
0.0
 10
65.78622409165463
 20
-81.54516462782742
 30
0.0
 10
66.03263454623905
 20
-79.70154331074275
 30
0.0
 10
66.04047213846606
 20
-79.64332119704203
 30
0.0
 10
66.11359429014242
 20
-79.09591705628262
 30
0.0
 10
66.6166643583741
 20
-78.7114874638223
 30
0.0
 10
67.1640900309803
 20
-78.78467421103707
 30
0.0
 10
67.7115157035865
 20
-78.85783942640506
 30
0.0
 10
68.09598835974037
 20
-79.36093102648546
 30
0.0
 10
68.02278008067881
 20
-79.90833516724487
 30
0.0
 10
68.01502861583701
 20
-79.96653574909881
 30
0.0
 10
67.76853203386739
 20
-81.8101355343367
 30
0.0
 10
67.57457315804781
 20
-83.26168345335314
 30
0.0
 10
68.2713437199396
 20
-83.6411822529002
 30
0.0
 10
68.77639471807723
 20
-84.30203769435825
 30
0.0
 10
68.95950154311825
 20
-85.07404052890918
 30
0.0
 10
70.52917317358714
 20
-85.28386837580767
 30
0.0
 10
72.21546128622788
 20
-85.50928527977692
 30
0.0
 10
72.31278523368618
 20
-85.52231204708053
 30
0.0
 10
72.86021090629238
 20
-85.5954987942953
 30
0.0
 10
73.24468356244626
 20
-86.09856886252891
 30
0.0
 10
73.17147528338471
 20
-86.64597300328833
 30
0.0
  0
SPLINE
  5
44
330
1F
100
AcDbEntity
  8
Layer 1
 62
     1
420
 15597568
370
    18
100
AcDbSpline
210
0.0
220
0.0
230
1.0
 70
    11
 71
     3
 72
    65
 73
    61
 74
     0
 42
0.0000000001
 43
0.0000000001
 12
1.0
 22
0.0
 32
0.0
 13
1.0
 23
0.0
 33
0.0
 40
0.0
 40
0.0
 40
0.0
 40
0.0
 40
1.0
 40
1.0
 40
1.0
 40
2.0
 40
2.0
 40
2.0
 40
3.0
 40
3.0
 40
3.0
 40
4.0
 40
4.0
 40
4.0
 40
5.0
 40
5.0
 40
5.0
 40
6.0
 40
6.0
 40
6.0
 40
7.0
 40
7.0
 40
7.0
 40
8.0
 40
8.0
 40
8.0
 40
9.0
 40
9.0
 40
9.0
 40
10.0
 40
10.0
 40
10.0
 40
11.0
 40
11.0
 40
11.0
 40
12.0
 40
12.0
 40
12.0
 40
13.0
 40
13.0
 40
13.0
 40
14.0
 40
14.0
 40
14.0
 40
15.0
 40
15.0
 40
15.0
 40
16.0
 40
16.0
 40
16.0
 40
17.0
 40
17.0
 40
17.0
 40
18.0
 40
18.0
 40
18.0
 40
19.0
 40
19.0
 40
19.0
 40
20.0
 40
20.0
 40
20.0
 40
20.0
 10
72.31261297891191
 20
-194.2711220038908
 30
0.0
 10
72.2152029040684
 20
-194.2840411119605
 30
0.0
 10
70.52874253664955
 20
-194.5076278089532
 30
0.0
 10
68.9588125240212
 20
-194.7157977036468
 30
0.0
 10
68.77484442510885
 20
-195.4875852197325
 30
0.0
 10
68.26910440787418
 20
-196.1479238968652
 30
0.0
 10
67.57190320904867
 20
-196.5266690817762
 30
0.0
 10
67.75354586850655
 20
-197.8965682377935
 30
0.0
 10
68.00719102360999
 20
-199.809543633363
 30
0.0
 10
68.01709567312815
 20
-199.8843883327826
 30
0.0
 10
68.08978718786693
 20
-200.4319001327734
 30
0.0
 10
67.70479776739026
 20
-200.9345826277649
 30
0.0
 10
67.15728596739885
 20
-201.0071880151178
 30
0.0
 10
66.6097741674036
 20
-201.0797503387746
 30
0.0
 10
66.10713473610565
 20
-200.6948039819915
 30
0.0
 10
66.03452934875594
 20
-200.1472921819995
 30
0.0
 10
66.02462469923391
 20
-200.0724905462773
 30
0.0
 10
65.77089341674527
 20
-198.1594720870103
 30
0.0
 10
65.58925075728739
 20
-196.789572930993
 30
0.0
 10
64.81746324120238
 20
-196.6056048320806
 30
0.0
 10
64.15712456406904
 20
-196.099864814846
 30
0.0
 10
63.77842244285102
 20
-195.4026636160211
 30
0.0
 10
62.3984894462342
 20
-195.5856843136724
 30
0.0
 10
60.54029106887949
 20
-195.8320517045614
 30
0.0
 10
60.42462198796031
 20
-195.8473823794707
 30
0.0
 10
59.8771101879689
 20
-195.9199877668237
 30
0.0
 10
59.37438462928189
 20
-195.534998346347
 30
0.0
 10
59.30177924193217
 20
-194.9875296100485
 30
0.0
 10
59.22917385457861
 20
-194.4400178100526
 30
0.0
 10
59.61416327505528
 20
-193.9373783787547
 30
0.0
 10
60.16167507505053
 20
-193.8647729914056
 30
0.0
 10
60.27734415596587
 20
-193.8494423164962
 30
0.0
 10
62.13562866070964
 20
-193.6030318619111
 30
0.0
 10
63.51556165732646
 20
-193.4200542279521
 30
0.0
 10
63.6995297562388
 20
-192.6482667118677
 30
0.0
 10
64.20526977347347
 20
-191.9878849710415
 30
0.0
 10
64.90238484491378
 20
-191.6091828498228
 30
0.0
 10
64.70989013467737
 20
-190.1574196123385
 30
0.0
 10
64.46537448260983
 20
-188.3136045086328
 30
0.0
 10
64.45770914515708
 20
-188.2553393312398
 30
0.0
 10
64.38510375780352
 20
-187.7078705949413
 30
0.0
 10
64.77009317828019
 20
-187.2051880999473
 30
0.0
 10
65.31751885088639
 20
-187.1326257762892
 30
0.0
 10
65.86511677826685
 20
-187.0600203889401
 30
0.0
 10
66.3677562095648
 20
-187.4449667457206
 30
0.0
 10
66.44036159691836
 20
-187.992435482023
 30
0.0
 10
66.44802693437111
 20
-188.0506575957237
 30
0.0
 10
66.69254258643865
 20
-189.894558826814
 30
0.0
 10
66.88503729667507
 20
-191.3463220642982
 30
0.0
 10
67.65682481276008
 20
-191.5302470995183
 30
0.0
 10
68.31716348989342
 20
-192.0359440530607
 30
0.0
 10
68.69595173849663
 20
-192.7331452518856
 30
0.0
 10
70.265881751125
 20
-192.5249753571919
 30
0.0
 10
71.95225599115479
 20
-192.3013886601992
 30
0.0
 10
72.04975219338735
 20
-192.2884695521295
 30
0.0
 10
72.59717786599356
 20
-192.2158641647753
 30
0.0
 10
73.09990342468056
 20
-192.600853585252
 30
0.0
 10
73.17250881203027
 20
-193.1483223215517
 30
0.0
 10
73.24511419938385
 20
-193.6957910578541
 30
0.0
 10
72.86012477890718
 20
-194.1985166165366
 30
0.0
 10
72.31261297891191
 20
-194.2711220038908
 30
0.0
  0
SPLINE
  5
45
330
1F
100
AcDbEntity
  8
Layer 1
 62
     1
420
 15597568
370
    18
100
AcDbSpline
210
0.0
220
0.0
230
1.0
 70
    11
 71
     3
 72
    23
 73
    19
 74
     0
 42
0.0000000001
 43
0.0000000001
 12
1.0
 22
0.0
 32
0.0
 13
1.0
 23
0.0
 33
0.0
 40
0.0
 40
0.0
 40
0.0
 40
0.0
 40
1.0
 40
1.0
 40
1.0
 40
2.0
 40
2.0
 40
2.0
 40
3.0
 40
3.0
 40
3.0
 40
4.0
 40
4.0
 40
4.0
 40
5.0
 40
5.0
 40
5.0
 40
6.0
 40
6.0
 40
6.0
 40
6.0
 10
104.3626807877397
 20
-128.0356731407819
 30
0.0
 10
104.3626807877397
 20
-128.0356731407819
 30
0.0
 10
110.9661536864814
 20
-128.0356731407819
 30
0.0
 10
110.9661536864814
 20
-128.0356731407819
 30
0.0
 10
111.7946130232949
 20
-128.0356731407819
 30
0.0
 10
112.2637489010007
 20
-128.9852491157507
 30
0.0
 10
111.7604204506057
 20
-129.6432408215866
 30
0.0
 10
111.7604204506057
 20
-129.6432408215866
 30
0.0
 10
108.458468682768
 20
-133.9598378053708
 30
0.0
 10
108.458468682768
 20
-133.9598378053708
 30
0.0
 10
108.0582347147672
 20
-134.4830832140399
 30
0.0
 10
107.2700829951311
 20
-134.4830616821931
 30
0.0
 10
106.8698490271302
 20
-133.9597732098304
 30
0.0
 10
106.8698490271302
 20
-133.9597732098304
 30
0.0
 10
103.5683278962301
 20
-129.6431977578931
 30
0.0
 10
103.5683278962301
 20
-129.6431977578931
 30
0.0
 10
103.0650855732203
 20
-128.9852060520572
 30
0.0
 10
103.5343075783114
 20
-128.0356731407819
 30
0.0
 10
104.3626807877397
 20
-128.0356731407819
 30
0.0
  0
SPLINE
  5
46
330
1F
100
AcDbEntity
  8
Layer 1
 62
     1
420
 15597568
370
    18
100
AcDbSpline
210
0.0
220
0.0
230
1.0
 70
    11
 71
     3
 72
    23
 73
    19
 74
     0
 42
0.0000000001
 43
0.0000000001
 12
1.0
 22
0.0
 32
0.0
 13
1.0
 23
0.0
 33
0.0
 40
0.0
 40
0.0
 40
0.0
 40
0.0
 40
1.0
 40
1.0
 40
1.0
 40
2.0
 40
2.0
 40
2.0
 40
3.0
 40
3.0
 40
3.0
 40
4.0
 40
4.0
 40
4.0
 40
5.0
 40
5.0
 40
5.0
 40
6.0
 40
6.0
 40
6.0
 40
6.0
 10
93.9146813871478
 20
-147.8974354580981
 30
0.0
 10
93.9146813871478
 20
-148.3116435946577
 30
0.0
 10
93.57887070472435
 20
-148.647432745237
 30
0.0
 10
93.1646841000089
 20
-148.647432745237
 30
0.0
 10
92.7504113679076
 20
-148.647432745237
 30
0.0
 10
92.41468681287002
 20
-148.3116435946577
 30
0.0
 10
92.41468681287002
 20
-147.8974354580981
 30
0.0
 10
92.41468681287002
 20
-147.8974354580981
 30
0.0
 10
92.41468681287002
 20
-131.8974412266074
 30
0.0
 10
92.41468681287002
 20
-131.8974412266074
 30
0.0
 10
92.41468681287002
 20
-131.4832115581997
 30
0.0
 10
92.7504113679076
 20
-131.1474439394685
 30
0.0
 10
93.1646841000089
 20
-131.1474439394685
 30
0.0
 10
93.57887070472435
 20
-131.1474439394685
 30
0.0
 10
93.9146813871478
 20
-131.4832115581997
 30
0.0
 10
93.9146813871478
 20
-131.8974412266074
 30
0.0
 10
93.9146813871478
 20
-131.8974412266074
 30
0.0
 10
93.9146813871478
 20
-147.8974354580981
 30
0.0
 10
93.9146813871478
 20
-147.8974354580981
 30
0.0
  0
SPLINE
  5
47
330
1F
100
AcDbEntity
  8
Layer 1
 62
     1
420
 15597568
370
    18
100
AcDbSpline
210
0.0
220
0.0
230
1.0
 70
    11
 71
     3
 72
    17
 73
    13
 74
     0
 42
0.0000000001
 43
0.0000000001
 12
1.0
 22
0.0
 32
0.0
 13
1.0
 23
0.0
 33
0.0
 40
0.0
 40
0.0
 40
0.0
 40
0.0
 40
1.0
 40
1.0
 40
1.0
 40
2.0
 40
2.0
 40
2.0
 40
3.0
 40
3.0
 40
3.0
 40
4.0
 40
4.0
 40
4.0
 40
4.0
 10
97.66472614531695
 20
-151.3974254542794
 30
0.0
 10
96.83626680850341
 20
-151.3974254542794
 30
0.0
 10
96.16464544365397
 20
-150.7258686849664
 30
0.0
 10
96.16464544365397
 20
-149.8974308800016
 30
0.0
 10
96.16464544365397
 20
-149.0690146068771
 30
0.0
 10
96.83626680850341
 20
-148.3974363057238
 30
0.0
 10
97.66472614531695
 20
-148.3974363057238
 30
0.0
 10
98.49309935474527
 20
-148.3974363057238
 30
0.0
 10
99.16472071959473
 20
-149.0690146068771
 30
0.0
 10
99.16472071959473
 20
-149.8974308800016
 30
0.0
 10
99.16472071959473
 20
-150.7258686849664
 30
0.0
 10
98.49309935474527
 20
-151.3974254542794
 30
0.0
 10
97.66472614531695
 20
-151.3974254542794
 30
0.0
  0
SPLINE
  5
48
330
1F
100
AcDbEntity
  8
Layer 1
 62
     1
420
 15597568
370
    18
100
AcDbSpline
210
0.0
220
0.0
230
1.0
 70
    11
 71
     3
 72
    17
 73
    13
 74
     0
 42
0.0000000001
 43
0.0000000001
 12
1.0
 22
0.0
 32
0.0
 13
1.0
 23
0.0
 33
0.0
 40
0.0
 40
0.0
 40
0.0
 40
0.0
 40
1.0
 40
1.0
 40
1.0
 40
2.0
 40
2.0
 40
2.0
 40
3.0
 40
3.0
 40
3.0
 40
4.0
 40
4.0
 40
4.0
 40
4.0
 10
97.66472614531695
 20
-131.3974403789823
 30
0.0
 10
96.83626680850341
 20
-131.3974403789823
 30
0.0
 10
96.16464544365397
 20
-130.7258620778264
 30
0.0
 10
96.16464544365397
 20
-129.8974242728577
 30
0.0
 10
96.16464544365397
 20
-129.0690079997358
 30
0.0
 10
96.83626680850341
 20
-128.3974296985799
 30
0.0
 10
97.66472614531695
 20
-128.3974296985799
 30
0.0
 10
98.49309935474527
 20
-128.3974296985799
 30
0.0
 10
99.16472071959473
 20
-129.0690079997358
 30
0.0
 10
99.16472071959473
 20
-129.8974242728577
 30
0.0
 10
99.16472071959473
 20
-130.7258620778264
 30
0.0
 10
98.49309935474527
 20
-131.3974403789823
 30
0.0
 10
97.66472614531695
 20
-131.3974403789823
 30
0.0
  0
SPLINE
  5
49
330
1F
100
AcDbEntity
  8
Layer 1
 62
     1
420
 15597568
370
    18
100
AcDbSpline
210
0.0
220
0.0
230
1.0
 70
    11
 71
     3
 72
    23
 73
    19
 74
     0
 42
0.0000000001
 43
0.0000000001
 12
1.0
 22
0.0
 32
0.0
 13
1.0
 23
0.0
 33
0.0
 40
0.0
 40
0.0
 40
0.0
 40
0.0
 40
1.0
 40
1.0
 40
1.0
 40
2.0
 40
2.0
 40
2.0
 40
3.0
 40
3.0
 40
3.0
 40
4.0
 40
4.0
 40
4.0
 40
5.0
 40
5.0
 40
5.0
 40
6.0
 40
6.0
 40
6.0
 40
6.0
 10
99.5041487522809
 20
-144.6732019587797
 30
0.0
 10
99.5041487522809
 20
-144.6732019587797
 30
0.0
 10
99.5041487522809
 20
-135.1198875826415
 30
0.0
 10
99.5041487522809
 20
-135.1198875826415
 30
0.0
 10
99.5041487522809
 20
-134.1636367351701
 30
0.0
 10
100.7175113821859
 20
-133.7528090985541
 30
0.0
 10
101.2984406083842
 20
-134.5123665256645
 30
0.0
 10
101.2984406083842
 20
-134.5123665256645
 30
0.0
 10
104.9521366252659
 20
-139.2893143936651
 30
0.0
 10
104.9521366252659
 20
-139.2893143936651
 30
0.0
 10
105.2263662258918
 20
-139.6479273018329
 30
0.0
 10
105.2263662258918
 20
-140.1458297268386
 30
0.0
 10
104.9520504978807
 20
-140.5044211031595
 30
0.0
 10
104.9520504978807
 20
-140.5044211031595
 30
0.0
 10
101.2984406083842
 20
-145.2807660794516
 30
0.0
 10
101.2984406083842
 20
-145.2807660794516
 30
0.0
 10
100.7174252547968
 20
-146.0402589110191
 30
0.0
 10
99.5041487522809
 20
-145.6294097425588
 30
0.0
 10
99.5041487522809
 20
-144.6732019587797
 30
0.0
  0
SPLINE
  5
4A
330
1F
100
AcDbEntity
  8
Layer 1
 62
     1
420
 15597568
370
    18
100
AcDbSpline
210
0.0
220
0.0
230
1.0
 70
    11
 71
     3
 72
    23
 73
    19
 74
     0
 42
0.0000000001
 43
0.0000000001
 12
1.0
 22
0.0
 32
0.0
 13
1.0
 23
0.0
 33
0.0
 40
0.0
 40
0.0
 40
0.0
 40
0.0
 40
1.0
 40
1.0
 40
1.0
 40
2.0
 40
2.0
 40
2.0
 40
3.0
 40
3.0
 40
3.0
 40
4.0
 40
4.0
 40
4.0
 40
5.0
 40
5.0
 40
5.0
 40
6.0
 40
6.0
 40
6.0
 40
6.0
 10
110.9648617756725
 20
-151.7591820120748
 30
0.0
 10
110.9648617756725
 20
-151.7591820120748
 30
0.0
 10
104.3613027495456
 20
-151.7591820120748
 30
0.0
 10
104.3613027495456
 20
-151.7591820120748
 30
0.0
 10
103.532843412732
 20
-151.7591820120748
 30
0.0
 10
103.0637075350262
 20
-150.8096060371061
 30
0.0
 10
103.5670359854212
 20
-150.1516143312714
 30
0.0
 10
103.5670359854212
 20
-150.1516143312714
 30
0.0
 10
106.869073880648
 20
-145.8349742837943
 30
0.0
 10
106.869073880648
 20
-145.8349742837943
 30
0.0
 10
107.269307848645
 20
-145.3117288751227
 30
0.0
 10
108.0573734408959
 20
-145.3117504069707
 30
0.0
 10
108.4576074088967
 20
-145.8350173474866
 30
0.0
 10
108.4576074088967
 20
-145.8350173474866
 30
0.0
 10
111.7592146671859
 20
-150.151657394965
 30
0.0
 10
111.7592146671859
 20
-150.151657394965
 30
0.0
 10
112.2624569901918
 20
-150.8096491007996
 30
0.0
 10
111.7933211124898
 20
-151.7591820120748
 30
0.0
 10
110.9648617756725
 20
-151.7591820120748
 30
0.0
  0
SPLINE
  5
4B
330
1F
100
AcDbEntity
  8
Layer 1
 62
     1
420
 15597568
370
    18
100
AcDbSpline
210
0.0
220
0.0
230
1.0
 70
    11
 71
     3
 72
    23
 73
    19
 74
     0
 42
0.0000000001
 43
0.0000000001
 12
1.0
 22
0.0
 32
0.0
 13
1.0
 23
0.0
 33
0.0
 40
0.0
 40
0.0
 40
0.0
 40
0.0
 40
1.0
 40
1.0
 40
1.0
 40
2.0
 40
2.0
 40
2.0
 40
3.0
 40
3.0
 40
3.0
 40
4.0
 40
4.0
 40
4.0
 40
5.0
 40
5.0
 40
5.0
 40
6.0
 40
6.0
 40
6.0
 40
6.0
 10
115.8233076837461
 20
-144.6749245065223
 30
0.0
 10
115.8233076837461
 20
-145.6311538221457
 30
0.0
 10
114.6099450538411
 20
-146.0419814587617
 30
0.0
 10
114.0291019550279
 20
-145.282445563498
 30
0.0
 10
114.0291019550279
 20
-145.282445563498
 30
0.0
 10
110.3754059381462
 20
-140.5054761636519
 30
0.0
 10
110.3754059381462
 20
-140.5054761636519
 30
0.0
 10
110.1010902101351
 20
-140.1468632554842
 30
0.0
 10
110.1010902101351
 20
-139.6489608304784
 30
0.0
 10
110.3754059381462
 20
-139.2903694541575
 30
0.0
 10
110.3754059381462
 20
-139.2903694541575
 30
0.0
 10
114.0291019550279
 20
-134.5139814141732
 30
0.0
 10
114.0291019550279
 20
-134.5139814141732
 30
0.0
 10
114.6100311812301
 20
-133.7545101144499
 30
0.0
 10
115.8233076837461
 20
-134.1653592829127
 30
0.0
 10
115.8233076837461
 20
-135.1215670666906
 30
0.0
 10
115.8233076837461
 20
-135.1215670666906
 30
0.0
 10
115.8233076837461
 20
-144.6749245065223
 30
0.0
 10
115.8233076837461
 20
-144.6749245065223
 30
0.0
  0
SPLINE
  5
4C
330
1F
100
AcDbEntity
  8
Layer 1
 62
     1
420
 15597568
370
    18
100
AcDbSpline
210
0.0
220
0.0
230
1.0
 70
    11
 71
     3
 72
    17
 73
    13
 74
     0
 42
0.0000000001
 43
0.0000000001
 12
1.0
 22
0.0
 32
0.0
 13
1.0
 23
0.0
 33
0.0
 40
0.0
 40
0.0
 40
0.0
 40
0.0
 40
1.0
 40
1.0
 40
1.0
 40
2.0
 40
2.0
 40
2.0
 40
3.0
 40
3.0
 40
3.0
 40
4.0
 40
4.0
 40
4.0
 40
4.0
 10
117.6647112206121
 20
-151.3974254542794
 30
0.0
 10
116.8362518837986
 20
-151.3974254542794
 30
0.0
 10
116.1647166463343
 20
-150.7258686849664
 30
0.0
 10
116.1647166463343
 20
-149.8974308800016
 30
0.0
 10
116.1647166463343
 20
-149.0690146068771
 30
0.0
 10
116.8362518837986
 20
-148.3974363057238
 30
0.0
 10
117.6647112206121
 20
-148.3974363057238
 30
0.0
 10
118.4930844300404
 20
-148.3974363057238
 30
0.0
 10
119.1647057948899
 20
-149.0690146068771
 30
0.0
 10
119.1647057948899
 20
-149.8974308800016
 30
0.0
 10
119.1647057948899
 20
-150.7258686849664
 30
0.0
 10
118.4930844300404
 20
-151.3974254542794
 30
0.0
 10
117.6647112206121
 20
-151.3974254542794
 30
0.0
  0
SPLINE
  5
4D
330
1F
100
AcDbEntity
  8
Layer 1
 62
     1
420
 15597568
370
    18
100
AcDbSpline
210
0.0
220
0.0
230
1.0
 70
    11
 71
     3
 72
    17
 73
    13
 74
     0
 42
0.0000000001
 43
0.0000000001
 12
1.0
 22
0.0
 32
0.0
 13
1.0
 23
0.0
 33
0.0
 40
0.0
 40
0.0
 40
0.0
 40
0.0
 40
1.0
 40
1.0
 40
1.0
 40
2.0
 40
2.0
 40
2.0
 40
3.0
 40
3.0
 40
3.0
 40
4.0
 40
4.0
 40
4.0
 40
4.0
 10
117.6647112206121
 20
-131.3974403789823
 30
0.0
 10
116.8362518837986
 20
-131.3974403789823
 30
0.0
 10
116.1647166463343
 20
-130.7258620778264
 30
0.0
 10
116.1647166463343
 20
-129.8974242728577
 30
0.0
 10
116.1647166463343
 20
-129.0690079997358
 30
0.0
 10
116.8362518837986
 20
-128.3974296985799
 30
0.0
 10
117.6647112206121
 20
-128.3974296985799
 30
0.0
 10
118.4930844300404
 20
-128.3974296985799
 30
0.0
 10
119.1647057948899
 20
-129.0690079997358
 30
0.0
 10
119.1647057948899
 20
-129.8974242728577
 30
0.0
 10
119.1647057948899
 20
-130.7258620778264
 30
0.0
 10
118.4930844300404
 20
-131.3974403789823
 30
0.0
 10
117.6647112206121
 20
-131.3974403789823
 30
0.0
  0
SPLINE
  5
4E
330
1F
100
AcDbEntity
  8
Layer 1
 62
     1
420
 15597568
370
    18
100
AcDbSpline
210
0.0
220
0.0
230
1.0
 70
    11
 71
     3
 72
    23
 73
    19
 74
     0
 42
0.0000000001
 43
0.0000000001
 12
1.0
 22
0.0
 32
0.0
 13
1.0
 23
0.0
 33
0.0
 40
0.0
 40
0.0
 40
0.0
 40
0.0
 40
1.0
 40
1.0
 40
1.0
 40
2.0
 40
2.0
 40
2.0
 40
3.0
 40
3.0
 40
3.0
 40
4.0
 40
4.0
 40
4.0
 40
5.0
 40
5.0
 40
5.0
 40
6.0
 40
6.0
 40
6.0
 40
6.0
 10
122.9146644256732
 20
-147.8974354580981
 30
0.0
 10
122.9146644256732
 20
-148.3116435946577
 30
0.0
 10
122.5788537432472
 20
-148.647432745237
 30
0.0
 10
122.1646671385343
 20
-148.647432745237
 30
0.0
 10
121.7504805338188
 20
-148.647432745237
 30
0.0
 10
121.4146698513954
 20
-148.3116435946577
 30
0.0
 10
121.4146698513954
 20
-147.8974354580981
 30
0.0
 10
121.4146698513954
 20
-147.8974354580981
 30
0.0
 10
121.4146698513954
 20
-131.8974412266074
 30
0.0
 10
121.4146698513954
 20
-131.8974412266074
 30
0.0
 10
121.4146698513954
 20
-131.4832115581997
 30
0.0
 10
121.7504805338188
 20
-131.1474439394685
 30
0.0
 10
122.1646671385343
 20
-131.1474439394685
 30
0.0
 10
122.5788537432472
 20
-131.1474439394685
 30
0.0
 10
122.9146644256732
 20
-131.4832115581997
 30
0.0
 10
122.9146644256732
 20
-131.8974412266074
 30
0.0
 10
122.9146644256732
 20
-131.8974412266074
 30
0.0
 10
122.9146644256732
 20
-147.8974354580981
 30
0.0
 10
122.9146644256732
 20
-147.8974354580981
 30
0.0
  0
SPLINE
  5
4F
330
1F
100
AcDbEntity
  8
Layer 1
 62
     1
420
 15597568
370
    18
100
AcDbSpline
210
0.0
220
0.0
230
1.0
 70
    11
 71
     3
 72
    65
 73
    61
 74
     0
 42
0.0000000001
 43
0.0000000001
 12
1.0
 22
0.0
 32
0.0
 13
1.0
 23
0.0
 33
0.0
 40
0.0
 40
0.0
 40
0.0
 40
0.0
 40
1.0
 40
1.0
 40
1.0
 40
2.0
 40
2.0
 40
2.0
 40
3.0
 40
3.0
 40
3.0
 40
4.0
 40
4.0
 40
4.0
 40
5.0
 40
5.0
 40
5.0
 40
6.0
 40
6.0
 40
6.0
 40
7.0
 40
7.0
 40
7.0
 40
8.0
 40
8.0
 40
8.0
 40
9.0
 40
9.0
 40
9.0
 40
10.0
 40
10.0
 40
10.0
 40
11.0
 40
11.0
 40
11.0
 40
12.0
 40
12.0
 40
12.0
 40
13.0
 40
13.0
 40
13.0
 40
14.0
 40
14.0
 40
14.0
 40
15.0
 40
15.0
 40
15.0
 40
16.0
 40
16.0
 40
16.0
 40
17.0
 40
17.0
 40
17.0
 40
18.0
 40
18.0
 40
18.0
 40
19.0
 40
19.0
 40
19.0
 40
20.0
 40
20.0
 40
20.0
 40
20.0
 10
156.024557538064
 20
-194.9947643105675
 30
0.0
 10
155.9514353863876
 20
-195.5421899831737
 30
0.0
 10
155.4482791907669
 20
-195.9266626393276
 30
0.0
 10
154.9008535181607
 20
-195.8534543602661
 30
0.0
 10
154.8035295707024
 20
-195.8404491248067
 30
0.0
 10
153.1173275854468
 20
-195.6150537526867
 30
0.0
 10
151.5475698275928
 20
-195.4051613102453
 30
0.0
 10
151.1680925598925
 20
-196.1019318721371
 30
0.0
 10
150.5071509910473
 20
-196.6069828702747
 30
0.0
 10
149.7351912201919
 20
-196.7901327590093
 30
0.0
 10
149.5520843951508
 20
-198.1598596602511
 30
0.0
 10
149.2963721827563
 20
-200.0725766736618
 30
0.0
 10
149.286381405849
 20
-200.1474213730814
 30
0.0
 10
149.2132592541765
 20
-200.6948470456877
 30
0.0
 10
148.710189185941
 20
-201.0792335744518
 30
0.0
 10
148.1627635133348
 20
-201.00611142278
 30
0.0
 10
147.6153378407286
 20
-200.9329031437184
 30
0.0
 10
147.2308651845747
 20
-200.4298330754822
 30
0.0
 10
147.3040734636363
 20
-199.882407402876
 30
0.0
 10
147.3140642405435
 20
-199.8075627034615
 30
0.0
 10
147.569690325549
 20
-197.8948456900508
 30
0.0
 10
147.7527971505901
 20
-196.5251187888078
 30
0.0
 10
147.0561127160873
 20
-196.1456415211075
 30
0.0
 10
146.5510617179497
 20
-195.4847430159546
 30
0.0
 10
146.3678687655196
 20
-194.7127832450998
 30
0.0
 10
144.9881941510661
 20
-194.528341445557
 30
0.0
 10
143.1302541558709
 20
-194.2799931247627
 30
0.0
 10
143.0145850749517
 20
-194.2644901950791
 30
0.0
 10
142.4671594023455
 20
-194.1913249797111
 30
0.0
 10
142.0826867461916
 20
-193.6882118477865
 30
0.0
 10
142.1558950252532
 20
-193.1407861751803
 30
0.0
 10
142.2291033043147
 20
-192.5934466299587
 30
0.0
 10
142.7320872451612
 20
-192.2089739738048
 30
0.0
 10
143.2795129177674
 20
-192.2821822528664
 30
0.0
 10
143.3952681260718
 20
-192.2975990551654
 30
0.0
 10
145.2532081212671
 20
-192.5459904396519
 30
0.0
 10
146.6329688631096
 20
-192.7304322391909
 30
0.0
 10
147.0124461308099
 20
-192.0336616772992
 30
0.0
 10
147.6733015722698
 20
-191.5286537428577
 30
0.0
 10
148.4452613431253
 20
-191.3454607904269
 30
0.0
 10
148.6393063463339
 20
-189.8939559351066
 30
0.0
 10
148.8857168009145
 20
-188.0503130861752
 30
0.0
 10
148.8934682657563
 20
-187.9921340361667
 30
0.0
 10
148.9666765448179
 20
-187.4447514272528
 30
0.0
 10
149.4698327404386
 20
-187.0602787710989
 30
0.0
 10
150.0172584130448
 20
-187.1334870501605
 30
0.0
 10
150.5645979582658
 20
-187.2066092018375
 30
0.0
 10
150.9490706144197
 20
-187.7097223337621
 30
0.0
 10
150.8758623353581
 20
-188.2571049426747
 30
0.0
 10
150.8681108705163
 20
-188.3153270563755
 30
0.0
 10
150.6217004159319
 20
-190.1589268416146
 30
0.0
 10
150.4275692853381
 20
-191.6104747606323
 30
0.0
 10
151.1244259746189
 20
-191.9899520283326
 30
0.0
 10
151.6293908453675
 20
-192.6508074697881
 30
0.0
 10
151.8125837977975
 20
-193.4228533680326
 30
0.0
 10
153.3822554282626
 20
-193.6326596830843
 30
0.0
 10
155.0684574135181
 20
-193.8580550552093
 30
0.0
 10
155.1659536157507
 20
-193.8711033543572
 30
0.0
 10
155.7132931609717
 20
-193.9442685697252
 30
0.0
 10
156.0977658171255
 20
-194.4473817016536
 30
0.0
 10
156.024557538064
 20
-194.9947643105675
 30
0.0
  0
SPLINE
  5
50
330
1F
100
AcDbEntity
  8
Layer 1
 62
     1
420
 15597568
370
    18
100
AcDbSpline
210
0.0
220
0.0
230
1.0
 70
    11
 71
     3
 72
    17
 73
    13
 74
     0
 42
0.0000000001
 43
0.0000000001
 12
1.0
 22
0.0
 32
0.0
 13
1.0
 23
0.0
 33
0.0
 40
0.0
 40
0.0
 40
0.0
 40
0.0
 40
1.0
 40
1.0
 40
1.0
 40
2.0
 40
2.0
 40
2.0
 40
3.0
 40
3.0
 40
3.0
 40
4.0
 40
4.0
 40
4.0
 40
4.0
 10
127.6672915726636
 20
-138.3914322747275
 30
0.0
 10
128.4957509094772
 20
-138.3914322747275
 30
0.0
 10
129.1672861469414
 20
-139.0630105758834
 30
0.0
 10
129.1672861469414
 20
-139.8914268490053
 30
0.0
 10
129.1672861469414
 20
-140.719864653974
 30
0.0
 10
128.4957509094772
 20
-141.3914429551299
 30
0.0
 10
127.6672915726636
 20
-141.3914429551299
 30
0.0
 10
126.8389183632353
 20
-141.3914429551299
 30
0.0
 10
126.1672969983859
 20
-140.719864653974
 30
0.0
 10
126.1672969983859
 20
-139.8914268490053
 30
0.0
 10
126.1672969983859
 20
-139.0630105758834
 30
0.0
 10
126.8389183632353
 20
-138.3914322747275
 30
0.0
 10
127.6672915726636
 20
-138.3914322747275
 30
0.0
  0
SPLINE
  5
51
330
1F
100
AcDbEntity
  8
Layer 1
 62
     1
420
 15597568
370
    18
100
AcDbSpline
210
0.0
220
0.0
230
1.0
 70
    11
 71
     3
 72
    17
 73
    13
 74
     0
 42
0.0000000001
 43
0.0000000001
 12
1.0
 22
0.0
 32
0.0
 13
1.0
 23
0.0
 33
0.0
 40
0.0
 40
0.0
 40
0.0
 40
0.0
 40
1.0
 40
1.0
 40
1.0
 40
2.0
 40
2.0
 40
2.0
 40
3.0
 40
3.0
 40
3.0
 40
4.0
 40
4.0
 40
4.0
 40
4.0
 10
87.66732142207334
 20
-141.3914429551299
 30
0.0
 10
86.83886208525597
 20
-141.3914429551299
 30
0.0
 10
86.16732684779556
 20
-140.719864653974
 30
0.0
 10
86.16732684779556
 20
-139.8914268490053
 30
0.0
 10
86.16732684779556
 20
-139.0630105758834
 30
0.0
 10
86.83886208525597
 20
-138.3914322747275
 30
0.0
 10
87.66732142207334
 20
-138.3914322747275
 30
0.0
 10
88.4957376951978
 20
-138.3914322747275
 30
0.0
 10
89.16731599635112
 20
-139.0630105758834
 30
0.0
 10
89.16731599635112
 20
-139.8914268490053
 30
0.0
 10
89.16731599635112
 20
-140.719864653974
 30
0.0
 10
88.4957376951978
 20
-141.3914429551299
 30
0.0
 10
87.66732142207334
 20
-141.3914429551299
 30
0.0
  0
SPLINE
  5
52
330
1F
100
AcDbEntity
  8
Layer 1
 62
     1
420
 15597568
370
    18
100
AcDbSpline
210
0.0
220
0.0
230
1.0
 70
    11
 71
     3
 72
    17
 73
    13
 74
     0
 42
0.0000000001
 43
0.0000000001
 12
1.0
 22
0.0
 32
0.0
 13
1.0
 23
0.0
 33
0.0
 40
0.0
 40
0.0
 40
0.0
 40
0.0
 40
1.0
 40
1.0
 40
1.0
 40
2.0
 40
2.0
 40
2.0
 40
3.0
 40
3.0
 40
3.0
 40
4.0
 40
4.0
 40
4.0
 40
4.0
 10
107.6673064973685
 20
-118.3914471994324
 30
0.0
 10
108.495765834182
 20
-118.3914471994324
 30
0.0
 10
109.1673010716463
 20
-119.0630039687415
 30
0.0
 10
109.1673010716463
 20
-119.8914417737102
 30
0.0
 10
109.1673010716463
 20
-120.7198580468321
 30
0.0
 10
108.495765834182
 20
-121.3914363479879
 30
0.0
 10
107.6673064973685
 20
-121.3914363479879
 30
0.0
 10
106.8388902242434
 20
-121.3914363479879
 30
0.0
 10
106.1673119230907
 20
-120.7198580468321
 30
0.0
 10
106.1673119230907
 20
-119.8914417737102
 30
0.0
 10
106.1673119230907
 20
-119.0630039687415
 30
0.0
 10
106.8388902242434
 20
-118.3914471994324
 30
0.0
 10
107.6673064973685
 20
-118.3914471994324
 30
0.0
  0
SPLINE
  5
53
330
1F
100
AcDbEntity
  8
Layer 1
 62
     1
420
 15597568
370
    18
100
AcDbSpline
210
0.0
220
0.0
230
1.0
 70
    11
 71
     3
 72
    17
 73
    13
 74
     0
 42
0.0000000001
 43
0.0000000001
 12
1.0
 22
0.0
 32
0.0
 13
1.0
 23
0.0
 33
0.0
 40
0.0
 40
0.0
 40
0.0
 40
0.0
 40
1.0
 40
1.0
 40
1.0
 40
2.0
 40
2.0
 40
2.0
 40
3.0
 40
3.0
 40
3.0
 40
4.0
 40
4.0
 40
4.0
 40
4.0
 10
107.6673064973685
 20
-161.3914495622718
 30
0.0
 10
106.8388902242434
 20
-161.3914495622718
 30
0.0
 10
106.1673119230907
 20
-160.7198712611159
 30
0.0
 10
106.1673119230907
 20
-159.8914334561472
 30
0.0
 10
106.1673119230907
 20
-159.0630171830254
 30
0.0
 10
106.8388902242434
 20
-158.3914388818695
 30
0.0
 10
107.6673064973685
 20
-158.3914388818695
 30
0.0
 10
108.495765834182
 20
-158.3914388818695
 30
0.0
 10
109.1673010716463
 20
-159.0630171830254
 30
0.0
 10
109.1673010716463
 20
-159.8914334561472
 30
0.0
 10
109.1673010716463
 20
-160.7198712611159
 30
0.0
 10
108.495765834182
 20
-161.3914495622718
 30
0.0
 10
107.6673064973685
 20
-161.3914495622718
 30
0.0
  0
ENDSEC
  0
SECTION
  2
OBJECTS
  0
DICTIONARY
  5
C
330
0
100
AcDbDictionary
281
     1
  3
ACAD_GROUP
350
D
  3
ACAD_LAYOUT
350
1A
  3
ACAD_MATERIAL
350
3B
  3
ACAD_MLEADERSTYLE
350
55
  3
ACAD_MLINESTYLE
350
17
  3
ACAD_PLOTSETTINGS
350
19
  3
ACAD_PLOTSTYLENAME
350
E
  3
ACAD_TABLESTYLE
350
54
  3
ACAD_VISUALSTYLE
350
2A
  0
SUN
  5
3F
330
29
100
AcDbSun
 90
        1
290
     0
 63
     7
421
 16777215
 40
1.0
291
     1
 91
  2455826
 92
 54000000
292
     0
 70
     2
 71
   256
280
     1
  0
DICTIONARY
  5
D
102
{ACAD_REACTORS
330
C
102
}
330
C
100
AcDbDictionary
281
     1
  0
DICTIONARY
  5
1A
102
{ACAD_REACTORS
330
C
102
}
330
C
100
AcDbDictionary
281
     1
  3
Layout1
350
1E
  3
Layout2
350
26
  3
Model
350
22
  0
DICTIONARY
  5
3B
102
{ACAD_REACTORS
330
C
102
}
330
C
100
AcDbDictionary
281
     1
  3
ByBlock
350
3D
  3
ByLayer
350
3C
  3
Global
350
3E
  0
DICTIONARY
  5
55
102
{ACAD_REACTORS
330
C
102
}
330
C
100
AcDbDictionary
281
     1
  0
DICTIONARY
  5
17
102
{ACAD_REACTORS
330
C
102
}
330
C
100
AcDbDictionary
281
     1
  3
Standard
350
18
  0
DICTIONARY
  5
19
102
{ACAD_REACTORS
330
C
102
}
330
C
100
AcDbDictionary
281
     1
  0
ACDBDICTIONARYWDFLT
  5
E
102
{ACAD_REACTORS
330
C
102
}
330
C
100
AcDbDictionary
281
     1
  3
Normal
350
F
100
AcDbDictionaryWithDefault
340
F
  0
DICTIONARY
  5
54
102
{ACAD_REACTORS
330
C
102
}
330
C
100
AcDbDictionary
281
     1
  0
DICTIONARY
  5
2A
102
{ACAD_REACTORS
330
C
102
}
330
C
100
AcDbDictionary
281
     1
  3
2dWireframe
350
2F
  3
3D Hidden
350
31
  3
3dWireframe
350
30
  3
Basic
350
32
  3
Brighten
350
36
  3
ColorChange
350
3A
  3
Conceptual
350
34
  3
Dim
350
35
  3
Facepattern
350
39
  3
Flat
350
2B
  3
FlatWithEdges
350
2C
  3
Gouraud
350
2D
  3
GouraudWithEdges
350
2E
  3
Linepattern
350
38
  3
Realistic
350
33
  3
Thicken
350
37
  0
LAYOUT
  5
1E
102
{ACAD_REACTORS
330
1A
102
}
330
1A
100
AcDbPlotSettings
  1

  2
none_device
  4

  6

 40
0.0
 41
0.0
 42
0.0
 43
0.0
 44
0.0
 45
0.0
 46
0.0
 47
0.0
 48
0.0
 49
0.0
140
0.0
141
0.0
142
1.0
143
1.0
 70
   688
 72
     0
 73
     0
 74
     5
  7

 75
    16
 76
     0
 77
     2
 78
   300
147
1.0
148
0.0
149
0.0
100
AcDbLayout
  1
Layout1
 70
     1
 71
     1
 10
0.0
 20
0.0
 11
12.0
 21
9.0
 12
0.0
 22
0.0
 32
0.0
 14
1.000000000000000E+20
 24
1.000000000000000E+20
 34
1.000000000000000E+20
 15
-1.000000000000000E+20
 25
-1.000000000000000E+20
 35
-1.000000000000000E+20
146
0.0
 13
0.0
 23
0.0
 33
0.0
 16
1.0
 26
0.0
 36
0.0
 17
0.0
 27
1.0
 37
0.0
 76
     0
330
1B
  0
LAYOUT
  5
26
102
{ACAD_REACTORS
330
1A
102
}
330
1A
100
AcDbPlotSettings
  1

  2
none_device
  4

  6

 40
0.0
 41
0.0
 42
0.0
 43
0.0
 44
0.0
 45
0.0
 46
0.0
 47
0.0
 48
0.0
 49
0.0
140
0.0
141
0.0
142
1.0
143
1.0
 70
   688
 72
     0
 73
     0
 74
     5
  7

 75
    16
 76
     0
 77
     2
 78
   300
147
1.0
148
0.0
149
0.0
100
AcDbLayout
  1
Layout2
 70
     1
 71
     2
 10
0.0
 20
0.0
 11
0.0
 21
0.0
 12
0.0
 22
0.0
 32
0.0
 14
0.0
 24
0.0
 34
0.0
 15
0.0
 25
0.0
 35
0.0
146
0.0
 13
0.0
 23
0.0
 33
0.0
 16
1.0
 26
0.0
 36
0.0
 17
0.0
 27
1.0
 37
0.0
 76
     0
330
23
  0
LAYOUT
  5
22
102
{ACAD_REACTORS
330
1A
102
}
330
1A
100
AcDbPlotSettings
  1

  2
none_device
  4

  6

 40
0.0
 41
0.0
 42
0.0
 43
0.0
 44
0.0
 45
0.0
 46
0.0
 47
0.0
 48
0.0
 49
0.0
140
0.0
141
0.0
142
1.0
143
1.0
 70
  1712
 72
     0
 73
     0
 74
     0
  7

 75
     0
 76
     0
 77
     2
 78
   300
147
1.0
148
0.0
149
0.0
100
AcDbLayout
  1
Model
 70
     1
 71
     0
 10
0.0
 20
0.0
 11
12.0
 21
9.0
 12
0.0
 22
0.0
 32
0.0
 14
1.000000000000000E+20
 24
1.000000000000000E+20
 34
1.000000000000000E+20
 15
-1.000000000000000E+20
 25
-1.000000000000000E+20
 35
-1.000000000000000E+20
146
0.0
 13
0.0
 23
0.0
 33
0.0
 16
1.0
 26
0.0
 36
0.0
 17
0.0
 27
1.0
 37
0.0
 76
     0
330
1F
331
29
  0
MATERIAL
  5
3D
102
{ACAD_REACTORS
330
3B
102
}
330
3B
100
AcDbMaterial
  1
ByBlock
 72
     1
 94
      127
  0
MATERIAL
  5
3C
102
{ACAD_REACTORS
330
3B
102
}
330
3B
100
AcDbMaterial
  1
ByLayer
 72
     1
 94
      127
  0
MATERIAL
  5
3E
102
{ACAD_REACTORS
330
3B
102
}
330
3B
100
AcDbMaterial
  1
Global
 72
     1
 94
      127
  0
MLINESTYLE
  5
18
102
{ACAD_REACTORS
330
17
102
}
330
17
100
AcDbMlineStyle
  2
Standard
 70
     0
  3

 62
   256
 51
90.0
 52
90.0
 71
     2
 49
0.5
 62
   256
  6
BYLAYER
 49
-0.5
 62
   256
  6
BYLAYER
  0
ACDBPLACEHOLDER
  5
F
102
{ACAD_REACTORS
330
E
102
}
330
E
  0
VISUALSTYLE
  5
2F
102
{ACAD_REACTORS
330
2A
102
}
330
2A
100
AcDbVisualStyle
  2
2dWireframe
 70
     4
177
     2
291
     0
 71
     0
176
     1
 72
     2
176
     1
 73
     0
176
     1
 90
        0
176
     1
 40
-0.6
176
     1
 41
-30.0
176
     1
 62
     5
 63
     7
421
 16777215
176
     1
 74
     1
176
     1
 91
        4
176
     1
 64
     7
176
     1
 65
   257
176
     1
 75
     1
176
     1
175
     1
176
     1
 42
1.0
176
     1
 92
        0
176
     1
 66
   257
176
     1
 43
1.0
176
     1
 76
     1
176
     1
 77
     6
176
     1
 78
     2
176
     1
 67
     7
176
     1
 79
     5
176
     1
170
     0
176
     1
171
     0
176
     1
290
     0
176
     1
 93
        1
176
     1
 44
0.0
176
     1
173
     0
176
     1
  0
VISUALSTYLE
  5
31
102
{ACAD_REACTORS
330
2A
102
}
330
2A
100
AcDbVisualStyle
  2
3D Hidden
 70
     6
177
     2
291
     0
 71
     1
176
     1
 72
     2
176
     1
 73
     2
176
     1
 90
        0
176
     1
 40
-0.6
176
     1
 41
-30.0
176
     1
 62
     5
 63
     7
421
 16777215
176
     1
 74
     2
176
     1
 91
        2
176
     1
 64
     7
176
     1
 65
   257
176
     1
 75
     2
176
     1
175
     1
176
     1
 42
40.0
176
     1
 92
        0
176
     1
 66
   257
176
     1
 43
1.0
176
     1
 76
     1
176
     1
 77
     6
176
     1
 78
     2
176
     1
 67
     7
176
     1
 79
     3
176
     1
170
     0
176
     1
171
     0
176
     1
290
     0
176
     1
 93
        1
176
     1
 44
0.0
176
     1
173
     0
176
     1
  0
VISUALSTYLE
  5
30
102
{ACAD_REACTORS
330
2A
102
}
330
2A
100
AcDbVisualStyle
  2
3dWireframe
 70
     5
177
     2
291
     0
 71
     0
176
     1
 72
     2
176
     1
 73
     0
176
     1
 90
        0
176
     1
 40
-0.6
176
     1
 41
-30.0
176
     1
 62
     5
 63
     7
421
 16777215
176
     1
 74
     1
176
     1
 91
        4
176
     1
 64
     7
176
     1
 65
   257
176
     1
 75
     1
176
     1
175
     1
176
     1
 42
1.0
176
     1
 92
        0
176
     1
 66
   257
176
     1
 43
1.0
176
     1
 76
     1
176
     1
 77
     6
176
     1
 78
     2
176
     1
 67
     7
176
     1
 79
     5
176
     1
170
     0
176
     1
171
     0
176
     1
290
     0
176
     1
 93
        1
176
     1
 44
0.0
176
     1
173
     0
176
     1
  0
VISUALSTYLE
  5
32
102
{ACAD_REACTORS
330
2A
102
}
330
2A
100
AcDbVisualStyle
  2
Basic
 70
     7
177
     2
291
     1
 71
     1
176
     1
 72
     0
176
     1
 73
     1
176
     1
 90
        0
176
     1
 40
-0.6
176
     1
 41
-30.0
176
     1
 62
     5
 63
     7
421
 16777215
176
     1
 74
     0
176
     1
 91
        4
176
     1
 64
     7
176
     1
 65
   257
176
     1
 75
     1
176
     1
175
     1
176
     1
 42
1.0
176
     1
 92
        8
176
     1
 66
     7
176
     1
 43
1.0
176
     1
 76
     1
176
     1
 77
     6
176
     1
 78
     2
176
     1
 67
     7
176
     1
 79
     5
176
     1
170
     0
176
     1
171
     0
176
     1
290
     0
176
     1
 93
        1
176
     1
 44
0.0
176
     1
173
     0
176
     1
  0
VISUALSTYLE
  5
36
102
{ACAD_REACTORS
330
2A
102
}
330
2A
100
AcDbVisualStyle
  2
Brighten
 70
    12
177
     2
291
     1
 71
     2
176
     1
 72
     2
176
     1
 73
     0
176
     1
 90
        0
176
     1
 40
-0.6
176
     1
 41
-30.0
176
     1
 62
     5
 63
     7
421
 16777215
176
     1
 74
     1
176
     1
 91
        4
176
     1
 64
     7
176
     1
 65
   257
176
     1
 75
     1
176
     1
175
     1
176
     1
 42
1.0
176
     1
 92
        8
176
     1
 66
     7
176
     1
 43
1.0
176
     1
 76
     1
176
     1
 77
     6
176
     1
 78
     2
176
     1
 67
     7
176
     1
 79
     5
176
     1
170
     0
176
     1
171
     0
176
     1
290
     0
176
     1
 93
        1
176
     1
 44
50.0
176
     1
173
     0
176
     1
  0
VISUALSTYLE
  5
3A
102
{ACAD_REACTORS
330
2A
102
}
330
2A
100
AcDbVisualStyle
  2
ColorChange
 70
    16
177
     2
291
     1
 71
     2
176
     1
 72
     2
176
     1
 73
     3
176
     1
 90
        0
176
     1
 40
-0.6
176
     1
 41
-30.0
176
     1
 62
     5
 63
     8
421
  8421504
176
     1
 74
     1
176
     1
 91
        4
176
     1
 64
     7
176
     1
 65
   257
176
     1
 75
     1
176
     1
175
     1
176
     1
 42
1.0
176
     1
 92
        8
176
     1
 66
     8
424
  8421504
176
     1
 43
1.0
176
     1
 76
     1
176
     1
 77
     6
176
     1
 78
     2
176
     1
 67
     7
176
     1
 79
     5
176
     1
170
     0
176
     1
171
     0
176
     1
290
     0
176
     1
 93
        1
176
     1
 44
0.0
176
     1
173
     0
176
     1
  0
VISUALSTYLE
  5
34
102
{ACAD_REACTORS
330
2A
102
}
330
2A
100
AcDbVisualStyle
  2
Conceptual
 70
     9
177
     2
291
     0
 71
     3
176
     1
 72
     2
176
     1
 73
     0
176
     1
 90
        0
176
     1
 40
-0.6
176
     1
 41
-30.0
176
     1
 62
     5
 63
     7
421
 16777215
176
     1
 74
     2
176
     1
 91
        2
176
     1
 64
     7
176
     1
 65
   257
176
     1
 75
     1
176
     1
175
     1
176
     1
 42
40.0
176
     1
 92
        8
176
     1
 66
     7
176
     1
 43
1.0
176
     1
 76
     1
176
     1
 77
     6
176
     1
 78
     2
176
     1
 67
     7
176
     1
 79
     3
176
     1
170
     0
176
     1
171
     0
176
     1
290
     0
176
     1
 93
        1
176
     1
 44
0.0
176
     1
173
     0
176
     1
  0
VISUALSTYLE
  5
35
102
{ACAD_REACTORS
330
2A
102
}
330
2A
100
AcDbVisualStyle
  2
Dim
 70
    11
177
     2
291
     1
 71
     2
176
     1
 72
     2
176
     1
 73
     0
176
     1
 90
        0
176
     1
 40
-0.6
176
     1
 41
-30.0
176
     1
 62
     5
 63
     7
421
 16777215
176
     1
 74
     1
176
     1
 91
        4
176
     1
 64
     7
176
     1
 65
   257
176
     1
 75
     1
176
     1
175
     1
176
     1
 42
1.0
176
     1
 92
        8
176
     1
 66
     7
176
     1
 43
1.0
176
     1
 76
     1
176
     1
 77
     6
176
     1
 78
     2
176
     1
 67
     7
176
     1
 79
     5
176
     1
170
     0
176
     1
171
     0
176
     1
290
     0
176
     1
 93
        1
176
     1
 44
-50.0
176
     1
173
     0
176
     1
  0
VISUALSTYLE
  5
39
102
{ACAD_REACTORS
330
2A
102
}
330
2A
100
AcDbVisualStyle
  2
Facepattern
 70
    15
177
     2
291
     1
 71
     2
176
     1
 72
     2
176
     1
 73
     0
176
     1
 90
        0
176
     1
 40
-0.6
176
     1
 41
-30.0
176
     1
 62
     5
 63
     7
421
 16777215
176
     1
 74
     1
176
     1
 91
        4
176
     1
 64
     7
176
     1
 65
   257
176
     1
 75
     1
176
     1
175
     1
176
     1
 42
1.0
176
     1
 92
        8
176
     1
 66
     7
176
     1
 43
1.0
176
     1
 76
     1
176
     1
 77
     6
176
     1
 78
     2
176
     1
 67
     7
176
     1
 79
     5
176
     1
170
     0
176
     1
171
     0
176
     1
290
     0
176
     1
 93
        1
176
     1
 44
0.0
176
     1
173
     0
176
     1
  0
VISUALSTYLE
  5
2B
102
{ACAD_REACTORS
330
2A
102
}
330
2A
100
AcDbVisualStyle
  2
Flat
 70
     0
177
     2
291
     1
 71
     2
176
     1
 72
     1
176
     1
 73
     1
176
     1
 90
        2
176
     1
 40
-0.6
176
     1
 41
30.0
176
     1
 62
     5
 63
     7
421
 16777215
176
     1
 74
     0
176
     1
 91
        4
176
     1
 64
     7
176
     1
 65
   257
176
     1
 75
     1
176
     1
175
     1
176
     1
 42
1.0
176
     1
 92
        8
176
     1
 66
     7
176
     1
 43
1.0
176
     1
 76
     1
176
     1
 77
     6
176
     1
 78
     2
176
     1
 67
     7
176
     1
 79
     5
176
     1
170
     0
176
     1
171
     0
176
     1
290
     0
176
     1
 93
       13
176
     1
 44
0.0
176
     1
173
     0
176
     1
  0
VISUALSTYLE
  5
2C
102
{ACAD_REACTORS
330
2A
102
}
330
2A
100
AcDbVisualStyle
  2
FlatWithEdges
 70
     1
177
     2
291
     1
 71
     2
176
     1
 72
     1
176
     1
 73
     1
176
     1
 90
        2
176
     1
 40
-0.6
176
     1
 41
30.0
176
     1
 62
     5
 63
     7
421
 16777215
176
     1
 74
     1
176
     1
 91
        4
176
     1
 64
     7
176
     1
 65
   257
176
     1
 75
     1
176
     1
175
     1
176
     1
 42
1.0
176
     1
 92
        0
176
     1
 66
   257
176
     1
 43
1.0
176
     1
 76
     1
176
     1
 77
     6
176
     1
 78
     2
176
     1
 67
     7
176
     1
 79
     5
176
     1
170
     0
176
     1
171
     0
176
     1
290
     0
176
     1
 93
       13
176
     1
 44
0.0
176
     1
173
     0
176
     1
  0
VISUALSTYLE
  5
2D
102
{ACAD_REACTORS
330
2A
102
}
330
2A
100
AcDbVisualStyle
  2
Gouraud
 70
     2
177
     2
291
     1
 71
     2
176
     1
 72
     2
176
     1
 73
     1
176
     1
 90
        2
176
     1
 40
-0.6
176
     1
 41
30.0
176
     1
 62
     5
 63
     7
421
 16777215
176
     1
 74
     0
176
     1
 91
        4
176
     1
 64
     7
176
     1
 65
   257
176
     1
 75
     1
176
     1
175
     1
176
     1
 42
1.0
176
     1
 92
        0
176
     1
 66
     7
176
     1
 43
1.0
176
     1
 76
     1
176
     1
 77
     6
176
     1
 78
     2
176
     1
 67
     7
176
     1
 79
     5
176
     1
170
     0
176
     1
171
     0
176
     1
290
     0
176
     1
 93
       13
176
     1
 44
0.0
176
     1
173
     0
176
     1
  0
VISUALSTYLE
  5
2E
102
{ACAD_REACTORS
330
2A
102
}
330
2A
100
AcDbVisualStyle
  2
GouraudWithEdges
 70
     3
177
     2
291
     1
 71
     2
176
     1
 72
     2
176
     1
 73
     1
176
     1
 90
        2
176
     1
 40
-0.6
176
     1
 41
30.0
176
     1
 62
     5
 63
     7
421
 16777215
176
     1
 74
     1
176
     1
 91
        4
176
     1
 64
     7
176
     1
 65
   257
176
     1
 75
     1
176
     1
175
     1
176
     1
 42
1.0
176
     1
 92
        0
176
     1
 66
   257
176
     1
 43
1.0
176
     1
 76
     1
176
     1
 77
     6
176
     1
 78
     2
176
     1
 67
     7
176
     1
 79
     5
176
     1
170
     0
176
     1
171
     0
176
     1
290
     0
176
     1
 93
       13
176
     1
 44
0.0
176
     1
173
     0
176
     1
  0
VISUALSTYLE
  5
38
102
{ACAD_REACTORS
330
2A
102
}
330
2A
100
AcDbVisualStyle
  2
Linepattern
 70
    14
177
     2
291
     1
 71
     2
176
     1
 72
     2
176
     1
 73
     0
176
     1
 90
        0
176
     1
 40
-0.6
176
     1
 41
-30.0
176
     1
 62
     5
 63
     7
421
 16777215
176
     1
 74
     1
176
     1
 91
        4
176
     1
 64
     7
176
     1
 65
   257
176
     1
 75
     7
176
     1
175
     7
176
     1
 42
1.0
176
     1
 92
        8
176
     1
 66
     7
176
     1
 43
1.0
176
     1
 76
     1
176
     1
 77
     6
176
     1
 78
     2
176
     1
 67
     7
176
     1
 79
     5
176
     1
170
     0
176
     1
171
     0
176
     1
290
     0
176
     1
 93
        1
176
     1
 44
0.0
176
     1
173
     0
176
     1
  0
VISUALSTYLE
  5
33
102
{ACAD_REACTORS
330
2A
102
}
330
2A
100
AcDbVisualStyle
  2
Realistic
 70
     8
177
     2
291
     0
 71
     2
176
     1
 72
     2
176
     1
 73
     0
176
     1
 90
        0
176
     1
 40
-0.6
176
     1
 41
-30.0
176
     1
 62
     5
 63
     7
421
 16777215
176
     1
 74
     1
176
     1
 91
        0
176
     1
 64
     7
176
     1
 65
   257
176
     1
 75
     1
176
     1
175
     1
176
     1
 42
1.0
176
     1
 92
        8
176
     1
 66
     8
424
  7895160
176
     1
 43
1.0
176
     1
 76
     1
176
     1
 77
     6
176
     1
 78
     2
176
     1
 67
     7
176
     1
 79
     5
176
     1
170
     0
176
     1
171
     0
176
     1
290
     0
176
     1
 93
       13
176
     1
 44
0.0
176
     1
173
     0
176
     1
  0
VISUALSTYLE
  5
37
102
{ACAD_REACTORS
330
2A
102
}
330
2A
100
AcDbVisualStyle
  2
Thicken
 70
    13
177
     2
291
     1
 71
     2
176
     1
 72
     2
176
     1
 73
     0
176
     1
 90
        0
176
     1
 40
-0.6
176
     1
 41
-30.0
176
     1
 62
     5
 63
     7
421
 16777215
176
     1
 74
     1
176
     1
 91
        4
176
     1
 64
     7
176
     1
 65
   257
176
     1
 75
     1
176
     1
175
     1
176
     1
 42
1.0
176
     1
 92
       12
176
     1
 66
     7
176
     1
 43
1.0
176
     1
 76
     1
176
     1
 77
     6
176
     1
 78
     2
176
     1
 67
     7
176
     1
 79
     5
176
     1
170
     0
176
     1
171
     0
176
     1
290
     0
176
     1
 93
        1
176
     1
 44
0.0
176
     1
173
     0
176
     1
  0
ENDSEC
  0
EOF
