0
SECTION
2
HEADER
9
$INSUNITS
70
4
9
$ACADVER
1
AC1014
9
$HANDSEED
5
FFFF
0
ENDSEC
0
SECTION
2
TABLES
0
TABLE
2
VPORT
5
8
100
AcDbSymbolTable
0
ENDTAB
0
TABLE
2
LTYPE
5
5
100
AcDbSymbolTable
0
LTYPE
5
14
100
AcDbSymbolTableRecord
100
AcDbLinetypeTableRecord
2
BYBLOCK
70
0
0
LTYPE
5
15
100
AcDbSymbolTableRecord
100
AcDbLinetypeTableRecord
2
BYLAYER
70
0
0
ENDTAB
0
TABLE
2
LAYER
5
2
100
AcDbSymbolTable
70
2
0
LAYER
5
50
100
AcDbSymbolTableRecord
100
AcDbLayerTableRecord
2
0
70
0
6
CONTINUOUS
0
ENDTAB
0
TABLE
2
STYLE
5
3
100
AcDbSymbolTable
70
1
0
STYLE
5
11
100
AcDbSymbolTableRecord
100
AcDbTextStyleTableRecord
2
STANDARD
70
0
0
ENDTAB
0
TABLE
2
VIEW
5
6
100
AcDbSymbolTable
70
0
0
ENDTAB
0
TABLE
2
UCS
5
7
100
AcDbSymbolTable
70
0
0
ENDTAB
0
TABLE
2
APPID
5
9
100
AcDbSymbolTable
70
2
0
APPID
5
12
100
AcDbSymbolTableRecord
100
AcDbRegAppTableRecord
2
ACAD
70
0
0
ENDTAB
0
TABLE
2
DIMSTYLE
5
A
100
AcDbSymbolTable
70
1
0
ENDTAB
0
TABLE
2
BLOCK_RECORD
5
1
100
AcDbSymbolTable
70
1
0
BLOCK_RECORD
5
1F
100
AcDbSymbolTableRecord
100
AcDbBlockTableRecord
2
*MODEL_SPACE
0
BLOCK_RECORD
5
1B
100
AcDbSymbolTableRecord
100
AcDbBlockTableRecord
2
*PAPER_SPACE
0
ENDTAB
0
ENDSEC
0
SECTION
2
BLOCKS
0
BLOCK
5
20
100
AcDbEntity
100
AcDbBlockBegin
2
*MODEL_SPACE
0
ENDBLK
5
21
100
AcDbEntity
100
AcDbBlockEnd
0
BLOCK
5
1C
100
AcDbEntity
100
AcDbBlockBegin
2
*PAPER_SPACE
0
ENDBLK
5
1D
100
AcDbEntity
100
AcDbBlockEnd
0
ENDSEC
0
SECTION
2
ENTITIES
0
LINE
5
100
100
AcDbEntity
8
0
100
AcDbLine
10
167.99999999999997
20
8.0000000000000071
30
0
11
167.99999999999997
21
71.999999999999957
31
0
0
LINE
5
101
100
AcDbEntity
8
0
100
AcDbLine
10
159.99999999999994
20
80
30
0
11
7.9999999999999547
21
80
31
0
0
LINE
5
102
100
AcDbEntity
8
0
100
AcDbLine
10
-5.2425384291249638e-014
20
72
30
0
11
-5.9674487573602164e-014
21
7.9999989122092288
31
0
0
ARC
5
103
100
AcDbEntity
8
0
100
AcDbCircle
10
7.9999999999999547
20
72
30
0
40
8.0000000000000071
100
AcDbArc
50
90
51
180
0
ARC
5
104
100
AcDbEntity
8
0
100
AcDbCircle
10
7.9999989122091684
20
7.9999989122092288
30
0
40
7.9999989122092288
100
AcDbArc
50
180
51
270
0
ARC
5
105
100
AcDbEntity
8
0
100
AcDbCircle
10
159.99999999999997
20
8.0000000000000071
30
0
40
7.9999999999999982
100
AcDbArc
50
-90
51
0
0
ARC
5
106
100
AcDbEntity
8
0
100
AcDbCircle
10
159.99999999999994
20
71.999999999999957
30
0
40
8.0000000000000426
100
AcDbArc
50
0
51
90
0
LWPOLYLINE
5
107
100
AcDbEntity
8
0
100
AcDbPolyline
90
4
70
1
43
0.0
10
15
20
11
42
-0.99999999999999989
10
5
20
10.999999999999996
10
5.0000000000000018
20
69
42
-0.99999999999999989
10
15.00000000000002
20
68.999999999999986
0
LINE
5
108
100
AcDbEntity
8
0
100
AcDbLine
10
0
20
0
30
0
11
7.9999989122091701
21
0
31
0
0
LINE
5
109
100
AcDbEntity
8
0
100
AcDbLine
10
0
20
0
30
0
11
-5.7176485768195562e-014
21
7.9999989122091719
31
0
0
LINE
5
110
100
AcDbEntity
8
0
100
AcDbLine
10
7.9999989122091701
20
0
30
0
11
159.99999999999997
21
8.8817841970012523e-015
31
0
0
LWPOLYLINE
5
111
100
AcDbEntity
8
0
100
AcDbPolyline
90
4
70
1
43
0.0
10
49.400000000000013
20
57.000000000000014
42
-0.99999999999999989
10
59.400000000000084
20
56.999999999999993
10
59.400000000000006
20
22.999999999999986
42
-0.99999999999999989
10
49.400000000000006
20
23.000000000000004
0
LWPOLYLINE
5
112
100
AcDbEntity
8
0
100
AcDbPolyline
90
4
70
1
43
0.0
10
34.600000000000115
20
57.000000000000021
42
-0.99999999999999989
10
44.600000000000087
20
56.999999999999964
10
44.599999999999994
20
22.999999999999964
42
-0.99999999999999989
10
34.600000000000001
20
23
0
LWPOLYLINE
5
113
100
AcDbEntity
8
0
100
AcDbPolyline
90
4
70
1
43
0.0
10
108.60000000000001
20
57.000000000000014
42
-0.99999999999999989
10
118.60000000000001
20
56.999999999999993
10
118.60000000000001
20
23
42
-0.99999999999999989
10
108.60000000000001
20
23
0
LWPOLYLINE
5
114
100
AcDbEntity
8
0
100
AcDbPolyline
90
4
70
1
43
0.0
10
123.40000000000002
20
56.999999999999972
42
-0.99999999999999989
10
133.39999999999984
20
57.000000000000028
10
133.40000000000001
20
23.000000000000007
42
-0.99999999999999989
10
123.40000000000002
20
23
0
LWPOLYLINE
5
115
100
AcDbEntity
8
0
100
AcDbPolyline
90
4
70
1
43
0.0
10
153.00000000000003
20
69
10
153.00000000000003
20
10.999999999999996
42
0.99999999999999989
10
163.00000000000006
20
10.999999999999979
10
163.00000000000026
20
68.999999999999972
42
0.99999999999999989
0
LWPOLYLINE
5
116
100
AcDbEntity
8
0
100
AcDbPolyline
90
4
70
1
43
0.0
10
64.200000000000017
20
69.000000000000014
42
-0.99999999999999989
10
74.200000000000031
20
68.999999999999986
10
74.200000000000031
20
11.000000000000005
42
-0.99999999999999989
10
64.200000000000003
20
11.000000000000005
0
LWPOLYLINE
5
117
100
AcDbEntity
8
0
100
AcDbPolyline
90
4
70
1
43
0.0
10
78.999999999999986
20
68.999999999999972
42
-0.99999999999999989
10
88.999999999999943
20
69.000000000000043
10
88.999999999999986
20
11.000000000000011
42
-0.99999999999999989
10
79.000000000000014
20
11.000000000000005
0
LWPOLYLINE
5
118
100
AcDbEntity
8
0
100
AcDbPolyline
90
4
70
1
43
0.0
10
93.800000000000011
20
69
42
-0.99999999999999989
10
103.79999999999994
20
69
10
103.80000000000001
20
11.000000000000005
42
-0.99999999999999989
10
93.800000000000011
20
11.000000000000005
0
LWPOLYLINE
5
119
100
AcDbEntity
8
0
100
AcDbPolyline
90
4
70
1
43
0.0
10
55.999999999999943
20
66.499999456104604
10
35.999999999999936
20
66.499999456104604
42
-0.99999999999999989
10
35.999999999999936
20
70.499999456104604
10
55.999999999999943
20
70.499999456104632
42
-0.99999999999999989
0
LWPOLYLINE
5
120
100
AcDbEntity
8
0
100
AcDbPolyline
90
4
70
1
43
0.0
10
19.799999999999986
20
62.499999999999972
42
-0.99999999999999989
10
29.800000000000004
20
62.500000000000007
10
29.800000000000008
20
17.5
42
-0.99999999999999989
10
19.800000000000001
20
17.5
0
LWPOLYLINE
5
121
100
AcDbEntity
8
0
100
AcDbPolyline
90
4
70
1
43
0.0
10
138.19999999999993
20
62.500000000000114
42
-0.99999999999999989
10
148.20000000000101
20
62.499999999999901
10
148.19999999999999
20
17.500000000000007
42
-0.99999999999999989
10
138.19999999999999
20
17.5
0
LWPOLYLINE
5
122
100
AcDbEntity
8
0
100
AcDbPolyline
90
4
70
1
43
0.0
10
111.9475478724007
20
70.49965608200381
10
131.99999999999994
20
70.499656082003796
42
-0.99999999999999989
10
131.99999999999994
20
66.499999999999986
10
111.99999999999994
20
66.499999999999972
42
-1.0132001463408375
0
LWPOLYLINE
5
123
100
AcDbEntity
8
0
100
AcDbPolyline
90
4
70
1
43
0.0
10
35.999999456104554
20
9.4999994561046037
42
-0.99999999999999989
10
35.999999456104554
20
13.499999456104607
10
55.999999456104561
20
13.499999456104605
42
-0.99999999999999989
10
55.999999456104561
20
9.4999994561046108
0
LWPOLYLINE
5
124
100
AcDbEntity
8
0
100
AcDbPolyline
90
4
70
1
43
0.0
10
111.99999945610458
20
9.499999999999913
42
-0.99999999999999989
10
111.99999945610458
20
13.499999999999911
10
131.99999945610458
20
13.499999999999979
42
-0.99999999999999989
10
131.99999945610458
20
9.499999999999913
0
CIRCLE
5
125
100
AcDbEntity
8
0
100
AcDbCircle
10
25.999999456104561
20
4.9999994561046073
30
0
40
1.9999999999999996
0
CIRCLE
5
126
100
AcDbEntity
8
0
100
AcDbCircle
10
141.99999945610458
20
4.9999999999999822
30
0
40
2.0000000000000013
0
CIRCLE
5
127
100
AcDbEntity
8
0
100
AcDbCircle
10
141.99999999999994
20
74.999999999999986
30
0
40
2.0000000000000053
0
CIRCLE
5
128
100
AcDbEntity
8
0
100
AcDbCircle
10
25.999999999999943
20
74.999999456104604
30
0
40
2.0000000000000009
0
ENDSEC
0
SECTION
2
OBJECTS
0
DICTIONARY
5
C
100
AcDbDictionary
3
ACAD_GROUP
350
D
3
ACAD_MLINESTYLE
350
17
0
DICTIONARY
5
D
100
AcDbDictionary
0
DICTIONARY
5
1A
330
C
100
AcDbDictionary
0
DICTIONARY
5
17
100
AcDbDictionary
0
ENDSEC
0
EOF
