  0
SECTION
  2
HEADER
  9
$ACADVER
  1
AC1024
  9
$ACADMAINTVER
 70
     6
  9
$DWGCODEPAGE
  3
UNDEFINED
  9
$INSBASE
 10
0.0
 20
0.0
 30
0.0
  9
$EXTMIN
 10
1.000000000000000E+20
 20
1.000000000000000E+20
 30
1.000000000000000E+20
  9
$EXTMAX
 10
-1.000000000000000E+20
 20
-1.000000000000000E+20
 30
-1.000000000000000E+20
  9
$LIMMIN
 10
0.0
 20
0.0
  9
$LIMMAX
 10
12.0
 20
9.0
  9
$ORTHOMODE
 70
     0
  9
$REGENMODE
 70
     1
  9
$FILLMODE
 70
     1
  9
$QTEXTMODE
 70
     0
  9
$MIRRTEXT
 70
     1
  9
$LTSCALE
 40
1.0
  9
$ATTMODE
 70
     1
  9
$TEXTSIZE
 40
0.2
  9
$TRACEWID
 40
0.05
  9
$TEXTSTYLE
  7
Standard
  9
$CLAYER
  8
0
  9
$CELTYPE
  6
ByLayer
  9
$CECOLOR
 62
   256
  9
$CELTSCALE
 40
1.0
  9
$DISPSILH
 70
     0
  9
$DIMSCALE
 40
1.0
  9
$DIMASZ
 40
0.18
  9
$DIMEXO
 40
0.0625
  9
$DIMDLI
 40
0.38
  9
$DIMRND
 40
0.0
  9
$DIMDLE
 40
0.0
  9
$DIMEXE
 40
0.18
  9
$DIMTP
 40
0.0
  9
$DIMTM
 40
0.0
  9
$DIMTXT
 40
0.18
  9
$DIMCEN
 40
0.09
  9
$DIMTSZ
 40
0.0
  9
$DIMTOL
 70
     0
  9
$DIMLIM
 70
     0
  9
$DIMTIH
 70
     1
  9
$DIMTOH
 70
     1
  9
$DIMSE1
 70
     0
  9
$DIMSE2
 70
     0
  9
$DIMTAD
 70
     0
  9
$DIMZIN
 70
     0
  9
$DIMBLK
  1

  9
$DIMASO
 70
     1
  9
$DIMSHO
 70
     1
  9
$DIMPOST
  1

  9
$DIMAPOST
  1

  9
$DIMALT
 70
     0
  9
$DIMALTD
 70
     2
  9
$DIMALTF
 40
25.4
  9
$DIMLFAC
 40
1.0
  9
$DIMTOFL
 70
     0
  9
$DIMTVP
 40
0.0
  9
$DIMTIX
 70
     0
  9
$DIMSOXD
 70
     0
  9
$DIMSAH
 70
     0
  9
$DIMBLK1
  1

  9
$DIMBLK2
  1

  9
$DIMSTYLE
  2
Standard
  9
$DIMCLRD
 70
     0
  9
$DIMCLRE
 70
     0
  9
$DIMCLRT
 70
     0
  9
$DIMTFAC
 40
1.0
  9
$DIMGAP
 40
0.09
  9
$DIMJUST
 70
     0
  9
$DIMSD1
 70
     0
  9
$DIMSD2
 70
     0
  9
$DIMTOLJ
 70
     1
  9
$DIMTZIN
 70
     0
  9
$DIMALTZ
 70
     0
  9
$DIMALTTZ
 70
     0
  9
$DIMUPT
 70
     0
  9
$DIMDEC
 70
     4
  9
$DIMTDEC
 70
     4
  9
$DIMALTU
 70
     2
  9
$DIMALTTD
 70
     2
  9
$DIMTXSTY
  7
Standard
  9
$DIMAUNIT
 70
     0
  9
$DIMADEC
 70
     0
  9
$DIMALTRND
 40
0.0
  9
$DIMAZIN
 70
     0
  9
$DIMDSEP
 70
    46
  9
$DIMATFIT
 70
     3
  9
$DIMFRAC
 70
     0
  9
$DIMLDRBLK
  1

  9
$DIMLUNIT
 70
     2
  9
$DIMLWD
 70
    -2
  9
$DIMLWE
 70
    -2
  9
$DIMTMOVE
 70
     0
  9
$DIMFXL
 40
1.0
  9
$DIMFXLON
 70
     0
  9
$DIMJOGANG
 40
0.7853981633974483
  9
$DIMTFILL
 70
     0
  9
$DIMTFILLCLR
 70
     0
  9
$DIMARCSYM
 70
     0
  9
$DIMLTYPE
  6

  9
$DIMLTEX1
  6

  9
$DIMLTEX2
  6

  9
$DIMTXTDIRECTION
 70
     0
  9
$LUNITS
 70
     2
  9
$LUPREC
 70
     4
  9
$SKETCHINC
 40
0.1
  9
$FILLETRAD
 40
0.5
  9
$AUNITS
 70
     0
  9
$AUPREC
 70
     0
  9
$MENU
  1
.
  9
$ELEVATION
 40
0.0
  9
$PELEVATION
 40
0.0
  9
$THICKNESS
 40
0.0
  9
$LIMCHECK
 70
     0
  9
$CHAMFERA
 40
0.5
  9
$CHAMFERB
 40
0.5
  9
$CHAMFERC
 40
1.0
  9
$CHAMFERD
 40
0.0
  9
$SKPOLY
 70
     0
  9
$TDCREATE
 40
2457699.591909711
  9
$TDUCREATE
 40
2457699.800243055
  9
$TDUPDATE
 40
2457699.591909711
  9
$TDUUPDATE
 40
2457699.800243055
  9
$TDINDWG
 40
0.0000000116
  9
$TDUSRTIMER
 40
0.0000000116
  9
$USRTIMER
 70
     1
  9
$ANGBASE
 50
0.0
  9
$ANGDIR
 70
     0
  9
$PDMODE
 70
     0
  9
$PDSIZE
 40
0.0
  9
$PLINEWID
 40
0.0
  9
$SPLFRAME
 70
     0
  9
$SPLINETYPE
 70
     6
  9
$SPLINESEGS
 70
     8
  9
$HANDSEED
  5
5B
  9
$SURFTAB1
 70
     6
  9
$SURFTAB2
 70
     6
  9
$SURFTYPE
 70
     6
  9
$SURFU
 70
     6
  9
$SURFV
 70
     6
  9
$UCSBASE
  2

  9
$UCSNAME
  2

  9
$UCSORG
 10
0.0
 20
0.0
 30
0.0
  9
$UCSXDIR
 10
1.0
 20
0.0
 30
0.0
  9
$UCSYDIR
 10
0.0
 20
1.0
 30
0.0
  9
$UCSORTHOREF
  2

  9
$UCSORTHOVIEW
 70
     0
  9
$UCSORGTOP
 10
0.0
 20
0.0
 30
0.0
  9
$UCSORGBOTTOM
 10
0.0
 20
0.0
 30
0.0
  9
$UCSORGLEFT
 10
0.0
 20
0.0
 30
0.0
  9
$UCSORGRIGHT
 10
0.0
 20
0.0
 30
0.0
  9
$UCSORGFRONT
 10
0.0
 20
0.0
 30
0.0
  9
$UCSORGBACK
 10
0.0
 20
0.0
 30
0.0
  9
$PUCSBASE
  2

  9
$PUCSNAME
  2

  9
$PUCSORG
 10
0.0
 20
0.0
 30
0.0
  9
$PUCSXDIR
 10
1.0
 20
0.0
 30
0.0
  9
$PUCSYDIR
 10
0.0
 20
1.0
 30
0.0
  9
$PUCSORTHOREF
  2

  9
$PUCSORTHOVIEW
 70
     0
  9
$PUCSORGTOP
 10
0.0
 20
0.0
 30
0.0
  9
$PUCSORGBOTTOM
 10
0.0
 20
0.0
 30
0.0
  9
$PUCSORGLEFT
 10
0.0
 20
0.0
 30
0.0
  9
$PUCSORGRIGHT
 10
0.0
 20
0.0
 30
0.0
  9
$PUCSORGFRONT
 10
0.0
 20
0.0
 30
0.0
  9
$PUCSORGBACK
 10
0.0
 20
0.0
 30
0.0
  9
$USERI1
 70
     0
  9
$USERI2
 70
     0
  9
$USERI3
 70
     0
  9
$USERI4
 70
     0
  9
$USERI5
 70
     0
  9
$USERR1
 40
0.0
  9
$USERR2
 40
0.0
  9
$USERR3
 40
0.0
  9
$USERR4
 40
0.0
  9
$USERR5
 40
0.0
  9
$WORLDVIEW
 70
     1
  9
$SHADEDGE
 70
     3
  9
$SHADEDIF
 70
    70
  9
$TILEMODE
 70
     1
  9
$MAXACTVP
 70
    64
  9
$PINSBASE
 10
0.0
 20
0.0
 30
0.0
  9
$PLIMCHECK
 70
     0
  9
$PEXTMIN
 10
1.000000000000000E+20
 20
1.000000000000000E+20
 30
1.000000000000000E+20
  9
$PEXTMAX
 10
-1.000000000000000E+20
 20
-1.000000000000000E+20
 30
-1.000000000000000E+20
  9
$PLIMMIN
 10
0.0
 20
0.0
  9
$PLIMMAX
 10
12.0
 20
9.0
  9
$UNITMODE
 70
     0
  9
$VISRETAIN
 70
     1
  9
$PLINEGEN
 70
     0
  9
$PSLTSCALE
 70
     1
  9
$TREEDEPTH
 70
  3020
  9
$CMLSTYLE
  2
Standard
  9
$CMLJUST
 70
     0
  9
$CMLSCALE
 40
1.0
  9
$PROXYGRAPHICS
 70
     1
  9
$MEASUREMENT
 70
     0
  9
$CELWEIGHT
370
    -1
  9
$ENDCAPS
280
     0
  9
$JOINSTYLE
280
     0
  9
$LWDISPLAY
290
     1
  9
$INSUNITS
 70
     1
  9
$HYPERLINKBASE
  1

  9
$STYLESHEET
  1

  9
$XEDIT
290
     1
  9
$CEPSNTYPE
380
     0
  9
$PSTYLEMODE
290
     1
  9
$FINGERPRINTGUID
  2
{DCBF1256-5DF2-9F24-18F9-DB135B4BA142}
  9
$VERSIONGUID
  2
{FAEB1C32-E019-11D5-929B-00C0DF256EC4}
  9
$EXTNAMES
290
     1
  9
$PSVPSCALE
 40
0.0
  9
$OLESTARTUP
290
     0
  9
$SORTENTS
280
   127
  9
$INDEXCTL
280
     0
  9
$HIDETEXT
280
     1
  9
$XCLIPFRAME
280
     2
  9
$HALOGAP
280
     0
  9
$OBSCOLOR
 70
   257
  9
$OBSLTYPE
280
     0
  9
$INTERSECTIONDISPLAY
280
     0
  9
$INTERSECTIONCOLOR
 70
   257
  9
$DIMASSOC
280
     2
  9
$PROJECTNAME
  1

  9
$CAMERADISPLAY
290
     0
  9
$LENSLENGTH
 40
50.0
  9
$CAMERAHEIGHT
 40
0.0
  9
$STEPSPERSEC
 40
2.0
  9
$STEPSIZE
 40
6.0
  9
$3DDWFPREC
 40
2.0
  9
$PSOLWIDTH
 40
0.25
  9
$PSOLHEIGHT
 40
4.0
  9
$LOFTANG1
 40
1.570796326794897
  9
$LOFTANG2
 40
1.570796326794897
  9
$LOFTMAG1
 40
0.0
  9
$LOFTMAG2
 40
0.0
  9
$LOFTPARAM
 70
     7
  9
$LOFTNORMALS
280
     1
  9
$LATITUDE
 40
37.795
  9
$LONGITUDE
 40
-122.394
  9
$NORTHDIRECTION
 40
0.0
  9
$TIMEZONE
 70
 -8000
  9
$LIGHTGLYPHDISPLAY
280
     1
  9
$TILEMODELIGHTSYNCH
280
     1
  9
$CMATERIAL
347
3C
  9
$SOLIDHIST
280
     1
  9
$SHOWHIST
280
     1
  9
$DWFFRAME
280
     2
  9
$DGNFRAME
280
     2
  9
$REALWORLDSCALE
290
     1
  9
$INTERFERECOLOR
 62
   256
  9
$CSHADOW
280
     0
  9
$SHADOWPLANELOCATION
 40
0.0
  0
ENDSEC
  0
SECTION
  2
CLASSES
  0
CLASS
  1
ACDBDICTIONARYWDFLT
  2
AcDbDictionaryWithDefault
  3
ObjectDBX Classes
 90
        0
 91
        4
280
     0
281
     0
  0
CLASS
  1
VISUALSTYLE
  2
AcDbVisualStyle
  3
ObjectDBX Classes
 90
     4095
 91
        4
280
     0
281
     0
  0
CLASS
  1
MATERIAL
  2
AcDbMaterial
  3
ObjectDBX Classes
 90
     1153
 91
        4
280
     0
281
     0
  0
CLASS
  1
SUN
  2
AcDbSun
  3
SCENEOE
 90
     1024
 91
        4
280
     0
281
     0
  0
ENDSEC
  0
SECTION
  2
TABLES
  0
TABLE
  2
VPORT
  5
8
330
0
100
AcDbSymbolTable
 70
     1
  0
VPORT
  5
29
330
8
100
AcDbSymbolTableRecord
100
AcDbViewportTableRecord
  2
*Active
 70
     0
 10
0.0
 20
0.0
 11
1.0
 21
1.0
 12
0.0
 22
0.0
 13
0.0
 23
0.0
 14
0.5
 24
0.5
 15
0.5
 25
0.5
 16
0.0
 26
0.0
 36
1.0
 17
57.0254886978078
 27
-43.38717460633527
 37
0.0
 40
86.77434921267054
 41
1.314339760890563
 42
50.0
 43
0.0
 44
0.0
 50
0.0
 51
0.0
 71
     0
 72
   100
 73
     1
 74
     3
 75
     0
 76
     0
 77
     0
 78
     0
281
     0
 65
     1
110
0.0
120
0.0
130
0.0
111
1.0
121
0.0
131
0.0
112
0.0
122
1.0
132
0.0
 79
     0
146
0.0
 60
     3
 61
     5
292
     1
282
     1
141
0.0
142
0.0
 63
   250
361
3F
  0
ENDTAB
  0
TABLE
  2
LTYPE
  5
5
330
0
100
AcDbSymbolTable
 70
     1
  0
LTYPE
  5
14
330
5
100
AcDbSymbolTableRecord
100
AcDbLinetypeTableRecord
  2
ByBlock
 70
     0
  3

 72
    65
 73
     0
 40
0.0
  0
LTYPE
  5
15
330
5
100
AcDbSymbolTableRecord
100
AcDbLinetypeTableRecord
  2
ByLayer
 70
     0
  3

 72
    65
 73
     0
 40
0.0
  0
LTYPE
  5
16
330
5
100
AcDbSymbolTableRecord
100
AcDbLinetypeTableRecord
  2
Continuous
 70
     0
  3
Solid line
 72
    65
 73
     0
 40
0.0
  0
ENDTAB
  0
TABLE
  2
LAYER
  5
2
330
0
100
AcDbSymbolTable
 70
     2
  0
LAYER
  5
10
330
2
100
AcDbSymbolTableRecord
100
AcDbLayerTableRecord
  2
0
 70
     0
 62
     7
  6
Continuous
370
    -3
390
F
347
3E
  0
LAYER
  5
40
330
2
100
AcDbSymbolTableRecord
100
AcDbLayerTableRecord
  2
Layer 1
 70
     0
 62
     7
  6
Continuous
370
    -3
390
F
347
3E
  0
ENDTAB
  0
TABLE
  2
STYLE
  5
3
330
0
100
AcDbSymbolTable
 70
     1
  0
STYLE
  5
11
330
3
100
AcDbSymbolTableRecord
100
AcDbTextStyleTableRecord
  2
Standard
 70
     0
 40
0.0
 41
1.0
 50
0.0
 71
     0
 42
0.2
  3
txt
  4

  0
ENDTAB
  0
TABLE
  2
VIEW
  5
6
330
0
100
AcDbSymbolTable
 70
     0
  0
ENDTAB
  0
TABLE
  2
UCS
  5
7
330
0
100
AcDbSymbolTable
 70
     0
  0
ENDTAB
  0
TABLE
  2
APPID
  5
9
330
0
100
AcDbSymbolTable
 70
     1
  0
APPID
  5
12
330
9
100
AcDbSymbolTableRecord
100
AcDbRegAppTableRecord
  2
ACAD
 70
     0
  0
ENDTAB
  0
TABLE
  2
DIMSTYLE
  5
A
330
0
100
AcDbSymbolTable
 70
     1
100
AcDbDimStyleTable
  0
DIMSTYLE
105
27
330
A
100
AcDbSymbolTableRecord
100
AcDbDimStyleTableRecord
  2
Standard
 70
     0
178
     0
340
11
  0
ENDTAB
  0
TABLE
  2
BLOCK_RECORD
  5
1
330
0
100
AcDbSymbolTable
 70
     1
  0
BLOCK_RECORD
  5
1F
330
1
100
AcDbSymbolTableRecord
100
AcDbBlockTableRecord
  2
*Model_Space
340
22
 70
     0
280
     1
281
     0
  0
BLOCK_RECORD
  5
1B
330
1
100
AcDbSymbolTableRecord
100
AcDbBlockTableRecord
  2
*Paper_Space
340
1E
 70
     0
280
     1
281
     0
  0
BLOCK_RECORD
  5
23
330
1
100
AcDbSymbolTableRecord
100
AcDbBlockTableRecord
  2
*Paper_Space0
340
26
 70
     0
280
     1
281
     0
  0
ENDTAB
  0
ENDSEC
  0
SECTION
  2
BLOCKS
  0
BLOCK
  5
20
330
1F
100
AcDbEntity
  8
0
100
AcDbBlockBegin
  2
*Model_Space
 70
     0
 10
0.0
 20
0.0
 30
0.0
  3
*Model_Space
  1

  0
ENDBLK
  5
21
330
1F
100
AcDbEntity
  8
0
100
AcDbBlockEnd
  0
BLOCK
  5
1C
330
1B
100
AcDbEntity
 67
     1
  8
0
100
AcDbBlockBegin
  2
*Paper_Space
 70
     0
 10
0.0
 20
0.0
 30
0.0
  3
*Paper_Space
  1

  0
ENDBLK
  5
1D
330
1B
100
AcDbEntity
 67
     1
  8
0
100
AcDbBlockEnd
  0
BLOCK
  5
24
330
23
100
AcDbEntity
  8
0
100
AcDbBlockBegin
  2
*Paper_Space0
 70
     0
 10
0.0
 20
0.0
 30
0.0
  3
*Paper_Space0
  1

  0
ENDBLK
  5
25
330
23
100
AcDbEntity
  8
0
100
AcDbBlockEnd
  0
ENDSEC
  0
SECTION
  2
ENTITIES
  0
SPLINE
  5
41
330
1F
100
AcDbEntity
  8
Layer 1
 62
     1
420
 16711680
370
     9
100
AcDbSpline
210
0.0
220
0.0
230
1.0
 70
    11
 71
     3
 72
   347
 73
   343
 74
     0
 42
0.0000000001
 43
0.0000000001
 12
1.0
 22
0.0
 32
0.0
 13
1.0
 23
0.0
 33
0.0
 40
0.0
 40
0.0
 40
0.0
 40
0.0
 40
1.0
 40
1.0
 40
1.0
 40
2.0
 40
2.0
 40
2.0
 40
3.0
 40
3.0
 40
3.0
 40
4.0
 40
4.0
 40
4.0
 40
5.0
 40
5.0
 40
5.0
 40
6.0
 40
6.0
 40
6.0
 40
7.0
 40
7.0
 40
7.0
 40
8.0
 40
8.0
 40
8.0
 40
9.0
 40
9.0
 40
9.0
 40
10.0
 40
10.0
 40
10.0
 40
11.0
 40
11.0
 40
11.0
 40
12.0
 40
12.0
 40
12.0
 40
13.0
 40
13.0
 40
13.0
 40
14.0
 40
14.0
 40
14.0
 40
15.0
 40
15.0
 40
15.0
 40
16.0
 40
16.0
 40
16.0
 40
17.0
 40
17.0
 40
17.0
 40
18.0
 40
18.0
 40
18.0
 40
19.0
 40
19.0
 40
19.0
 40
20.0
 40
20.0
 40
20.0
 40
21.0
 40
21.0
 40
21.0
 40
22.0
 40
22.0
 40
22.0
 40
23.0
 40
23.0
 40
23.0
 40
24.0
 40
24.0
 40
24.0
 40
25.0
 40
25.0
 40
25.0
 40
26.0
 40
26.0
 40
26.0
 40
27.0
 40
27.0
 40
27.0
 40
28.0
 40
28.0
 40
28.0
 40
29.0
 40
29.0
 40
29.0
 40
30.0
 40
30.0
 40
30.0
 40
31.0
 40
31.0
 40
31.0
 40
32.0
 40
32.0
 40
32.0
 40
33.0
 40
33.0
 40
33.0
 40
34.0
 40
34.0
 40
34.0
 40
35.0
 40
35.0
 40
35.0
 40
36.0
 40
36.0
 40
36.0
 40
37.0
 40
37.0
 40
37.0
 40
38.0
 40
38.0
 40
38.0
 40
39.0
 40
39.0
 40
39.0
 40
40.0
 40
40.0
 40
40.0
 40
41.0
 40
41.0
 40
41.0
 40
42.0
 40
42.0
 40
42.0
 40
43.0
 40
43.0
 40
43.0
 40
44.0
 40
44.0
 40
44.0
 40
45.0
 40
45.0
 40
45.0
 40
46.0
 40
46.0
 40
46.0
 40
47.0
 40
47.0
 40
47.0
 40
48.0
 40
48.0
 40
48.0
 40
49.0
 40
49.0
 40
49.0
 40
50.0
 40
50.0
 40
50.0
 40
51.0
 40
51.0
 40
51.0
 40
52.0
 40
52.0
 40
52.0
 40
53.0
 40
53.0
 40
53.0
 40
54.0
 40
54.0
 40
54.0
 40
55.0
 40
55.0
 40
55.0
 40
56.0
 40
56.0
 40
56.0
 40
57.0
 40
57.0
 40
57.0
 40
58.0
 40
58.0
 40
58.0
 40
59.0
 40
59.0
 40
59.0
 40
60.0
 40
60.0
 40
60.0
 40
61.0
 40
61.0
 40
61.0
 40
62.0
 40
62.0
 40
62.0
 40
63.0
 40
63.0
 40
63.0
 40
64.0
 40
64.0
 40
64.0
 40
65.0
 40
65.0
 40
65.0
 40
66.0
 40
66.0
 40
66.0
 40
67.0
 40
67.0
 40
67.0
 40
68.0
 40
68.0
 40
68.0
 40
69.0
 40
69.0
 40
69.0
 40
70.0
 40
70.0
 40
70.0
 40
71.0
 40
71.0
 40
71.0
 40
72.0
 40
72.0
 40
72.0
 40
73.0
 40
73.0
 40
73.0
 40
74.0
 40
74.0
 40
74.0
 40
75.0
 40
75.0
 40
75.0
 40
76.0
 40
76.0
 40
76.0
 40
77.0
 40
77.0
 40
77.0
 40
78.0
 40
78.0
 40
78.0
 40
79.0
 40
79.0
 40
79.0
 40
80.0
 40
80.0
 40
80.0
 40
81.0
 40
81.0
 40
81.0
 40
82.0
 40
82.0
 40
82.0
 40
83.0
 40
83.0
 40
83.0
 40
84.0
 40
84.0
 40
84.0
 40
85.0
 40
85.0
 40
85.0
 40
86.0
 40
86.0
 40
86.0
 40
87.0
 40
87.0
 40
87.0
 40
88.0
 40
88.0
 40
88.0
 40
89.0
 40
89.0
 40
89.0
 40
90.0
 40
90.0
 40
90.0
 40
91.0
 40
91.0
 40
91.0
 40
92.0
 40
92.0
 40
92.0
 40
93.0
 40
93.0
 40
93.0
 40
94.0
 40
94.0
 40
94.0
 40
95.0
 40
95.0
 40
95.0
 40
96.0
 40
96.0
 40
96.0
 40
97.0
 40
97.0
 40
97.0
 40
98.0
 40
98.0
 40
98.0
 40
99.0
 40
99.0
 40
99.0
 40
100.0
 40
100.0
 40
100.0
 40
101.0
 40
101.0
 40
101.0
 40
102.0
 40
102.0
 40
102.0
 40
103.0
 40
103.0
 40
103.0
 40
104.0
 40
104.0
 40
104.0
 40
105.0
 40
105.0
 40
105.0
 40
106.0
 40
106.0
 40
106.0
 40
107.0
 40
107.0
 40
107.0
 40
108.0
 40
108.0
 40
108.0
 40
109.0
 40
109.0
 40
109.0
 40
110.0
 40
110.0
 40
110.0
 40
111.0
 40
111.0
 40
111.0
 40
112.0
 40
112.0
 40
112.0
 40
113.0
 40
113.0
 40
113.0
 40
114.0
 40
114.0
 40
114.0
 40
114.0
 10
109.422261528634
 20
-72.92750377951118
 30
0.0
 10
109.5726184147184
 20
-73.0581374939425
 30
0.0
 10
109.6967064477277
 20
-73.16452634889637
 30
0.0
 10
109.3538763832518
 20
-72.8637049174937
 30
0.0
 10
109.1656019149829
 20
-72.70215147108227
 30
0.0
 10
109.2000098061418
 20
-72.73337264891735
 30
0.0
 10
109.2899698620004
 20
-72.81215767629566
 30
0.0
 10
107.5341686118783
 20
-71.33988913074565
 30
0.0
 10
105.4141742471014
 20
-70.30017796253377
 30
0.0
 10
103.3376571173037
 20
-69.4272752834833
 30
0.0
 10
101.0596862019887
 20
-68.46968775085719
 30
0.0
 10
98.86088538713744
 20
-67.3292757201942
 30
0.0
 10
96.80115407314219
 20
-65.96412653867216
 30
0.0
 10
92.18989554513806
 20
-62.90787557889016
 30
0.0
 10
87.86423283512194
 20
-59.25058301631392
 30
0.0
 10
83.54849631022182
 20
-55.78729246652193
 30
0.0
 10
82.59718526445882
 20
-55.02389696151577
 30
0.0
 10
81.23941643551929
 20
-53.80850367574168
 30
0.0
 10
80.08870115779446
 20
-52.75483811381465
 30
0.0
 10
78.71167293484068
 20
-51.49394652367539
 30
0.0
 10
77.62108945045767
 20
-49.95237399766847
 30
0.0
 10
76.88560758981136
 20
-48.23623858297802
 30
0.0
 10
76.88560758981136
 20
-48.23623858297802
 30
0.0
 10
76.86974807512935
 20
-48.19923280994455
 30
0.0
 10
76.86974807512935
 20
-48.19923280994455
 30
0.0
 10
76.76547162475372
 20
-47.93740152891409
 30
0.0
 10
76.65994108563399
 20
-47.52776944313335
 30
0.0
 10
76.58284542283008
 20
-47.19581187565471
 30
0.0
 10
76.50820846854751
 20
-46.87444098543148
 30
0.0
 10
76.65150148524988
 20
-46.54263306276561
 30
0.0
 10
76.93568055879247
 20
-46.37502584875639
 30
0.0
 10
76.93568055879247
 20
-46.37502584875639
 30
0.0
 10
77.5648555211469
 20
-46.00394200626992
 30
0.0
 10
77.5648555211469
 20
-46.00394200626992
 30
0.0
 10
78.03290990736825
 20
-45.72788617041493
 30
0.0
 10
78.66886244024303
 20
-46.01748643047337
 30
0.0
 10
78.69904746107146
 20
-46.5600457336726
 30
0.0
 10
78.6996032662268
 20
-46.57003602851144
 30
0.0
 10
78.69997564105238
 20
-46.58007528186288
 30
0.0
 10
78.70016127326042
 20
-46.59016018144202
 30
0.0
 10
78.70839745395011
 20
-47.03760977024265
 30
0.0
 10
79.05218705287248
 20
-47.40457851238174
 30
0.0
 10
79.49971243672229
 20
-47.40457850274631
 30
0.0
 10
79.49971243672229
 20
-47.40457850274631
 30
0.0
 10
80.10148449060831
 20
-47.40457848978976
 30
0.0
 10
80.10148449060831
 20
-47.40457848978976
 30
0.0
 10
80.54298803335243
 20
-47.40457848028395
 30
0.0
 10
80.90089736611375
 20
-47.04666913981679
 30
0.0
 10
80.90089736611375
 20
-46.60516559707267
 30
0.0
 10
80.90089736611375
 20
-46.60516559707267
 30
0.0
 10
80.90089736611375
 20
-40.16914587076284
 30
0.0
 10
80.90089736611375
 20
-40.16914587076284
 30
0.0
 10
80.90089736611375
 20
-39.72764232801872
 30
0.0
 10
80.54298803335243
 20
-39.36973298755155
 30
0.0
 10
80.10148449060831
 20
-39.36973297804575
 30
0.0
 10
80.10148449060831
 20
-39.36973297804575
 30
0.0
 10
79.49971243672229
 20
-39.3697329650892
 30
0.0
 10
79.49971243672229
 20
-39.3697329650892
 30
0.0
 10
79.05218705287248
 20
-39.36973295545376
 30
0.0
 10
78.70839745395011
 20
-39.73670169759286
 30
0.0
 10
78.70016127326042
 20
-40.18415128639316
 30
0.0
 10
78.69853397816429
 20
-40.27255786087401
 30
0.0
 10
78.68255610446074
 20
-40.3574566673277
 30
0.0
 10
78.65445899861247
 20
-40.43661636134848
 30
0.0
 10
78.50416131428803
 20
-40.86005921583306
 30
0.0
 10
77.97578254538779
 20
-41.01150905890398
 30
0.0
 10
77.58600165893306
 20
-40.78798253814637
 30
0.0
 10
77.58600165893306
 20
-40.78798253814637
 30
0.0
 10
76.93693945754926
 20
-40.41576670953032
 30
0.0
 10
76.93693945754926
 20
-40.41576670953032
 30
0.0
 10
76.62785650219087
 20
-40.23851779857172
 30
0.0
 10
76.4838312787829
 20
-39.87004374848882
 30
0.0
 10
76.59249077820834
 20
-39.53071711688786
 30
0.0
 10
76.70286111402018
 20
-39.18604781068062
 30
0.0
 10
76.84427549887998
 20
-38.76555399282942
 30
0.0
 10
76.95886838896341
 20
-38.49463567831037
 30
0.0
 10
76.95886838896341
 20
-38.49463567831037
 30
0.0
 10
77.0611015974882
 20
-38.25289763447974
 30
0.0
 10
77.0611015974882
 20
-38.25289763447974
 30
0.0
 10
77.72585430321394
 20
-36.68139579703625
 30
0.0
 10
78.72000120102312
 20
-35.27207182956089
 30
0.0
 10
79.97812854038959
 20
-34.11942900758343
 30
0.0
 10
81.13419492600552
 20
-33.06027746433693
 30
0.0
 10
82.56649337399814
 20
-31.77504152987091
 30
0.0
 10
83.54849631022182
 20
-30.98704053316036
 30
0.0
 10
87.86416828705032
 20
-27.52377147711652
 30
0.0
 10
92.18976644921298
 20
-23.86654346773041
 30
0.0
 10
96.80093901713953
 20
-20.81033552168025
 30
0.0
 10
98.8606260047588
 20
-19.44520948373448
 30
0.0
 10
101.0593711702796
 20
-18.30480140576977
 30
0.0
 10
103.3372889837109
 20
-17.34721588911948
 30
0.0
 10
105.4139315205212
 20
-16.47424198076175
 30
0.0
 10
107.5340770154215
 20
-15.43452067286378
 30
0.0
 10
109.2899698620004
 20
-13.96219685523341
 30
0.0
 10
109.2000098061418
 20
-14.04098188261172
 30
0.0
 10
109.1656019149829
 20
-14.07220306044679
 30
0.0
 10
109.3538763832518
 20
-13.91064961403536
 30
0.0
 10
109.6964911292599
 20
-13.61002196925375
 30
0.0
 10
109.5727906694927
 20
-13.71608784650588
 30
0.0
 10
109.422562974489
 20
-13.84659236985649
 30
0.0
 10
111.0893001702529
 20
-12.34356180518234
 30
0.0
 10
111.6324840690428
 20
-10.39841783051672
 30
0.0
 10
112.4652282433681
 20
-8.391025286801984
 30
0.0
 10
113.2543058324178
 20
-6.488945005701983
 30
0.0
 10
114.6363489500193
 20
-4.087928770950675
 30
0.0
 10
113.7813408461206
 20
-1.977786254388366
 30
0.0
 10
112.7248377200284
 20
0.6296342636229734
 30
0.0
 10
109.9795487870667
 20
0.0176130506683398
 30
0.0
 10
107.7609288264126
 20
-0.2892803615270723
 30
0.0
 10
105.3013675002589
 20
-0.6294835406954937
 30
0.0
 10
102.659000794919
 20
-0.67640143483524
 30
0.0
 10
100.4539674295849
 20
-1.928413729715379
 30
0.0
 10
98.28861725787142
 20
-3.157860649167132
 30
0.0
 10
96.97429179840184
 20
-5.066680398310153
 30
0.0
 10
95.48359898193422
 20
-6.967920937385625
 30
0.0
 10
93.95815376475916
 20
-8.913517080833687
 30
0.0
 10
92.33034614797862
 20
-10.78553890382488
 30
0.0
 10
90.52492232708666
 20
-12.47671474568724
 30
0.0
 10
86.71559412165878
 20
-16.04499392638155
 30
0.0
 10
82.34019366431079
 20
-19.05135650158482
 30
0.0
 10
78.236116008273
 20
-22.26606122625857
 30
0.0
 10
76.93028616413942
 20
-23.28889595708774
 30
0.0
 10
75.56442466100675
 20
-24.23567910270009
 30
0.0
 10
74.17106698607688
 20
-25.1477098498288
 30
0.0
 10
72.3317749291075
 20
-26.35162966100692
 30
0.0
 10
69.89151003824065
 20
-25.04724756668685
 30
0.0
 10
69.89151304501232
 20
-22.84897138236252
 30
0.0
 10
69.89151304501232
 20
-22.84897138236252
 30
0.0
 10
69.89153487732857
 20
-6.887179209880967
 30
0.0
 10
69.89153487732857
 20
-6.887179209880967
 30
0.0
 10
69.89153638190074
 20
-5.787173809871535
 30
0.0
 10
68.99153319472371
 20
-4.887169391681853
 30
0.0
 10
67.89152779471331
 20
-4.887169391681853
 30
0.0
 10
67.89152779471331
 20
-4.887169391681853
 30
0.0
 10
46.14152034029839
 20
-4.887169391681853
 30
0.0
 10
46.14152034029839
 20
-4.887169391681853
 30
0.0
 10
45.04151642415093
 20
-4.887169391681853
 30
0.0
 10
44.1415132368953
 20
-5.787172595802621
 30
0.0
 10
44.14151325750827
 20
-6.887176511950082
 30
0.0
 10
44.14151325750827
 20
-6.887176511950082
 30
0.0
 10
44.14151355660676
 20
-22.84841155434649
 30
0.0
 10
44.14151355660676
 20
-22.84841155434649
 30
0.0
 10
44.1415135977124
 20
-25.0419969282071
 30
0.0
 10
41.70633532805413
 20
-26.34348959876429
 30
0.0
 10
39.87110224387999
 20
-25.14193380764664
 30
0.0
 10
38.48078347217918
 20
-24.23167037242257
 30
0.0
 10
37.11789623239927
 20
-23.28671918324667
 30
0.0
 10
35.81488968695557
 20
-22.26606122625857
 30
0.0
 10
31.71083356276457
 20
-19.05135650158482
 30
0.0
 10
27.33539004172301
 20
-16.04499392638155
 30
0.0
 10
23.52606183629513
 20
-12.47671474568724
 30
0.0
 10
21.72065954724996
 20
-10.78553890382488
 30
0.0
 10
20.09285193046941
 20
-8.913517080833687
 30
0.0
 10
18.56740671329435
 20
-6.967920937385625
 30
0.0
 10
17.07671389682674
 20
-5.066680398310153
 30
0.0
 10
15.76236690551036
 20
-3.157860649167132
 30
0.0
 10
13.59703826564371
 20
-1.928413729715379
 30
0.0
 10
11.39200490030955
 20
-0.67640143483524
 30
0.0
 10
8.749616663122927
 20
-0.6294835406954937
 30
0.0
 10
6.290076868815936
 20
-0.2892803615270723
 30
0.0
 10
4.071435376315041
 20
0.0176130506683398
 30
0.0
 10
1.326167975200142
 20
0.6296342636229734
 30
0.0
 10
0.2696863809547138
 20
-1.977786254388366
 30
0.0
 10
-0.5853863184842958
 20
-4.087928770950675
 30
0.0
 10
0.7966998628108077
 20
-6.488945005701983
 30
0.0
 10
1.585755920013717
 20
-8.391025286801984
 30
0.0
 10
2.418478562492169
 20
-10.39841783051672
 30
0.0
 10
2.961683993128937
 20
-12.34356180518234
 30
0.0
 10
4.628421188892808
 20
-13.84659236985649
 30
0.0
 10
4.478215025735915
 20
-13.71608784650588
 30
0.0
 10
4.354536097815446
 20
-13.61002196925375
 30
0.0
 10
4.697150843823542
 20
-13.91064961403536
 30
0.0
 10
4.885425312092446
 20
-14.07220306044679
 30
0.0
 10
4.850974357239948
 20
-14.04098188261172
 30
0.0
 10
4.761057365074927
 20
-13.96219685523341
 30
0.0
 10
6.546652766637527
 20
-15.45942908420304
 30
0.0
 10
8.463948598130838
 20
-16.26438375087488
 30
0.0
 10
10.56916622729507
 20
-17.14146964810744
 30
0.0
 10
12.86897609332932
 20
-18.09962749928205
 30
0.0
 10
15.07290632788357
 20
-19.27580462179307
 30
0.0
 10
17.14615468250495
 20
-20.65740990107362
 30
0.0
 10
21.70260649095132
 20
-23.6938130697071
 30
0.0
 10
25.98245286473074
 20
-27.3103922486578
 30
0.0
 10
30.25252464385831
 20
-30.73703426016514
 30
0.0
 10
31.29933820022183
 20
-31.577077272427
 30
0.0
 10
32.84554458540284
 20
-32.97102051253049
 30
0.0
 10
34.05082096421438
 20
-34.07972508106428
 30
0.0
 10
35.24223589281003
 20
-35.17567883704523
 30
0.0
 10
36.19529223814173
 20
-36.50439241614598
 30
0.0
 10
36.85451230878478
 20
-37.98290960096021
 30
0.0
 10
36.85451230878478
 20
-37.98290960096021
 30
0.0
 10
37.043475332536
 20
-38.40672114789615
 30
0.0
 10
37.043475332536
 20
-38.40672114789615
 30
0.0
 10
37.1758335355258
 20
-38.70357494942061
 30
0.0
 10
37.33340842234678
 20
-39.17330538247728
 30
0.0
 10
37.4514509871382
 20
-39.5463719141168
 30
0.0
 10
37.55774424416946
 20
-39.88230545476434
 30
0.0
 10
37.41802113404853
 20
-40.24642584873435
 30
0.0
 10
37.11452672730454
 20
-40.42542513727287
 30
0.0
 10
37.11452672730454
 20
-40.42542513727287
 30
0.0
 10
36.52766357467893
 20
-40.77155371313864
 30
0.0
 10
36.52766357467893
 20
-40.77155371313864
 30
0.0
 10
36.0596091884579
 20
-41.04760954899363
 30
0.0
 10
35.42365665558248
 20
-40.75800928893519
 30
0.0
 10
35.39347163475438
 20
-40.21544998573565
 30
0.0
 10
35.39291582959903
 20
-40.20545969089712
 30
0.0
 10
35.39254345477346
 20
-40.19542043754569
 30
0.0
 10
35.39235782256542
 20
-40.18533553796621
 30
0.0
 10
35.38412164187572
 20
-39.73788594916591
 30
0.0
 10
35.04033204295335
 20
-39.37091720702682
 30
0.0
 10
34.59280665910354
 20
-39.37091721666225
 30
0.0
 10
34.59280665910354
 20
-39.37091721666225
 30
0.0
 10
33.99103460521752
 20
-39.3709172296188
 30
0.0
 10
33.99103460521752
 20
-39.3709172296188
 30
0.0
 10
33.5495310624734
 20
-39.37091723912461
 30
0.0
 10
33.19162172971208
 20
-39.72882657959178
 30
0.0
 10
33.19162172971208
 20
-40.17033012233589
 30
0.0
 10
33.19162172971208
 20
-40.17033012233589
 30
0.0
 10
33.19162172971208
 20
-46.60634984864572
 30
0.0
 10
33.19162172971208
 20
-46.60634984864572
 30
0.0
 10
33.19162172971208
 20
-47.04785339138984
 30
0.0
 10
33.5495310624734
 20
-47.40576273185701
 30
0.0
 10
33.99103460521752
 20
-47.40576274136281
 30
0.0
 10
33.99103460521752
 20
-47.40576274136281
 30
0.0
 10
34.59280665910354
 20
-47.40576275431936
 30
0.0
 10
34.59280665910354
 20
-47.40576275431936
 30
0.0
 10
35.04033204295335
 20
-47.4057627639548
 30
0.0
 10
35.38412164187572
 20
-47.0387940218157
 30
0.0
 10
35.39235782256542
 20
-46.59134443301508
 30
0.0
 10
35.39477630778446
 20
-46.4599546229197
 30
0.0
 10
35.42889219410737
 20
-46.33631273248429
 30
0.0
 10
35.48738063762995
 20
-46.22774359886171
 30
0.0
 10
35.67684907264264
 20
-45.87604294486277
 30
0.0
 10
36.14214341827153
 20
-45.77950124701061
 30
0.0
 10
36.49153399603782
 20
-45.97319652846448
 30
0.0
 10
36.49153399603782
 20
-45.97319652846448
 30
0.0
 10
37.1386095487962
 20
-46.33192251963121
 30
0.0
 10
37.1386095487962
 20
-46.33192251963121
 30
0.0
 10
37.45556607217142
 20
-46.5076369976701
 30
0.0
 10
37.60382780403263
 20
-46.88273861163601
 30
0.0
 10
37.4910696933962
 20
-47.22715496430879
 30
0.0
 10
37.37190139952659
 20
-47.59115103427772
 30
0.0
 10
37.21746415496254
 20
-48.04057472447101
 30
0.0
 10
37.09276172982187
 20
-48.32818704032681
 30
0.0
 10
37.09276172982187
 20
-48.32818704032681
 30
0.0
 10
36.97879385874948
 20
-48.59100484626145
 30
0.0
 10
36.97879385874948
 20
-48.59100484626145
 30
0.0
 10
36.31372938928993
 20
-50.12468958586411
 30
0.0
 10
35.33328902336908
 20
-51.49983941954171
 30
0.0
 10
34.10088067917007
 20
-52.62929473170622
 30
0.0
 10
32.94097402910008
 20
-53.69230500237121
 30
0.0
 10
31.49242357834112
 20
-54.99286053691506
 30
0.0
 10
30.50246632131319
 20
-55.78729246652193
 30
0.0
 10
26.18677285646243
 20
-59.2505399555433
 30
0.0
 10
21.86117473833378
 20
-62.90781098953195
 30
0.0
 10
17.24998079704151
 20
-65.96404042080015
 30
0.0
 10
15.19024325548991
 20
-67.32920323444952
 30
0.0
 10
12.99143290751312
 20
-68.46962468206291
 30
0.0
 10
10.71345208806854
 20
-69.427221483483
 30
0.0
 10
8.636900094121591
 20
-70.30014347229583
 30
0.0
 10
6.516872907897381
 20
-71.33985213718104
 30
0.0
 10
4.761057365074927
 20
-72.81215767629566
 30
0.0
 10
4.850974357239948
 20
-72.73337264891735
 30
0.0
 10
4.885425312092446
 20
-72.70215147108227
 30
0.0
 10
4.697150843823542
 20
-72.8637049174937
 30
0.0
 10
4.354277715654052
 20
-73.16452634889637
 30
0.0
 10
4.478387280510177
 20
-73.0581374939425
 30
0.0
 10
4.628765698441333
 20
-72.92750377951118
 30
0.0
 10
2.961770120516068
 20
-74.43059893972568
 30
0.0
 10
2.4185646898793
 20
-76.37585057362523
 30
0.0
 10
1.585755920013717
 20
-78.3833292447271
 30
0.0
 10
0.7966998628108077
 20
-80.28540952582709
 30
0.0
 10
-0.5853863184842958
 20
-82.6864257605784
 30
0.0
 10
0.2696863809547138
 20
-84.79656827714071
 30
0.0
 10
1.326167975200142
 20
-87.40398879515205
 30
0.0
 10
4.071435376315041
 20
-86.79196758219742
 30
0.0
 10
6.290076868815936
 20
-86.48509570184878
 30
0.0
 10
8.749616663122927
 20
-86.14487099083358
 30
0.0
 10
11.39200490030955
 20
-86.09795309669383
 30
0.0
 10
13.59703826564371
 20
-84.8459408018137
 30
0.0
 10
15.76236690551036
 20
-83.61649388236194
 30
0.0
 10
17.07671389682674
 20
-81.70765260137213
 30
0.0
 10
18.56740671329435
 20
-79.80641206229666
 30
0.0
 10
20.09285193046941
 20
-77.8608159188486
 30
0.0
 10
21.72065954724996
 20
-75.9887940958574
 30
0.0
 10
23.52606183629513
 20
-74.29761825399504
 30
0.0
 10
27.33539004172301
 20
-70.72936060514752
 30
0.0
 10
31.71083356276457
 20
-67.72297649809747
 30
0.0
 10
35.81488968695557
 20
-64.50827177342371
 30
0.0
 10
37.27685041634797
 20
-63.36309178011211
 30
0.0
 10
38.8140774944759
 20
-62.31327779385688
 30
0.0
 10
40.38091394137363
 20
-61.30079749116688
 30
0.0
 10
42.18193606402547
 20
-60.13698781115595
 30
0.0
 10
44.21617946745389
 20
-60.84808310650349
 30
0.0
 10
44.80697841213141
 20
-62.90941526424453
 30
0.0
 10
44.8369496927386
 20
-63.01398681956137
 30
0.0
 10
44.86746525043532
 20
-63.10546527173042
 30
0.0
 10
44.89840069813955
 20
-63.18113486511835
 30
0.0
 10
44.89840069813955
 20
-63.18113486511835
 30
0.0
 10
50.66505990351212
 20
-77.7859066238912
 30
0.0
 10
50.66505990351212
 20
-77.7859066238912
 30
0.0
 10
51.08133509736422
 20
-78.80410459455679
 30
0.0
 10
52.32193551344947
 20
-79.63717174658376
 30
0.0
 10
53.42195450188974
 20
-79.63717174658376
 30
0.0
 10
53.42195450188974
 20
-79.63717174658376
 30
0.0
 10
60.61111516496875
 20
-79.63717174658376
 30
0.0
 10
60.61111516496875
 20
-79.63717174658376
 30
0.0
 10
61.71111262156224
 20
-79.63717174658376
 30
0.0
 10
62.95171303764749
 20
-78.80410459455679
 30
0.0
 10
63.36800976334637
 20
-77.7859066238912
 30
0.0
 10
63.36800976334637
 20
-77.7859066238912
 30
0.0
 10
69.13464743687216
 20
-63.18111333327156
 30
0.0
 10
69.13464743687216
 20
-63.18111333327156
 30
0.0
 10
69.16588853357162
 20
-63.10465769276193
 30
0.0
 10
69.19672056742331
 20
-63.01196871608012
 30
0.0
 10
69.22701436605948
 20
-62.90590970296743
 30
0.0
 10
69.81705546755191
 20
-60.84016754657807
 30
0.0
 10
71.85350030277147
 20
-60.12724531710616
 30
0.0
 10
73.65804697816111
 20
-61.29302851070445
 30
0.0
 10
75.2290490649953
 20
-62.30793594142716
 30
0.0
 10
76.77042532676641
 20
-63.36019764045197
 30
0.0
 10
78.236116008273
 20
-64.50827177342371
 30
0.0
 10
82.34019366431079
 20
-67.72297649809747
 30
0.0
 10
86.71559412165878
 20
-70.72936060514752
 30
0.0
 10
90.52492232708666
 20
-74.29761825399504
 30
0.0
 10
92.33034614797862
 20
-75.9887940958574
 30
0.0
 10
93.95815376475916
 20
-77.8608159188486
 30
0.0
 10
95.48359898193422
 20
-79.80641206229666
 30
0.0
 10
96.97429179840184
 20
-81.70765260137213
 30
0.0
 10
98.28861725787142
 20
-83.61649388236194
 30
0.0
 10
100.4539674295849
 20
-84.8459408018137
 30
0.0
 10
102.659000794919
 20
-86.09795309669383
 30
0.0
 10
105.3013675002589
 20
-86.14487099083358
 30
0.0
 10
107.7609288264126
 20
-86.48509570184878
 30
0.0
 10
109.9795487870667
 20
-86.79196758219742
 30
0.0
 10
112.7248377200284
 20
-87.40398879515205
 30
0.0
 10
113.7813408461206
 20
-84.79656827714071
 30
0.0
 10
114.6363489500193
 20
-82.6864257605784
 30
0.0
 10
113.2543058324178
 20
-80.28540952582709
 30
0.0
 10
112.4652282433681
 20
-78.3833292447271
 30
0.0
 10
111.6324410053493
 20
-76.37585057362523
 30
0.0
 10
111.0892571065593
 20
-74.43059893972568
 30
0.0
 10
109.422261528634
 20
-72.92750377951118
 30
0.0
  0
SPLINE
  5
42
330
1F
100
AcDbEntity
  8
Layer 1
 62
     1
420
 16711680
370
     9
100
AcDbSpline
210
0.0
220
0.0
230
1.0
 70
    11
 71
     3
 72
    65
 73
    61
 74
     0
 42
0.0000000001
 43
0.0000000001
 12
1.0
 22
0.0
 32
0.0
 13
1.0
 23
0.0
 33
0.0
 40
0.0
 40
0.0
 40
0.0
 40
0.0
 40
1.0
 40
1.0
 40
1.0
 40
2.0
 40
2.0
 40
2.0
 40
3.0
 40
3.0
 40
3.0
 40
4.0
 40
4.0
 40
4.0
 40
5.0
 40
5.0
 40
5.0
 40
6.0
 40
6.0
 40
6.0
 40
7.0
 40
7.0
 40
7.0
 40
8.0
 40
8.0
 40
8.0
 40
9.0
 40
9.0
 40
9.0
 40
10.0
 40
10.0
 40
10.0
 40
11.0
 40
11.0
 40
11.0
 40
12.0
 40
12.0
 40
12.0
 40
13.0
 40
13.0
 40
13.0
 40
14.0
 40
14.0
 40
14.0
 40
15.0
 40
15.0
 40
15.0
 40
16.0
 40
16.0
 40
16.0
 40
17.0
 40
17.0
 40
17.0
 40
18.0
 40
18.0
 40
18.0
 40
19.0
 40
19.0
 40
19.0
 40
20.0
 40
20.0
 40
20.0
 40
20.0
 10
98.98846687385314
 20
-7.542971969414171
 30
0.0
 10
99.06139523890653
 20
-6.995524764961188
 30
0.0
 10
99.56431458421265
 20
-6.610858322186261
 30
0.0
 10
100.1117617886656
 20
-6.683786687239644
 30
0.0
 10
100.1117617886656
 20
-6.683786687239644
 30
0.0
 10
102.3018520523325
 20
-6.975521679299956
 30
0.0
 10
102.3018520523325
 20
-6.975521679299956
 30
0.0
 10
102.6276934896968
 20
-6.43761308297176
 30
0.0
 10
103.1470846977918
 20
-6.040307446135323
 30
0.0
 10
103.7515482325257
 20
-5.866674633678731
 30
0.0
 10
103.7515482325257
 20
-5.866674633678731
 30
0.0
 10
104.043283224586
 20
-3.676584370011843
 30
0.0
 10
104.043283224586
 20
-3.676584370011843
 30
0.0
 10
104.1162115896393
 20
-3.129137165558862
 30
0.0
 10
104.6191309349455
 20
-2.744449190937152
 30
0.0
 10
105.1665781393985
 20
-2.817377555990534
 30
0.0
 10
105.7140468756982
 20
-2.890305921043917
 30
0.0
 10
106.0987133184732
 20
-3.393225266350044
 30
0.0
 10
106.0257849534198
 20
-3.940672470803027
 30
0.0
 10
106.0257849534198
 20
-3.940672470803027
 30
0.0
 10
105.7340284295127
 20
-6.130762734469914
 30
0.0
 10
105.7340284295127
 20
-6.130762734469914
 30
0.0
 10
106.2719585576877
 20
-6.456582639987417
 30
0.0
 10
106.6692211308305
 20
-6.975995379929179
 30
0.0
 10
106.8428970069807
 20
-7.580458914663045
 30
0.0
 10
106.8428970069807
 20
-7.580458914663045
 30
0.0
 10
109.0329657388008
 20
-7.872193906723358
 30
0.0
 10
109.0329657388008
 20
-7.872193906723358
 30
0.0
 10
109.5804129432538
 20
-7.94512227177674
 30
0.0
 10
109.9650793860287
 20
-8.448041617082868
 30
0.0
 10
109.8921510209753
 20
-8.99548882153585
 30
0.0
 10
109.8192226559219
 20
-9.54291449414205
 30
0.0
 10
109.3163248424626
 20
-9.927602468763759
 30
0.0
 10
108.7688776380096
 20
-9.854674103710376
 30
0.0
 10
108.7688776380096
 20
-9.854674103710376
 30
0.0
 10
106.5788304380363
 20
-9.562917579803281
 30
0.0
 10
106.5788304380363
 20
-9.562917579803281
 30
0.0
 10
106.252989000672
 20
-10.10082617613148
 30
0.0
 10
105.7335762607302
 20
-10.49813181296792
 30
0.0
 10
105.1291127259964
 20
-10.67180768911807
 30
0.0
 10
105.1291127259964
 20
-10.67180768911807
 30
0.0
 10
104.8373562020893
 20
-12.8618548890914
 30
0.0
 10
104.8373562020893
 20
-12.8618548890914
 30
0.0
 10
104.7644278370359
 20
-13.40932362539116
 30
0.0
 10
104.2615300235766
 20
-13.79399006816609
 30
0.0
 10
103.7140612872768
 20
-13.7210617031127
 30
0.0
 10
103.1666140828238
 20
-13.64813333805932
 30
0.0
 10
102.7819476400489
 20
-13.14521399275319
 30
0.0
 10
102.8548760051023
 20
-12.59776678830021
 30
0.0
 10
102.8548760051023
 20
-12.59776678830021
 30
0.0
 10
103.1466109971626
 20
-10.40771958832689
 30
0.0
 10
103.1466109971626
 20
-10.40771958832689
 30
0.0
 10
102.6087024008344
 20
-10.08185661911582
 30
0.0
 10
102.2113967639979
 20
-9.562422347327276
 30
0.0
 10
102.0377424196946
 20
-8.958001876286975
 30
0.0
 10
102.0377424196946
 20
-8.958001876286975
 30
0.0
 10
99.84767368787446
 20
-8.66624535237988
 30
0.0
 10
99.84767368787446
 20
-8.66624535237988
 30
0.0
 10
99.30022648342148
 20
-8.593316987326498
 30
0.0
 10
98.91556004064655
 20
-8.090419173867152
 30
0.0
 10
98.98846687385314
 20
-7.542971969414171
 30
0.0
  0
SPLINE
  5
43
330
1F
100
AcDbEntity
  8
Layer 1
 62
     1
420
 16711680
370
     9
100
AcDbSpline
210
0.0
220
0.0
230
1.0
 70
    11
 71
     3
 72
    65
 73
    61
 74
     0
 42
0.0000000001
 43
0.0000000001
 12
1.0
 22
0.0
 32
0.0
 13
1.0
 23
0.0
 33
0.0
 40
0.0
 40
0.0
 40
0.0
 40
0.0
 40
1.0
 40
1.0
 40
1.0
 40
2.0
 40
2.0
 40
2.0
 40
3.0
 40
3.0
 40
3.0
 40
4.0
 40
4.0
 40
4.0
 40
5.0
 40
5.0
 40
5.0
 40
6.0
 40
6.0
 40
6.0
 40
7.0
 40
7.0
 40
7.0
 40
8.0
 40
8.0
 40
8.0
 40
9.0
 40
9.0
 40
9.0
 40
10.0
 40
10.0
 40
10.0
 40
11.0
 40
11.0
 40
11.0
 40
12.0
 40
12.0
 40
12.0
 40
13.0
 40
13.0
 40
13.0
 40
14.0
 40
14.0
 40
14.0
 40
15.0
 40
15.0
 40
15.0
 40
16.0
 40
16.0
 40
16.0
 40
17.0
 40
17.0
 40
17.0
 40
18.0
 40
18.0
 40
18.0
 40
19.0
 40
19.0
 40
19.0
 40
20.0
 40
20.0
 40
20.0
 40
20.0
 10
14.24049597490125
 20
-8.714541284713727
 30
0.0
 10
14.24049597490125
 20
-8.714541284713727
 30
0.0
 10
12.05047030677471
 20
-9.006383936007953
 30
0.0
 10
12.05047030677471
 20
-9.006383936007953
 30
0.0
 10
11.87683749431812
 20
-9.610825938895037
 30
0.0
 10
11.47955338932846
 20
-10.13028174253036
 30
0.0
 10
10.94164479300027
 20
-10.45616624358822
 30
0.0
 10
10.94164479300027
 20
-10.45616624358822
 30
0.0
 10
11.23350897614128
 20
-12.64621344356154
 30
0.0
 10
11.23350897614128
 20
-12.64621344356154
 30
0.0
 10
11.30645887304144
 20
-13.19366064801452
 30
0.0
 10
10.9218139621133
 20
-13.69657999332065
 30
0.0
 10
10.37436675766032
 20
-13.76952989022081
 30
0.0
 10
9.826919553207333
 20
-13.84250131896776
 30
0.0
 10
9.323978676054422
 20
-13.45785640803962
 30
0.0
 10
9.251028779154257
 20
-12.91038767173985
 30
0.0
 10
9.251028779154257
 20
-12.91038767173985
 30
0.0
 10
8.959164596013247
 20
-10.72036200361331
 30
0.0
 10
8.959164596013247
 20
-10.72036200361331
 30
0.0
 10
8.35470106127938
 20
-10.54670765930994
 30
0.0
 10
7.835245257644053
 20
-10.14942355432028
 30
0.0
 10
7.509403820279767
 20
-9.611536489838869
 30
0.0
 10
7.509403820279767
 20
-9.611536489838869
 30
0.0
 10
5.319356620306446
 20
-9.90340067297988
 30
0.0
 10
5.319356620306446
 20
-9.90340067297988
 30
0.0
 10
4.771909415853464
 20
-9.976350569880045
 30
0.0
 10
4.268968538700554
 20
-9.5917056589519
 30
0.0
 10
4.196018641800388
 20
-9.044279986345702
 30
0.0
 10
4.123068744900222
 20
-8.496832781892719
 30
0.0
 10
4.507713655828367
 20
-7.993891904739809
 30
0.0
 10
5.055160860281349
 20
-7.920942007839644
 30
0.0
 10
5.055160860281349
 20
-7.920942007839644
 30
0.0
 10
7.245229592101453
 20
-7.629077824698633
 30
0.0
 10
7.245229592101453
 20
-7.629077824698633
 30
0.0
 10
7.418883936404828
 20
-7.024614289964767
 30
0.0
 10
7.816124977700917
 20
-6.505201550023005
 30
0.0
 10
8.354033574029113
 20
-6.179338580811937
 30
0.0
 10
8.354033574029113
 20
-6.179338580811937
 30
0.0
 10
8.062169390888103
 20
-3.989269848991832
 30
0.0
 10
8.062169390888103
 20
-3.989269848991832
 30
0.0
 10
7.989219493987939
 20
-3.44182264453885
 30
0.0
 10
8.373864404916082
 20
-2.93888176738594
 30
0.0
 10
8.921311609369065
 20
-2.865931870485774
 30
0.0
 10
9.468758813822047
 20
-2.792981973585609
 30
0.0
 10
9.971699690974958
 20
-3.177626884513753
 30
0.0
 10
10.04464958787512
 20
-3.725074088966735
 30
0.0
 10
10.04464958787512
 20
-3.725074088966735
 30
0.0
 10
10.33651377101613
 20
-5.91514282078684
 30
0.0
 10
10.33651377101613
 20
-5.91514282078684
 30
0.0
 10
10.94097730575
 20
-6.088754101396648
 30
0.0
 10
11.46036851384498
 20
-6.486038206386303
 30
0.0
 10
11.78625301490283
 20
-7.023925270867717
 30
0.0
 10
11.78625301490283
 20
-7.023925270867717
 30
0.0
 10
13.97632174672293
 20
-6.73208261957349
 30
0.0
 10
13.97632174672293
 20
-6.73208261957349
 30
0.0
 10
14.52374741932913
 20
-6.659132722673324
 30
0.0
 10
15.02666676463526
 20
-7.043777633601469
 30
0.0
 10
15.09963819338221
 20
-7.591224838054451
 30
0.0
 10
15.17258809028237
 20
-8.13865051066065
 30
0.0
 10
14.78794317935423
 20
-8.64159138781356
 30
0.0
 10
14.24049597490125
 20
-8.714541284713727
 30
0.0
  0
SPLINE
  5
44
330
1F
100
AcDbEntity
  8
Layer 1
 62
     1
420
 16711680
370
     9
100
AcDbSpline
210
0.0
220
0.0
230
1.0
 70
    11
 71
     3
 72
    65
 73
    61
 74
     0
 42
0.0000000001
 43
0.0000000001
 12
1.0
 22
0.0
 32
0.0
 13
1.0
 23
0.0
 33
0.0
 40
0.0
 40
0.0
 40
0.0
 40
0.0
 40
1.0
 40
1.0
 40
1.0
 40
2.0
 40
2.0
 40
2.0
 40
3.0
 40
3.0
 40
3.0
 40
4.0
 40
4.0
 40
4.0
 40
5.0
 40
5.0
 40
5.0
 40
6.0
 40
6.0
 40
6.0
 40
7.0
 40
7.0
 40
7.0
 40
8.0
 40
8.0
 40
8.0
 40
9.0
 40
9.0
 40
9.0
 40
10.0
 40
10.0
 40
10.0
 40
11.0
 40
11.0
 40
11.0
 40
12.0
 40
12.0
 40
12.0
 40
13.0
 40
13.0
 40
13.0
 40
14.0
 40
14.0
 40
14.0
 40
15.0
 40
15.0
 40
15.0
 40
16.0
 40
16.0
 40
16.0
 40
17.0
 40
17.0
 40
17.0
 40
18.0
 40
18.0
 40
18.0
 40
19.0
 40
19.0
 40
19.0
 40
20.0
 40
20.0
 40
20.0
 40
20.0
 10
15.09894917428516
 20
-79.18168705974017
 30
0.0
 10
15.0258700863043
 20
-79.72909120049958
 30
0.0
 10
14.52284308176426
 20
-80.11360692034704
 30
0.0
 10
13.97541740915806
 20
-80.0405063005194
 30
0.0
 10
13.97541740915806
 20
-80.0405063005194
 30
0.0
 10
11.78545633657187
 20
-79.74810382120882
 30
0.0
 10
11.78545633657187
 20
-79.74810382120882
 30
0.0
 10
11.4594641762801
 20
-80.28590475830309
 30
0.0
 10
10.93990071341086
 20
-80.68303814036527
 30
0.0
 10
10.33539411498343
 20
-80.85652022989439
 30
0.0
 10
10.33539411498343
 20
-80.85652022989439
 30
0.0
 10
10.04297010382606
 20
-83.04650283432736
 30
0.0
 10
10.04297010382606
 20
-83.04650283432736
 30
0.0
 10
9.969891015845201
 20
-83.59392850693355
 30
0.0
 10
9.466842479458377
 20
-83.978444226781
 30
0.0
 10
8.919416806852178
 20
-83.90534360695335
 30
0.0
 10
8.371991134245977
 20
-83.83224298712571
 30
0.0
 10
7.98747541439853
 20
-83.32921598258567
 30
0.0
 10
8.060576034226175
 20
-82.78179030997947
 30
0.0
 10
8.060576034226175
 20
-82.78179030997947
 30
0.0
 10
8.352978513536756
 20
-80.59182923739328
 30
0.0
 10
8.352978513536756
 20
-80.59182923739328
 30
0.0
 10
7.815156044595691
 20
-80.26581554525472
 30
0.0
 10
7.418022662533516
 20
-79.7462520823855
 30
0.0
 10
7.244562104851187
 20
-79.14176701580485
 30
0.0
 10
7.244562104851187
 20
-79.14176701580485
 30
0.0
 10
5.054579500418213
 20
-78.84934300464748
 30
0.0
 10
5.054579500418213
 20
-78.84934300464748
 30
0.0
 10
4.507153827812014
 20
-78.77624238481984
 30
0.0
 10
4.122638107964566
 20
-78.2732153802798
 30
0.0
 10
4.195738727792211
 20
-77.72581123952037
 30
0.0
 10
4.268817815773073
 20
-77.17838556691417
 30
0.0
 10
4.771844820313115
 20
-76.79386984706673
 30
0.0
 10
5.319292024766098
 20
-76.86694893504759
 30
0.0
 10
5.319292024766098
 20
-76.86694893504759
 30
0.0
 10
7.50927462919907
 20
-77.15937294620495
 30
0.0
 10
7.50927462919907
 20
-77.15937294620495
 30
0.0
 10
7.835288321337619
 20
-76.62155047726388
 30
0.0
 10
8.354787188666512
 20
-76.2244386270485
 30
0.0
 10
8.959315318940726
 20
-76.05095653751938
 30
0.0
 10
8.959315318940726
 20
-76.05095653751938
 30
0.0
 10
9.25173933009809
 20
-73.86097393308641
 30
0.0
 10
9.25173933009809
 20
-73.86097393308641
 30
0.0
 10
9.324818418078952
 20
-73.3135482604802
 30
0.0
 10
9.827845422618994
 20
-72.92903254063276
 30
0.0
 10
10.37529262707198
 20
-73.0021331604604
 30
0.0
 10
10.92271829967818
 20
-73.07521224844128
 30
0.0
 10
11.30723401952562
 20
-73.5782392529813
 30
0.0
 10
11.23413339969798
 20
-74.1256864574343
 30
0.0
 10
11.23413339969798
 20
-74.1256864574343
 30
0.0
 10
10.9417309203874
 20
-76.31566906186727
 30
0.0
 10
10.9417309203874
 20
-76.31566906186727
 30
0.0
 10
11.47953185748168
 20
-76.64166122215903
 30
0.0
 10
11.87664370769707
 20
-77.1611816213347
 30
0.0
 10
12.05012579722619
 20
-77.76570975160892
 30
0.0
 10
12.05012579722619
 20
-77.76570975160892
 30
0.0
 10
14.24012993350594
 20
-78.05813376276629
 30
0.0
 10
14.24012993350594
 20
-78.05813376276629
 30
0.0
 10
14.78753407426536
 20
-78.13121285074715
 30
0.0
 10
15.1720497941128
 20
-78.63423985528719
 30
0.0
 10
15.09894917428516
 20
-79.18168705974017
 30
0.0
  0
SPLINE
  5
45
330
1F
100
AcDbEntity
  8
Layer 1
 62
     1
420
 16711680
370
     9
100
AcDbSpline
210
0.0
220
0.0
230
1.0
 70
    11
 71
     3
 72
    23
 73
    19
 74
     0
 42
0.0000000001
 43
0.0000000001
 12
1.0
 22
0.0
 32
0.0
 13
1.0
 23
0.0
 33
0.0
 40
0.0
 40
0.0
 40
0.0
 40
0.0
 40
1.0
 40
1.0
 40
1.0
 40
2.0
 40
2.0
 40
2.0
 40
3.0
 40
3.0
 40
3.0
 40
4.0
 40
4.0
 40
4.0
 40
5.0
 40
5.0
 40
5.0
 40
6.0
 40
6.0
 40
6.0
 40
6.0
 10
43.91919690199763
 20
-49.08537596429116
 30
0.0
 10
43.91919690199763
 20
-49.56951953920267
 30
0.0
 10
43.47148521184263
 20
-49.96200204235976
 30
0.0
 10
42.9192148737103
 20
-49.96200204235976
 30
0.0
 10
42.36692300373119
 20
-49.96200204235976
 30
0.0
 10
41.91921131357619
 20
-49.56951953920267
 30
0.0
 10
41.91921131357619
 20
-49.08537596429116
 30
0.0
 10
41.91921131357619
 20
-49.08537596429116
 30
0.0
 10
41.91921131357619
 20
-37.68897856723791
 30
0.0
 10
41.91921131357619
 20
-37.68897856723791
 30
0.0
 10
41.91921131357619
 20
-37.20481346047961
 30
0.0
 10
42.36692300373119
 20
-36.81233095732253
 30
0.0
 10
42.9192148737103
 20
-36.81233095732253
 30
0.0
 10
43.47148521184263
 20
-36.81233095732253
 30
0.0
 10
43.91919690199763
 20
-37.20481346047961
 30
0.0
 10
43.91919690199763
 20
-37.68897856723791
 30
0.0
 10
43.91919690199763
 20
-37.68897856723791
 30
0.0
 10
43.91919690199763
 20
-49.08537596429116
 30
0.0
 10
43.91919690199763
 20
-49.08537596429116
 30
0.0
  0
SPLINE
  5
46
330
1F
100
AcDbEntity
  8
Layer 1
 62
     1
420
 16711680
370
     9
100
AcDbSpline
210
0.0
220
0.0
230
1.0
 70
    11
 71
     3
 72
    17
 73
    13
 74
     0
 42
0.0000000001
 43
0.0000000001
 12
1.0
 22
0.0
 32
0.0
 13
1.0
 23
0.0
 33
0.0
 40
0.0
 40
0.0
 40
0.0
 40
0.0
 40
1.0
 40
1.0
 40
1.0
 40
2.0
 40
2.0
 40
2.0
 40
3.0
 40
3.0
 40
3.0
 40
4.0
 40
4.0
 40
4.0
 40
4.0
 10
66.5165901865501
 20
-6.76922505527384
 30
0.0
 10
67.34502799151878
 20
-6.76922505527384
 30
0.0
 10
68.01658476082788
 20
-7.44080335642973
 30
0.0
 10
68.01658476082788
 20
-8.26921962955162
 30
0.0
 10
68.01658476082788
 20
-9.097657434520292
 30
0.0
 10
67.34502799151878
 20
-9.769235735676181
 30
0.0
 10
66.5165901865501
 20
-9.769235735676181
 30
0.0
 10
65.68817391342822
 20
-9.769235735676181
 30
0.0
 10
65.01659561227233
 20
-9.097657434520292
 30
0.0
 10
65.01659561227233
 20
-8.26921962955162
 30
0.0
 10
65.01659561227233
 20
-7.44080335642973
 30
0.0
 10
65.68817391342822
 20
-6.76922505527384
 30
0.0
 10
66.5165901865501
 20
-6.76922505527384
 30
0.0
  0
SPLINE
  5
47
330
1F
100
AcDbEntity
  8
Layer 1
 62
     1
420
 16711680
370
     9
100
AcDbSpline
210
0.0
220
0.0
230
1.0
 70
    11
 71
     3
 72
    29
 73
    25
 74
     0
 42
0.0000000001
 43
0.0000000001
 12
1.0
 22
0.0
 32
0.0
 13
1.0
 23
0.0
 33
0.0
 40
0.0
 40
0.0
 40
0.0
 40
0.0
 40
1.0
 40
1.0
 40
1.0
 40
2.0
 40
2.0
 40
2.0
 40
3.0
 40
3.0
 40
3.0
 40
4.0
 40
4.0
 40
4.0
 40
5.0
 40
5.0
 40
5.0
 40
6.0
 40
6.0
 40
6.0
 40
7.0
 40
7.0
 40
7.0
 40
8.0
 40
8.0
 40
8.0
 40
8.0
 10
58.43715225454219
 20
-13.8801605189909
 30
0.0
 10
58.43715225454219
 20
-12.65999382550254
 30
0.0
 10
59.52031180695152
 20
-11.72419823247477
 30
0.0
 10
60.7275593923702
 20
-11.90136226780374
 30
0.0
 10
60.7275593923702
 20
-11.90136226780374
 30
0.0
 10
64.78887480069731
 20
-12.49740685044553
 30
0.0
 10
64.78887480069731
 20
-12.49740685044553
 30
0.0
 10
65.7707485458403
 20
-12.64151950096288
 30
0.0
 10
66.49846037155898
 20
-13.48382381525969
 30
0.0
 10
66.49846037155898
 20
-14.47620510163268
 30
0.0
 10
66.49846037155898
 20
-14.47620510163268
 30
0.0
 10
66.49846037155898
 20
-15.67309586874883
 30
0.0
 10
66.49846037155898
 20
-15.67309586874883
 30
0.0
 10
66.49846037155898
 20
-16.77765807686027
 30
0.0
 10
65.6030154594022
 20
-17.67308145717027
 30
0.0
 10
64.49845325129075
 20
-17.67308145717027
 30
0.0
 10
64.49845325129075
 20
-17.67308145717027
 30
0.0
 10
60.43713784296364
 20
-17.67308145717027
 30
0.0
 10
60.43713784296364
 20
-17.67308145717027
 30
0.0
 10
59.33257563485219
 20
-17.67308145717027
 30
0.0
 10
58.43715225454219
 20
-16.77765807686027
 30
0.0
 10
58.43715225454219
 20
-15.67309586874883
 30
0.0
 10
58.43715225454219
 20
-15.67309586874883
 30
0.0
 10
58.43715225454219
 20
-13.8801605189909
 30
0.0
 10
58.43715225454219
 20
-13.8801605189909
 30
0.0
  0
SPLINE
  5
48
330
1F
100
AcDbEntity
  8
Layer 1
 62
     1
420
 16711680
370
     9
100
AcDbSpline
210
0.0
220
0.0
230
1.0
 70
    11
 71
     3
 72
    29
 73
    25
 74
     0
 42
0.0000000001
 43
0.0000000001
 12
1.0
 22
0.0
 32
0.0
 13
1.0
 23
0.0
 33
0.0
 40
0.0
 40
0.0
 40
0.0
 40
0.0
 40
1.0
 40
1.0
 40
1.0
 40
2.0
 40
2.0
 40
2.0
 40
3.0
 40
3.0
 40
3.0
 40
4.0
 40
4.0
 40
4.0
 40
5.0
 40
5.0
 40
5.0
 40
6.0
 40
6.0
 40
6.0
 40
7.0
 40
7.0
 40
7.0
 40
8.0
 40
8.0
 40
8.0
 40
8.0
 10
58.43715225454219
 20
-24.02336136959095
 30
0.0
 10
58.43715225454219
 20
-22.9187991614795
 30
0.0
 10
59.33257563485219
 20
-22.02337578116951
 30
0.0
 10
60.43713784296364
 20
-22.02337578116951
 30
0.0
 10
60.43713784296364
 20
-22.02337578116951
 30
0.0
 10
64.49845325129075
 20
-22.02337578116951
 30
0.0
 10
64.49845325129075
 20
-22.02337578116951
 30
0.0
 10
65.6030154594022
 20
-22.02337578116951
 30
0.0
 10
66.49846037155898
 20
-22.9187991614795
 30
0.0
 10
66.49846037155898
 20
-24.02336136959095
 30
0.0
 10
66.49846037155898
 20
-24.02336136959095
 30
0.0
 10
66.49846037155898
 20
-26.88124032937995
 30
0.0
 10
66.49846037155898
 20
-26.88124032937995
 30
0.0
 10
66.49846037155898
 20
-27.9858025374914
 30
0.0
 10
65.6030154594022
 20
-28.88122591780139
 30
0.0
 10
64.49845325129075
 20
-28.88122591780139
 30
0.0
 10
64.49845325129075
 20
-28.88122591780139
 30
0.0
 10
60.43713784296364
 20
-28.88122591780139
 30
0.0
 10
60.43713784296364
 20
-28.88122591780139
 30
0.0
 10
59.33257563485219
 20
-28.88122591780139
 30
0.0
 10
58.43715225454219
 20
-27.9858025374914
 30
0.0
 10
58.43715225454219
 20
-26.88124032937995
 30
0.0
 10
58.43715225454219
 20
-26.88124032937995
 30
0.0
 10
58.43715225454219
 20
-24.02336136959095
 30
0.0
 10
58.43715225454219
 20
-24.02336136959095
 30
0.0
  0
SPLINE
  5
49
330
1F
100
AcDbEntity
  8
Layer 1
 62
     1
420
 16711680
370
     9
100
AcDbSpline
210
0.0
220
0.0
230
1.0
 70
    11
 71
     3
 72
    23
 73
    19
 74
     0
 42
0.0000000001
 43
0.0000000001
 12
1.0
 22
0.0
 32
0.0
 13
1.0
 23
0.0
 33
0.0
 40
0.0
 40
0.0
 40
0.0
 40
0.0
 40
1.0
 40
1.0
 40
1.0
 40
2.0
 40
2.0
 40
2.0
 40
3.0
 40
3.0
 40
3.0
 40
4.0
 40
4.0
 40
4.0
 40
5.0
 40
5.0
 40
5.0
 40
6.0
 40
6.0
 40
6.0
 40
6.0
 10
60.74077994629484
 20
-51.17908968175818
 30
0.0
 10
60.74077994629484
 20
-51.17908968175818
 30
0.0
 10
53.34691601585164
 20
-51.17908968175818
 30
0.0
 10
53.34691601585164
 20
-51.17908968175818
 30
0.0
 10
52.45601432336603
 20
-51.17908968175818
 30
0.0
 10
52.0098529261794
 20
-50.10195904644804
 30
0.0
 10
52.63981016750411
 20
-49.47200180512332
 30
0.0
 10
52.63981016750411
 20
-49.47200180512332
 30
0.0
 10
56.33674213272571
 20
-45.77504830805493
 30
0.0
 10
56.33674213272571
 20
-45.77504830805493
 30
0.0
 10
56.72726523782556
 20
-45.38452520295509
 30
0.0
 10
57.36043072432092
 20
-45.38452520295509
 30
0.0
 10
57.75095382942077
 20
-45.77504830805493
 30
0.0
 10
57.75095382942077
 20
-45.77504830805493
 30
0.0
 10
61.44788579464237
 20
-49.47200180512332
 30
0.0
 10
61.44788579464237
 20
-49.47200180512332
 30
0.0
 10
62.07786456781387
 20
-50.10195904644804
 30
0.0
 10
61.63168163878045
 20
-51.17908968175818
 30
0.0
 10
60.74077994629484
 20
-51.17908968175818
 30
0.0
  0
SPLINE
  5
4A
330
1F
100
AcDbEntity
  8
Layer 1
 62
     1
420
 16711680
370
     9
100
AcDbSpline
210
0.0
220
0.0
230
1.0
 70
    11
 71
     3
 72
    23
 73
    19
 74
     0
 42
0.0000000001
 43
0.0000000001
 12
1.0
 22
0.0
 32
0.0
 13
1.0
 23
0.0
 33
0.0
 40
0.0
 40
0.0
 40
0.0
 40
0.0
 40
1.0
 40
1.0
 40
1.0
 40
2.0
 40
2.0
 40
2.0
 40
3.0
 40
3.0
 40
3.0
 40
4.0
 40
4.0
 40
4.0
 40
5.0
 40
5.0
 40
5.0
 40
6.0
 40
6.0
 40
6.0
 40
6.0
 10
61.44788579464237
 20
-56.44177448133227
 30
0.0
 10
61.44788579464237
 20
-56.44177448133227
 30
0.0
 10
57.75095382942077
 20
-60.13870644655387
 30
0.0
 10
57.75095382942077
 20
-60.13870644655387
 30
0.0
 10
57.36043072432092
 20
-60.52922955165372
 30
0.0
 10
56.72726523782556
 20
-60.52922955165372
 30
0.0
 10
56.33674213272571
 20
-60.13870644655387
 30
0.0
 10
56.33674213272571
 20
-60.13870644655387
 30
0.0
 10
52.63981016750411
 20
-56.44177448133227
 30
0.0
 10
52.63981016750411
 20
-56.44177448133227
 30
0.0
 10
52.0098529261794
 20
-55.81181724000755
 30
0.0
 10
52.45601432336603
 20
-54.73466507285062
 30
0.0
 10
53.34691601585164
 20
-54.73466507285062
 30
0.0
 10
53.34691601585164
 20
-54.73466507285062
 30
0.0
 10
60.74077994629484
 20
-54.73466507285062
 30
0.0
 10
60.74077994629484
 20
-54.73466507285062
 30
0.0
 10
61.63168163878045
 20
-54.73466507285062
 30
0.0
 10
62.07786456781387
 20
-55.81181724000755
 30
0.0
 10
61.44788579464237
 20
-56.44177448133227
 30
0.0
  0
SPLINE
  5
4B
330
1F
100
AcDbEntity
  8
Layer 1
 62
     1
420
 16711680
370
     9
100
AcDbSpline
210
0.0
220
0.0
230
1.0
 70
    11
 71
     3
 72
    23
 73
    19
 74
     0
 42
0.0000000001
 43
0.0000000001
 12
1.0
 22
0.0
 32
0.0
 13
1.0
 23
0.0
 33
0.0
 40
0.0
 40
0.0
 40
0.0
 40
0.0
 40
1.0
 40
1.0
 40
1.0
 40
2.0
 40
2.0
 40
2.0
 40
3.0
 40
3.0
 40
3.0
 40
4.0
 40
4.0
 40
4.0
 40
5.0
 40
5.0
 40
5.0
 40
6.0
 40
6.0
 40
6.0
 40
6.0
 10
56.33674213272571
 20
-40.93776820536886
 30
0.0
 10
56.33674213272571
 20
-40.93776820536886
 30
0.0
 10
52.63981016750411
 20
-37.24083624014726
 30
0.0
 10
52.63981016750411
 20
-37.24083624014726
 30
0.0
 10
52.0098529261794
 20
-36.61085746697576
 30
0.0
 10
52.45601432336603
 20
-35.53372683166562
 30
0.0
 10
53.34691601585164
 20
-35.53372683166562
 30
0.0
 10
53.34691601585164
 20
-35.53372683166562
 30
0.0
 10
60.74077994629484
 20
-35.53372683166562
 30
0.0
 10
60.74077994629484
 20
-35.53372683166562
 30
0.0
 10
61.63168163878045
 20
-35.53372683166562
 30
0.0
 10
62.07786456781387
 20
-36.61085746697576
 30
0.0
 10
61.44788579464237
 20
-37.24083624014726
 30
0.0
 10
61.44788579464237
 20
-37.24083624014726
 30
0.0
 10
57.75095382942077
 20
-40.93776820536886
 30
0.0
 10
57.75095382942077
 20
-40.93776820536886
 30
0.0
 10
57.36043072432092
 20
-41.32829131046871
 30
0.0
 10
56.72726523782556
 20
-41.32829131046871
 30
0.0
 10
56.33674213272571
 20
-40.93776820536886
 30
0.0
  0
SPLINE
  5
4C
330
1F
100
AcDbEntity
  8
Layer 1
 62
     1
420
 16711680
370
     9
100
AcDbSpline
210
0.0
220
0.0
230
1.0
 70
    11
 71
     3
 72
    29
 73
    25
 74
     0
 42
0.0000000001
 43
0.0000000001
 12
1.0
 22
0.0
 32
0.0
 13
1.0
 23
0.0
 33
0.0
 40
0.0
 40
0.0
 40
0.0
 40
0.0
 40
1.0
 40
1.0
 40
1.0
 40
2.0
 40
2.0
 40
2.0
 40
3.0
 40
3.0
 40
3.0
 40
4.0
 40
4.0
 40
4.0
 40
5.0
 40
5.0
 40
5.0
 40
6.0
 40
6.0
 40
6.0
 40
7.0
 40
7.0
 40
7.0
 40
8.0
 40
8.0
 40
8.0
 40
8.0
 10
49.58969487963817
 20
-28.88122591780139
 30
0.0
 10
48.48511113967994
 20
-28.88122591780139
 30
0.0
 10
47.58968775936994
 20
-27.9858025374914
 30
0.0
 10
47.58968775936994
 20
-26.88124032937995
 30
0.0
 10
47.58968775936994
 20
-26.88124032937995
 30
0.0
 10
47.58968775936994
 20
-24.02336136959095
 30
0.0
 10
47.58968775936994
 20
-24.02336136959095
 30
0.0
 10
47.58968775936994
 20
-22.9187991614795
 30
0.0
 10
48.48511113967994
 20
-22.02337578116951
 30
0.0
 10
49.58969487963817
 20
-22.02337578116951
 30
0.0
 10
49.58969487963817
 20
-22.02337578116951
 30
0.0
 10
53.65101028796528
 20
-22.02337578116951
 30
0.0
 10
53.65101028796528
 20
-22.02337578116951
 30
0.0
 10
54.75559402792351
 20
-22.02337578116951
 30
0.0
 10
55.65101740823351
 20
-22.9187991614795
 30
0.0
 10
55.65101740823351
 20
-24.02336136959095
 30
0.0
 10
55.65101740823351
 20
-24.02336136959095
 30
0.0
 10
55.65101740823351
 20
-26.88124032937995
 30
0.0
 10
55.65101740823351
 20
-26.88124032937995
 30
0.0
 10
55.65101740823351
 20
-27.9858025374914
 30
0.0
 10
54.75559402792351
 20
-28.88122591780139
 30
0.0
 10
53.65101028796528
 20
-28.88122591780139
 30
0.0
 10
53.65101028796528
 20
-28.88122591780139
 30
0.0
 10
49.58969487963817
 20
-28.88122591780139
 30
0.0
 10
49.58969487963817
 20
-28.88122591780139
 30
0.0
  0
SPLINE
  5
4D
330
1F
100
AcDbEntity
  8
Layer 1
 62
     1
420
 16711680
370
     9
100
AcDbSpline
210
0.0
220
0.0
230
1.0
 70
    11
 71
     3
 72
    29
 73
    25
 74
     0
 42
0.0000000001
 43
0.0000000001
 12
1.0
 22
0.0
 32
0.0
 13
1.0
 23
0.0
 33
0.0
 40
0.0
 40
0.0
 40
0.0
 40
0.0
 40
1.0
 40
1.0
 40
1.0
 40
2.0
 40
2.0
 40
2.0
 40
3.0
 40
3.0
 40
3.0
 40
4.0
 40
4.0
 40
4.0
 40
5.0
 40
5.0
 40
5.0
 40
6.0
 40
6.0
 40
6.0
 40
7.0
 40
7.0
 40
7.0
 40
8.0
 40
8.0
 40
8.0
 40
8.0
 10
53.36061027040551
 20
-11.90136226780374
 30
0.0
 10
54.56785785582419
 20
-11.72419823247477
 30
0.0
 10
55.65101740823351
 20
-12.65999382550254
 30
0.0
 10
55.65101740823351
 20
-13.8801605189909
 30
0.0
 10
55.65101740823351
 20
-13.8801605189909
 30
0.0
 10
55.65101740823351
 20
-15.67309586874883
 30
0.0
 10
55.65101740823351
 20
-15.67309586874883
 30
0.0
 10
55.65101740823351
 20
-16.77765807686027
 30
0.0
 10
54.75559402792351
 20
-17.67308145717027
 30
0.0
 10
53.65101028796528
 20
-17.67308145717027
 30
0.0
 10
53.65101028796528
 20
-17.67308145717027
 30
0.0
 10
49.58969487963817
 20
-17.67308145717027
 30
0.0
 10
49.58969487963817
 20
-17.67308145717027
 30
0.0
 10
48.48511113967994
 20
-17.67308145717027
 30
0.0
 10
47.58968775936994
 20
-16.77765807686027
 30
0.0
 10
47.58968775936994
 20
-15.67309586874883
 30
0.0
 10
47.58968775936994
 20
-15.67309586874883
 30
0.0
 10
47.58968775936994
 20
-14.47620510163268
 30
0.0
 10
47.58968775936994
 20
-14.47620510163268
 30
0.0
 10
47.58968775936994
 20
-13.48382381525969
 30
0.0
 10
48.31739958508862
 20
-12.64151950096288
 30
0.0
 10
49.29927333023161
 20
-12.49740685044553
 30
0.0
 10
49.29927333023161
 20
-12.49740685044553
 30
0.0
 10
53.36061027040551
 20
-11.90136226780374
 30
0.0
 10
53.36061027040551
 20
-11.90136226780374
 30
0.0
  0
SPLINE
  5
4E
330
1F
100
AcDbEntity
  8
Layer 1
 62
     1
420
 16711680
370
     9
100
AcDbSpline
210
0.0
220
0.0
230
1.0
 70
    11
 71
     3
 72
    17
 73
    13
 74
     0
 42
0.0000000001
 43
0.0000000001
 12
1.0
 22
0.0
 32
0.0
 13
1.0
 23
0.0
 33
0.0
 40
0.0
 40
0.0
 40
0.0
 40
0.0
 40
1.0
 40
1.0
 40
1.0
 40
2.0
 40
2.0
 40
2.0
 40
3.0
 40
3.0
 40
3.0
 40
4.0
 40
4.0
 40
4.0
 40
4.0
 10
47.5165871395423
 20
-6.76922505527384
 30
0.0
 10
48.34504647635775
 20
-6.76922505527384
 30
0.0
 10
49.01658171382007
 20
-7.44080335642973
 30
0.0
 10
49.01658171382007
 20
-8.26921962955162
 30
0.0
 10
49.01658171382007
 20
-9.097657434520292
 30
0.0
 10
48.34504647635775
 20
-9.769235735676181
 30
0.0
 10
47.5165871395423
 20
-9.769235735676181
 30
0.0
 10
46.68817086642041
 20
-9.769235735676181
 30
0.0
 10
46.01659256526452
 20
-9.097657434520292
 30
0.0
 10
46.01659256526452
 20
-8.26921962955162
 30
0.0
 10
46.01659256526452
 20
-7.44080335642973
 30
0.0
 10
46.68817086642041
 20
-6.76922505527384
 30
0.0
 10
47.5165871395423
 20
-6.76922505527384
 30
0.0
  0
SPLINE
  5
4F
330
1F
100
AcDbEntity
  8
Layer 1
 62
     1
420
 16711680
370
     9
100
AcDbSpline
210
0.0
220
0.0
230
1.0
 70
    11
 71
     3
 72
    17
 73
    13
 74
     0
 42
0.0000000001
 43
0.0000000001
 12
1.0
 22
0.0
 32
0.0
 13
1.0
 23
0.0
 33
0.0
 40
0.0
 40
0.0
 40
0.0
 40
0.0
 40
1.0
 40
1.0
 40
1.0
 40
2.0
 40
2.0
 40
2.0
 40
3.0
 40
3.0
 40
3.0
 40
4.0
 40
4.0
 40
4.0
 40
4.0
 10
47.01661765724541
 20
-31.88717938791579
 30
0.0
 10
47.8450339303673
 20
-31.88717938791579
 30
0.0
 10
48.51661223152319
 20
-32.55875768907168
 30
0.0
 10
48.51661223152319
 20
-33.38717396219357
 30
0.0
 10
48.51661223152319
 20
-34.21561176716224
 30
0.0
 10
47.8450339303673
 20
-34.88716853647135
 30
0.0
 10
47.01661765724541
 20
-34.88716853647135
 30
0.0
 10
46.18815832042996
 20
-34.88716853647135
 30
0.0
 10
45.51662308296763
 20
-34.21561176716224
 30
0.0
 10
45.51662308296763
 20
-33.38717396219357
 30
0.0
 10
45.51662308296763
 20
-32.55875768907168
 30
0.0
 10
46.18815832042996
 20
-31.88717938791579
 30
0.0
 10
47.01661765724541
 20
-31.88717938791579
 30
0.0
  0
SPLINE
  5
50
330
1F
100
AcDbEntity
  8
Layer 1
 62
     1
420
 16711680
370
     9
100
AcDbSpline
210
0.0
220
0.0
230
1.0
 70
    11
 71
     3
 72
    17
 73
    13
 74
     0
 42
0.0000000001
 43
0.0000000001
 12
1.0
 22
0.0
 32
0.0
 13
1.0
 23
0.0
 33
0.0
 40
0.0
 40
0.0
 40
0.0
 40
0.0
 40
1.0
 40
1.0
 40
1.0
 40
2.0
 40
2.0
 40
2.0
 40
3.0
 40
3.0
 40
3.0
 40
4.0
 40
4.0
 40
4.0
 40
4.0
 10
47.01661765724541
 20
-54.88717514361328
 30
0.0
 10
46.18815832042996
 20
-54.88717514361328
 30
0.0
 10
45.51662308296763
 20
-54.21559684245739
 30
0.0
 10
45.51662308296763
 20
-53.3871805693355
 30
0.0
 10
45.51662308296763
 20
-52.55874276436683
 30
0.0
 10
46.18815832042996
 20
-51.88716446321094
 30
0.0
 10
47.01661765724541
 20
-51.88716446321094
 30
0.0
 10
47.8450339303673
 20
-51.88716446321094
 30
0.0
 10
48.51661223152319
 20
-52.55874276436683
 30
0.0
 10
48.51661223152319
 20
-53.3871805693355
 30
0.0
 10
48.51661223152319
 20
-54.21559684245739
 30
0.0
 10
47.8450339303673
 20
-54.88717514361328
 30
0.0
 10
47.01661765724541
 20
-54.88717514361328
 30
0.0
  0
SPLINE
  5
51
330
1F
100
AcDbEntity
  8
Layer 1
 62
     1
420
 16711680
370
     9
100
AcDbSpline
210
0.0
220
0.0
230
1.0
 70
    11
 71
     3
 72
    23
 73
    19
 74
     0
 42
0.0000000001
 43
0.0000000001
 12
1.0
 22
0.0
 32
0.0
 13
1.0
 23
0.0
 33
0.0
 40
0.0
 40
0.0
 40
0.0
 40
0.0
 40
1.0
 40
1.0
 40
1.0
 40
2.0
 40
2.0
 40
2.0
 40
3.0
 40
3.0
 40
3.0
 40
4.0
 40
4.0
 40
4.0
 40
5.0
 40
5.0
 40
5.0
 40
6.0
 40
6.0
 40
6.0
 40
6.0
 10
47.52013989426146
 20
-47.05335098785689
 30
0.0
 10
47.52013989426146
 20
-47.05335098785689
 30
0.0
 10
47.52013989426146
 20
-39.65948705741369
 30
0.0
 10
47.52013989426146
 20
-39.65948705741369
 30
0.0
 10
47.52013989426146
 20
-38.76856383308129
 30
0.0
 10
48.5972705295716
 20
-38.32240243589466
 30
0.0
 10
49.22722777089632
 20
-38.95238120906616
 30
0.0
 10
49.22722777089632
 20
-38.95238120906616
 30
0.0
 10
52.92415973611792
 20
-42.64931317428776
 30
0.0
 10
52.92415973611792
 20
-42.64931317428776
 30
0.0
 10
53.31470437306456
 20
-43.03983627938761
 30
0.0
 10
53.31470437306456
 20
-43.67300176588297
 30
0.0
 10
52.92415973611792
 20
-44.06352487098282
 30
0.0
 10
52.92415973611792
 20
-44.06352487098282
 30
0.0
 10
49.22722777089632
 20
-47.76045683620442
 30
0.0
 10
49.22722777089632
 20
-47.76045683620442
 30
0.0
 10
48.5972705295716
 20
-48.39041407752914
 30
0.0
 10
47.52013989426146
 20
-47.9442526803425
 30
0.0
 10
47.52013989426146
 20
-47.05335098785689
 30
0.0
  0
SPLINE
  5
52
330
1F
100
AcDbEntity
  8
Layer 1
 62
     1
420
 16711680
370
     9
100
AcDbSpline
210
0.0
220
0.0
230
1.0
 70
    11
 71
     3
 72
    17
 73
    13
 74
     0
 42
0.0000000001
 43
0.0000000001
 12
1.0
 22
0.0
 32
0.0
 13
1.0
 23
0.0
 33
0.0
 40
0.0
 40
0.0
 40
0.0
 40
0.0
 40
1.0
 40
1.0
 40
1.0
 40
2.0
 40
2.0
 40
2.0
 40
3.0
 40
3.0
 40
3.0
 40
4.0
 40
4.0
 40
4.0
 40
4.0
 10
57.04384798107324
 20
-76.56401738266021
 30
0.0
 10
56.21543170795135
 20
-76.56401738266021
 30
0.0
 10
55.54385340679546
 20
-75.89243908150432
 30
0.0
 10
55.54385340679546
 20
-75.06402280838243
 30
0.0
 10
55.54385340679546
 20
-74.23558500341376
 30
0.0
 10
56.21543170795135
 20
-73.56400670225787
 30
0.0
 10
57.04384798107324
 20
-73.56400670225787
 30
0.0
 10
57.87228578604191
 20
-73.56400670225787
 30
0.0
 10
58.5438640871978
 20
-74.23558500341376
 30
0.0
 10
58.5438640871978
 20
-75.06402280838243
 30
0.0
 10
58.5438640871978
 20
-75.89243908150432
 30
0.0
 10
57.87228578604191
 20
-76.56401738266021
 30
0.0
 10
57.04384798107324
 20
-76.56401738266021
 30
0.0
  0
SPLINE
  5
53
330
1F
100
AcDbEntity
  8
Layer 1
 62
     1
420
 16711680
370
     9
100
AcDbSpline
210
0.0
220
0.0
230
1.0
 70
    11
 71
     3
 72
    29
 73
    25
 74
     0
 42
0.0000000001
 43
0.0000000001
 12
1.0
 22
0.0
 32
0.0
 13
1.0
 23
0.0
 33
0.0
 40
0.0
 40
0.0
 40
0.0
 40
0.0
 40
1.0
 40
1.0
 40
1.0
 40
2.0
 40
2.0
 40
2.0
 40
3.0
 40
3.0
 40
3.0
 40
4.0
 40
4.0
 40
4.0
 40
5.0
 40
5.0
 40
5.0
 40
6.0
 40
6.0
 40
6.0
 40
7.0
 40
7.0
 40
7.0
 40
8.0
 40
8.0
 40
8.0
 40
8.0
 10
64.59663847262037
 20
-64.65404237614335
 30
0.0
 10
64.59663847262037
 20
-64.65404237614335
 30
0.0
 10
63.08727754499207
 20
-67.89579110037631
 30
0.0
 10
63.08727754499207
 20
-67.89579110037631
 30
0.0
 10
62.66940899447805
 20
-68.79328153797746
 30
0.0
 10
61.51751978713799
 20
-69.52760364065847
 30
0.0
 10
60.52752853575788
 20
-69.52760364065847
 30
0.0
 10
60.52752853575788
 20
-69.52760364065847
 30
0.0
 10
53.50132088913118
 20
-69.52760364065847
 30
0.0
 10
53.50132088913118
 20
-69.52760364065847
 30
0.0
 10
52.51128657405751
 20
-69.52760364065847
 30
0.0
 10
51.36480186025993
 20
-68.79080537559744
 30
0.0
 10
50.95354358670823
 20
-67.89025741575313
 30
0.0
 10
50.95354358670823
 20
-67.89025741575313
 30
0.0
 10
49.47813838145643
 20
-64.65959759261331
 30
0.0
 10
49.47813838145643
 20
-64.65959759261331
 30
0.0
 10
49.06688010790472
 20
-63.75904963276901
 30
0.0
 10
49.54040848235231
 20
-63.02225136770798
 30
0.0
 10
50.53039973373242
 20
-63.02225136770798
 30
0.0
 10
50.53039973373242
 20
-63.02225136770798
 30
0.0
 10
63.55639189084918
 20
-63.0222298358612
 30
0.0
 10
63.55639189084918
 20
-63.0222298358612
 30
0.0
 10
64.54638314222929
 20
-63.0222298358612
 30
0.0
 10
65.01448549128762
 20
-63.7565519385422
 30
0.0
 10
64.59663847262037
 20
-64.65404237614335
 30
0.0
  0
SPLINE
  5
54
330
1F
100
AcDbEntity
  8
Layer 1
 62
     1
420
 16711680
370
     9
100
AcDbSpline
210
0.0
220
0.0
230
1.0
 70
    11
 71
     3
 72
    23
 73
    19
 74
     0
 42
0.0000000001
 43
0.0000000001
 12
1.0
 22
0.0
 32
0.0
 13
1.0
 23
0.0
 33
0.0
 40
0.0
 40
0.0
 40
0.0
 40
0.0
 40
1.0
 40
1.0
 40
1.0
 40
2.0
 40
2.0
 40
2.0
 40
3.0
 40
3.0
 40
3.0
 40
4.0
 40
4.0
 40
4.0
 40
5.0
 40
5.0
 40
5.0
 40
6.0
 40
6.0
 40
6.0
 40
6.0
 10
61.16353622602856
 20
-44.06352487098282
 30
0.0
 10
60.77299158908193
 20
-43.67300176588297
 30
0.0
 10
60.77299158908193
 20
-43.03983627938761
 30
0.0
 10
61.16353622602856
 20
-42.64931317428776
 30
0.0
 10
61.16353622602856
 20
-42.64931317428776
 30
0.0
 10
64.86046819125016
 20
-38.95238120906616
 30
0.0
 10
64.86046819125016
 20
-38.95238120906616
 30
0.0
 10
65.49042543257488
 20
-38.32240243589466
 30
0.0
 10
66.5675775997318
 20
-38.76856383308129
 30
0.0
 10
66.5675775997318
 20
-39.65948705741369
 30
0.0
 10
66.5675775997318
 20
-39.65948705741369
 30
0.0
 10
66.5675775997318
 20
-47.05335098785689
 30
0.0
 10
66.5675775997318
 20
-47.05335098785689
 30
0.0
 10
66.5675775997318
 20
-47.9442526803425
 30
0.0
 10
65.49042543257488
 20
-48.39041407752914
 30
0.0
 10
64.86046819125016
 20
-47.76045683620442
 30
0.0
 10
64.86046819125016
 20
-47.76045683620442
 30
0.0
 10
61.16353622602856
 20
-44.06352487098282
 30
0.0
 10
61.16353622602856
 20
-44.06352487098282
 30
0.0
  0
SPLINE
  5
55
330
1F
100
AcDbEntity
  8
Layer 1
 62
     1
420
 16711680
370
     9
100
AcDbSpline
210
0.0
220
0.0
230
1.0
 70
    11
 71
     3
 72
    17
 73
    13
 74
     0
 42
0.0000000001
 43
0.0000000001
 12
1.0
 22
0.0
 32
0.0
 13
1.0
 23
0.0
 33
0.0
 40
0.0
 40
0.0
 40
0.0
 40
0.0
 40
1.0
 40
1.0
 40
1.0
 40
2.0
 40
2.0
 40
2.0
 40
3.0
 40
3.0
 40
3.0
 40
4.0
 40
4.0
 40
4.0
 40
4.0
 10
67.01660273254056
 20
-54.85799949122257
 30
0.0
 10
66.18818645941867
 20
-54.85799949122257
 30
0.0
 10
65.516586626416
 20
-54.18642119006668
 30
0.0
 10
65.516586626416
 20
-53.35800491694479
 30
0.0
 10
65.516586626416
 20
-52.5295886438229
 30
0.0
 10
66.18818645941867
 20
-51.85798881082022
 30
0.0
 10
67.01660273254056
 20
-51.85798881082022
 30
0.0
 10
67.84501900566245
 20
-51.85798881082022
 30
0.0
 10
68.51659730681834
 20
-52.5295886438229
 30
0.0
 10
68.51659730681834
 20
-53.35800491694479
 30
0.0
 10
68.51659730681834
 20
-54.18642119006668
 30
0.0
 10
67.84501900566245
 20
-54.85799949122257
 30
0.0
 10
67.01660273254056
 20
-54.85799949122257
 30
0.0
  0
SPLINE
  5
56
330
1F
100
AcDbEntity
  8
Layer 1
 62
     1
420
 16711680
370
     9
100
AcDbSpline
210
0.0
220
0.0
230
1.0
 70
    11
 71
     3
 72
    17
 73
    13
 74
     0
 42
0.0000000001
 43
0.0000000001
 12
1.0
 22
0.0
 32
0.0
 13
1.0
 23
0.0
 33
0.0
 40
0.0
 40
0.0
 40
0.0
 40
0.0
 40
1.0
 40
1.0
 40
1.0
 40
2.0
 40
2.0
 40
2.0
 40
3.0
 40
3.0
 40
3.0
 40
4.0
 40
4.0
 40
4.0
 40
4.0
 10
67.01660273254056
 20
-34.88716853647135
 30
0.0
 10
66.18816492757189
 20
-34.88716853647135
 30
0.0
 10
65.51660815826278
 20
-34.21561176716224
 30
0.0
 10
65.51660815826278
 20
-33.38717396219357
 30
0.0
 10
65.51660815826278
 20
-32.55875768907168
 30
0.0
 10
66.18816492757189
 20
-31.88717938791579
 30
0.0
 10
67.01660273254056
 20
-31.88717938791579
 30
0.0
 10
67.84501900566245
 20
-31.88717938791579
 30
0.0
 10
68.51659730681834
 20
-32.55875768907168
 30
0.0
 10
68.51659730681834
 20
-33.38717396219357
 30
0.0
 10
68.51659730681834
 20
-34.21561176716224
 30
0.0
 10
67.84501900566245
 20
-34.88716853647135
 30
0.0
 10
67.01660273254056
 20
-34.88716853647135
 30
0.0
  0
SPLINE
  5
57
330
1F
100
AcDbEntity
  8
Layer 1
 62
     1
420
 16711680
370
     9
100
AcDbSpline
210
0.0
220
0.0
230
1.0
 70
    11
 71
     3
 72
    23
 73
    19
 74
     0
 42
0.0000000001
 43
0.0000000001
 12
1.0
 22
0.0
 32
0.0
 13
1.0
 23
0.0
 33
0.0
 40
0.0
 40
0.0
 40
0.0
 40
0.0
 40
1.0
 40
1.0
 40
1.0
 40
2.0
 40
2.0
 40
2.0
 40
3.0
 40
3.0
 40
3.0
 40
4.0
 40
4.0
 40
4.0
 40
5.0
 40
5.0
 40
5.0
 40
6.0
 40
6.0
 40
6.0
 40
6.0
 10
72.16893681735273
 20
-49.08537596429116
 30
0.0
 10
72.16893681735273
 20
-49.56951953920267
 30
0.0
 10
71.72122512719774
 20
-49.96200204235976
 30
0.0
 10
71.16895478906541
 20
-49.96200204235976
 30
0.0
 10
70.6166629190863
 20
-49.96200204235976
 30
0.0
 10
70.16895122893129
 20
-49.56951953920267
 30
0.0
 10
70.16895122893129
 20
-49.08537596429116
 30
0.0
 10
70.16895122893129
 20
-49.08537596429116
 30
0.0
 10
70.16895122893129
 20
-37.68897856723791
 30
0.0
 10
70.16895122893129
 20
-37.68897856723791
 30
0.0
 10
70.16895122893129
 20
-37.20481346047961
 30
0.0
 10
70.6166629190863
 20
-36.81233095732253
 30
0.0
 10
71.16895478906541
 20
-36.81233095732253
 30
0.0
 10
71.72122512719774
 20
-36.81233095732253
 30
0.0
 10
72.16893681735273
 20
-37.20481346047961
 30
0.0
 10
72.16893681735273
 20
-37.68897856723791
 30
0.0
 10
72.16893681735273
 20
-37.68897856723791
 30
0.0
 10
72.16893681735273
 20
-49.08537596429116
 30
0.0
 10
72.16893681735273
 20
-49.08537596429116
 30
0.0
  0
SPLINE
  5
58
330
1F
100
AcDbEntity
  8
Layer 1
 62
     1
420
 16711680
370
     9
100
AcDbSpline
210
0.0
220
0.0
230
1.0
 70
    11
 71
     3
 72
    65
 73
    61
 74
     0
 42
0.0000000001
 43
0.0000000001
 12
1.0
 22
0.0
 32
0.0
 13
1.0
 23
0.0
 33
0.0
 40
0.0
 40
0.0
 40
0.0
 40
0.0
 40
1.0
 40
1.0
 40
1.0
 40
2.0
 40
2.0
 40
2.0
 40
3.0
 40
3.0
 40
3.0
 40
4.0
 40
4.0
 40
4.0
 40
5.0
 40
5.0
 40
5.0
 40
6.0
 40
6.0
 40
6.0
 40
7.0
 40
7.0
 40
7.0
 40
8.0
 40
8.0
 40
8.0
 40
9.0
 40
9.0
 40
9.0
 40
10.0
 40
10.0
 40
10.0
 40
11.0
 40
11.0
 40
11.0
 40
12.0
 40
12.0
 40
12.0
 40
13.0
 40
13.0
 40
13.0
 40
14.0
 40
14.0
 40
14.0
 40
15.0
 40
15.0
 40
15.0
 40
16.0
 40
16.0
 40
16.0
 40
17.0
 40
17.0
 40
17.0
 40
18.0
 40
18.0
 40
18.0
 40
19.0
 40
19.0
 40
19.0
 40
20.0
 40
20.0
 40
20.0
 40
20.0
 10
109.0340423311399
 20
-78.83414152081882
 30
0.0
 10
109.0340423311399
 20
-78.83414152081882
 30
0.0
 10
106.8447918094976
 20
-79.13186236628475
 30
0.0
 10
106.8447918094976
 20
-79.13186236628475
 30
0.0
 10
106.6727954173965
 20
-79.73677806980105
 30
0.0
 10
106.2769108824477
 20
-80.25728893392873
 30
0.0
 10
105.7398850918376
 20
-80.58461606872103
 30
0.0
 10
105.7398850918376
 20
-80.58461606872103
 30
0.0
 10
106.0376274691503
 20
-82.7738665903634
 30
0.0
 10
106.0376274691503
 20
-82.7738665903634
 30
0.0
 10
106.1120415316317
 20
-83.32112000819534
 30
0.0
 10
105.7287531270509
 20
-83.82507288214704
 30
0.0
 10
105.181499709219
 20
-83.89950847647522
 30
0.0
 10
104.634246291387
 20
-83.9739440708034
 30
0.0
 10
104.1302934174353
 20
-83.59063413437578
 30
0.0
 10
104.0558578231071
 20
-83.04338071654385
 30
0.0
 10
104.0558578231071
 20
-83.04338071654385
 30
0.0
 10
103.7581154457944
 20
-80.85413019490149
 30
0.0
 10
103.7581154457944
 20
-80.85413019490149
 30
0.0
 10
103.1531782104313
 20
-80.68211227095361
 30
0.0
 10
102.6326673463036
 20
-80.28622773600483
 30
0.0
 10
102.3053832752049
 20
-79.74922347724151
 30
0.0
 10
102.3053832752049
 20
-79.74922347724151
 30
0.0
 10
100.1161327535626
 20
-80.04696585455423
 30
0.0
 10
100.1161327535626
 20
-80.04696585455423
 30
0.0
 10
99.56887933573061
 20
-80.12140144888241
 30
0.0
 10
99.06490492993213
 20
-79.7380915124548
 30
0.0
 10
98.99049086745073
 20
-79.19085962646965
 30
0.0
 10
98.91605527312255
 20
-78.6436062086377
 30
0.0
 10
99.29936520955016
 20
-78.13965333468602
 30
0.0
 10
99.8466186273821
 20
-78.06521774035784
 30
0.0
 10
99.8466186273821
 20
-78.06521774035784
 30
0.0
 10
102.0358906808712
 20
-77.76747536304511
 30
0.0
 10
102.0358906808712
 20
-77.76747536304511
 30
0.0
 10
102.2078870729723
 20
-77.16253812768203
 30
0.0
 10
102.6037500760743
 20
-76.64207032724791
 30
0.0
 10
103.1407758666844
 20
-76.31476472430239
 30
0.0
 10
103.1407758666844
 20
-76.31476472430239
 30
0.0
 10
102.8430334893717
 20
-74.12549267081324
 30
0.0
 10
102.8430334893717
 20
-74.12549267081324
 30
0.0
 10
102.7685978950435
 20
-73.5782392529813
 30
0.0
 10
103.1519078314711
 20
-73.07426484718283
 30
0.0
 10
103.6991612493031
 20
-72.99985078470144
 30
0.0
 10
104.246414667135
 20
-72.92541519037324
 30
0.0
 10
104.7503675410867
 20
-73.30872512680087
 30
0.0
 10
104.8248031354149
 20
-73.85597854463279
 30
0.0
 10
104.8248031354149
 20
-73.85597854463279
 30
0.0
 10
105.1225239808808
 20
-76.04525059812194
 30
0.0
 10
105.1225239808808
 20
-76.04525059812194
 30
0.0
 10
105.7274612162439
 20
-76.21724699022303
 30
0.0
 10
106.247929016678
 20
-76.61310999332503
 30
0.0
 10
106.5752561514703
 20
-77.15013578393513
 30
0.0
 10
106.5752561514703
 20
-77.15013578393513
 30
0.0
 10
108.7645282049595
 20
-76.85239340662241
 30
0.0
 10
108.7645282049595
 20
-76.85239340662241
 30
0.0
 10
109.3117600909446
 20
-76.77795781229423
 30
0.0
 10
109.8157129648963
 20
-77.16126774872184
 30
0.0
 10
109.8901485592245
 20
-77.70852116655378
 30
0.0
 10
109.9645626217059
 20
-78.25575305253894
 30
0.0
 10
109.5812742171251
 20
-78.75970592649064
 30
0.0
 10
109.0340423311399
 20
-78.83414152081882
 30
0.0
  0
ENDSEC
  0
SECTION
  2
OBJECTS
  0
DICTIONARY
  5
C
330
0
100
AcDbDictionary
281
     1
  3
ACAD_GROUP
350
D
  3
ACAD_LAYOUT
350
1A
  3
ACAD_MATERIAL
350
3B
  3
ACAD_MLEADERSTYLE
350
5A
  3
ACAD_MLINESTYLE
350
17
  3
ACAD_PLOTSETTINGS
350
19
  3
ACAD_PLOTSTYLENAME
350
E
  3
ACAD_TABLESTYLE
350
59
  3
ACAD_VISUALSTYLE
350
2A
  0
SUN
  5
3F
330
29
100
AcDbSun
 90
        1
290
     0
 63
     7
421
 16777215
 40
1.0
291
     1
 91
  2455826
 92
 54000000
292
     0
 70
     2
 71
   256
280
     1
  0
DICTIONARY
  5
D
102
{ACAD_REACTORS
330
C
102
}
330
C
100
AcDbDictionary
281
     1
  0
DICTIONARY
  5
1A
102
{ACAD_REACTORS
330
C
102
}
330
C
100
AcDbDictionary
281
     1
  3
Layout1
350
1E
  3
Layout2
350
26
  3
Model
350
22
  0
DICTIONARY
  5
3B
102
{ACAD_REACTORS
330
C
102
}
330
C
100
AcDbDictionary
281
     1
  3
ByBlock
350
3D
  3
ByLayer
350
3C
  3
Global
350
3E
  0
DICTIONARY
  5
5A
102
{ACAD_REACTORS
330
C
102
}
330
C
100
AcDbDictionary
281
     1
  0
DICTIONARY
  5
17
102
{ACAD_REACTORS
330
C
102
}
330
C
100
AcDbDictionary
281
     1
  3
Standard
350
18
  0
DICTIONARY
  5
19
102
{ACAD_REACTORS
330
C
102
}
330
C
100
AcDbDictionary
281
     1
  0
ACDBDICTIONARYWDFLT
  5
E
102
{ACAD_REACTORS
330
C
102
}
330
C
100
AcDbDictionary
281
     1
  3
Normal
350
F
100
AcDbDictionaryWithDefault
340
F
  0
DICTIONARY
  5
59
102
{ACAD_REACTORS
330
C
102
}
330
C
100
AcDbDictionary
281
     1
  0
DICTIONARY
  5
2A
102
{ACAD_REACTORS
330
C
102
}
330
C
100
AcDbDictionary
281
     1
  3
2dWireframe
350
2F
  3
3D Hidden
350
31
  3
3dWireframe
350
30
  3
Basic
350
32
  3
Brighten
350
36
  3
ColorChange
350
3A
  3
Conceptual
350
34
  3
Dim
350
35
  3
Facepattern
350
39
  3
Flat
350
2B
  3
FlatWithEdges
350
2C
  3
Gouraud
350
2D
  3
GouraudWithEdges
350
2E
  3
Linepattern
350
38
  3
Realistic
350
33
  3
Thicken
350
37
  0
LAYOUT
  5
1E
102
{ACAD_REACTORS
330
1A
102
}
330
1A
100
AcDbPlotSettings
  1

  2
none_device
  4

  6

 40
0.0
 41
0.0
 42
0.0
 43
0.0
 44
0.0
 45
0.0
 46
0.0
 47
0.0
 48
0.0
 49
0.0
140
0.0
141
0.0
142
1.0
143
1.0
 70
   688
 72
     0
 73
     0
 74
     5
  7

 75
    16
 76
     0
 77
     2
 78
   300
147
1.0
148
0.0
149
0.0
100
AcDbLayout
  1
Layout1
 70
     1
 71
     1
 10
0.0
 20
0.0
 11
12.0
 21
9.0
 12
0.0
 22
0.0
 32
0.0
 14
1.000000000000000E+20
 24
1.000000000000000E+20
 34
1.000000000000000E+20
 15
-1.000000000000000E+20
 25
-1.000000000000000E+20
 35
-1.000000000000000E+20
146
0.0
 13
0.0
 23
0.0
 33
0.0
 16
1.0
 26
0.0
 36
0.0
 17
0.0
 27
1.0
 37
0.0
 76
     0
330
1B
  0
LAYOUT
  5
26
102
{ACAD_REACTORS
330
1A
102
}
330
1A
100
AcDbPlotSettings
  1

  2
none_device
  4

  6

 40
0.0
 41
0.0
 42
0.0
 43
0.0
 44
0.0
 45
0.0
 46
0.0
 47
0.0
 48
0.0
 49
0.0
140
0.0
141
0.0
142
1.0
143
1.0
 70
   688
 72
     0
 73
     0
 74
     5
  7

 75
    16
 76
     0
 77
     2
 78
   300
147
1.0
148
0.0
149
0.0
100
AcDbLayout
  1
Layout2
 70
     1
 71
     2
 10
0.0
 20
0.0
 11
0.0
 21
0.0
 12
0.0
 22
0.0
 32
0.0
 14
0.0
 24
0.0
 34
0.0
 15
0.0
 25
0.0
 35
0.0
146
0.0
 13
0.0
 23
0.0
 33
0.0
 16
1.0
 26
0.0
 36
0.0
 17
0.0
 27
1.0
 37
0.0
 76
     0
330
23
  0
LAYOUT
  5
22
102
{ACAD_REACTORS
330
1A
102
}
330
1A
100
AcDbPlotSettings
  1

  2
none_device
  4

  6

 40
0.0
 41
0.0
 42
0.0
 43
0.0
 44
0.0
 45
0.0
 46
0.0
 47
0.0
 48
0.0
 49
0.0
140
0.0
141
0.0
142
1.0
143
1.0
 70
  1712
 72
     0
 73
     0
 74
     0
  7

 75
     0
 76
     0
 77
     2
 78
   300
147
1.0
148
0.0
149
0.0
100
AcDbLayout
  1
Model
 70
     1
 71
     0
 10
0.0
 20
0.0
 11
12.0
 21
9.0
 12
0.0
 22
0.0
 32
0.0
 14
1.000000000000000E+20
 24
1.000000000000000E+20
 34
1.000000000000000E+20
 15
-1.000000000000000E+20
 25
-1.000000000000000E+20
 35
-1.000000000000000E+20
146
0.0
 13
0.0
 23
0.0
 33
0.0
 16
1.0
 26
0.0
 36
0.0
 17
0.0
 27
1.0
 37
0.0
 76
     0
330
1F
331
29
  0
MATERIAL
  5
3D
102
{ACAD_REACTORS
330
3B
102
}
330
3B
100
AcDbMaterial
  1
ByBlock
 72
     1
 94
      127
  0
MATERIAL
  5
3C
102
{ACAD_REACTORS
330
3B
102
}
330
3B
100
AcDbMaterial
  1
ByLayer
 72
     1
 94
      127
  0
MATERIAL
  5
3E
102
{ACAD_REACTORS
330
3B
102
}
330
3B
100
AcDbMaterial
  1
Global
 72
     1
 94
      127
  0
MLINESTYLE
  5
18
102
{ACAD_REACTORS
330
17
102
}
330
17
100
AcDbMlineStyle
  2
Standard
 70
     0
  3

 62
   256
 51
90.0
 52
90.0
 71
     2
 49
0.5
 62
   256
  6
BYLAYER
 49
-0.5
 62
   256
  6
BYLAYER
  0
ACDBPLACEHOLDER
  5
F
102
{ACAD_REACTORS
330
E
102
}
330
E
  0
VISUALSTYLE
  5
2F
102
{ACAD_REACTORS
330
2A
102
}
330
2A
100
AcDbVisualStyle
  2
2dWireframe
 70
     4
177
     2
291
     0
 71
     0
176
     1
 72
     2
176
     1
 73
     0
176
     1
 90
        0
176
     1
 40
-0.6
176
     1
 41
-30.0
176
     1
 62
     5
 63
     7
421
 16777215
176
     1
 74
     1
176
     1
 91
        4
176
     1
 64
     7
176
     1
 65
   257
176
     1
 75
     1
176
     1
175
     1
176
     1
 42
1.0
176
     1
 92
        0
176
     1
 66
   257
176
     1
 43
1.0
176
     1
 76
     1
176
     1
 77
     6
176
     1
 78
     2
176
     1
 67
     7
176
     1
 79
     5
176
     1
170
     0
176
     1
171
     0
176
     1
290
     0
176
     1
 93
        1
176
     1
 44
0.0
176
     1
173
     0
176
     1
  0
VISUALSTYLE
  5
31
102
{ACAD_REACTORS
330
2A
102
}
330
2A
100
AcDbVisualStyle
  2
3D Hidden
 70
     6
177
     2
291
     0
 71
     1
176
     1
 72
     2
176
     1
 73
     2
176
     1
 90
        0
176
     1
 40
-0.6
176
     1
 41
-30.0
176
     1
 62
     5
 63
     7
421
 16777215
176
     1
 74
     2
176
     1
 91
        2
176
     1
 64
     7
176
     1
 65
   257
176
     1
 75
     2
176
     1
175
     1
176
     1
 42
40.0
176
     1
 92
        0
176
     1
 66
   257
176
     1
 43
1.0
176
     1
 76
     1
176
     1
 77
     6
176
     1
 78
     2
176
     1
 67
     7
176
     1
 79
     3
176
     1
170
     0
176
     1
171
     0
176
     1
290
     0
176
     1
 93
        1
176
     1
 44
0.0
176
     1
173
     0
176
     1
  0
VISUALSTYLE
  5
30
102
{ACAD_REACTORS
330
2A
102
}
330
2A
100
AcDbVisualStyle
  2
3dWireframe
 70
     5
177
     2
291
     0
 71
     0
176
     1
 72
     2
176
     1
 73
     0
176
     1
 90
        0
176
     1
 40
-0.6
176
     1
 41
-30.0
176
     1
 62
     5
 63
     7
421
 16777215
176
     1
 74
     1
176
     1
 91
        4
176
     1
 64
     7
176
     1
 65
   257
176
     1
 75
     1
176
     1
175
     1
176
     1
 42
1.0
176
     1
 92
        0
176
     1
 66
   257
176
     1
 43
1.0
176
     1
 76
     1
176
     1
 77
     6
176
     1
 78
     2
176
     1
 67
     7
176
     1
 79
     5
176
     1
170
     0
176
     1
171
     0
176
     1
290
     0
176
     1
 93
        1
176
     1
 44
0.0
176
     1
173
     0
176
     1
  0
VISUALSTYLE
  5
32
102
{ACAD_REACTORS
330
2A
102
}
330
2A
100
AcDbVisualStyle
  2
Basic
 70
     7
177
     2
291
     1
 71
     1
176
     1
 72
     0
176
     1
 73
     1
176
     1
 90
        0
176
     1
 40
-0.6
176
     1
 41
-30.0
176
     1
 62
     5
 63
     7
421
 16777215
176
     1
 74
     0
176
     1
 91
        4
176
     1
 64
     7
176
     1
 65
   257
176
     1
 75
     1
176
     1
175
     1
176
     1
 42
1.0
176
     1
 92
        8
176
     1
 66
     7
176
     1
 43
1.0
176
     1
 76
     1
176
     1
 77
     6
176
     1
 78
     2
176
     1
 67
     7
176
     1
 79
     5
176
     1
170
     0
176
     1
171
     0
176
     1
290
     0
176
     1
 93
        1
176
     1
 44
0.0
176
     1
173
     0
176
     1
  0
VISUALSTYLE
  5
36
102
{ACAD_REACTORS
330
2A
102
}
330
2A
100
AcDbVisualStyle
  2
Brighten
 70
    12
177
     2
291
     1
 71
     2
176
     1
 72
     2
176
     1
 73
     0
176
     1
 90
        0
176
     1
 40
-0.6
176
     1
 41
-30.0
176
     1
 62
     5
 63
     7
421
 16777215
176
     1
 74
     1
176
     1
 91
        4
176
     1
 64
     7
176
     1
 65
   257
176
     1
 75
     1
176
     1
175
     1
176
     1
 42
1.0
176
     1
 92
        8
176
     1
 66
     7
176
     1
 43
1.0
176
     1
 76
     1
176
     1
 77
     6
176
     1
 78
     2
176
     1
 67
     7
176
     1
 79
     5
176
     1
170
     0
176
     1
171
     0
176
     1
290
     0
176
     1
 93
        1
176
     1
 44
50.0
176
     1
173
     0
176
     1
  0
VISUALSTYLE
  5
3A
102
{ACAD_REACTORS
330
2A
102
}
330
2A
100
AcDbVisualStyle
  2
ColorChange
 70
    16
177
     2
291
     1
 71
     2
176
     1
 72
     2
176
     1
 73
     3
176
     1
 90
        0
176
     1
 40
-0.6
176
     1
 41
-30.0
176
     1
 62
     5
 63
     8
421
  8421504
176
     1
 74
     1
176
     1
 91
        4
176
     1
 64
     7
176
     1
 65
   257
176
     1
 75
     1
176
     1
175
     1
176
     1
 42
1.0
176
     1
 92
        8
176
     1
 66
     8
424
  8421504
176
     1
 43
1.0
176
     1
 76
     1
176
     1
 77
     6
176
     1
 78
     2
176
     1
 67
     7
176
     1
 79
     5
176
     1
170
     0
176
     1
171
     0
176
     1
290
     0
176
     1
 93
        1
176
     1
 44
0.0
176
     1
173
     0
176
     1
  0
VISUALSTYLE
  5
34
102
{ACAD_REACTORS
330
2A
102
}
330
2A
100
AcDbVisualStyle
  2
Conceptual
 70
     9
177
     2
291
     0
 71
     3
176
     1
 72
     2
176
     1
 73
     0
176
     1
 90
        0
176
     1
 40
-0.6
176
     1
 41
-30.0
176
     1
 62
     5
 63
     7
421
 16777215
176
     1
 74
     2
176
     1
 91
        2
176
     1
 64
     7
176
     1
 65
   257
176
     1
 75
     1
176
     1
175
     1
176
     1
 42
40.0
176
     1
 92
        8
176
     1
 66
     7
176
     1
 43
1.0
176
     1
 76
     1
176
     1
 77
     6
176
     1
 78
     2
176
     1
 67
     7
176
     1
 79
     3
176
     1
170
     0
176
     1
171
     0
176
     1
290
     0
176
     1
 93
        1
176
     1
 44
0.0
176
     1
173
     0
176
     1
  0
VISUALSTYLE
  5
35
102
{ACAD_REACTORS
330
2A
102
}
330
2A
100
AcDbVisualStyle
  2
Dim
 70
    11
177
     2
291
     1
 71
     2
176
     1
 72
     2
176
     1
 73
     0
176
     1
 90
        0
176
     1
 40
-0.6
176
     1
 41
-30.0
176
     1
 62
     5
 63
     7
421
 16777215
176
     1
 74
     1
176
     1
 91
        4
176
     1
 64
     7
176
     1
 65
   257
176
     1
 75
     1
176
     1
175
     1
176
     1
 42
1.0
176
     1
 92
        8
176
     1
 66
     7
176
     1
 43
1.0
176
     1
 76
     1
176
     1
 77
     6
176
     1
 78
     2
176
     1
 67
     7
176
     1
 79
     5
176
     1
170
     0
176
     1
171
     0
176
     1
290
     0
176
     1
 93
        1
176
     1
 44
-50.0
176
     1
173
     0
176
     1
  0
VISUALSTYLE
  5
39
102
{ACAD_REACTORS
330
2A
102
}
330
2A
100
AcDbVisualStyle
  2
Facepattern
 70
    15
177
     2
291
     1
 71
     2
176
     1
 72
     2
176
     1
 73
     0
176
     1
 90
        0
176
     1
 40
-0.6
176
     1
 41
-30.0
176
     1
 62
     5
 63
     7
421
 16777215
176
     1
 74
     1
176
     1
 91
        4
176
     1
 64
     7
176
     1
 65
   257
176
     1
 75
     1
176
     1
175
     1
176
     1
 42
1.0
176
     1
 92
        8
176
     1
 66
     7
176
     1
 43
1.0
176
     1
 76
     1
176
     1
 77
     6
176
     1
 78
     2
176
     1
 67
     7
176
     1
 79
     5
176
     1
170
     0
176
     1
171
     0
176
     1
290
     0
176
     1
 93
        1
176
     1
 44
0.0
176
     1
173
     0
176
     1
  0
VISUALSTYLE
  5
2B
102
{ACAD_REACTORS
330
2A
102
}
330
2A
100
AcDbVisualStyle
  2
Flat
 70
     0
177
     2
291
     1
 71
     2
176
     1
 72
     1
176
     1
 73
     1
176
     1
 90
        2
176
     1
 40
-0.6
176
     1
 41
30.0
176
     1
 62
     5
 63
     7
421
 16777215
176
     1
 74
     0
176
     1
 91
        4
176
     1
 64
     7
176
     1
 65
   257
176
     1
 75
     1
176
     1
175
     1
176
     1
 42
1.0
176
     1
 92
        8
176
     1
 66
     7
176
     1
 43
1.0
176
     1
 76
     1
176
     1
 77
     6
176
     1
 78
     2
176
     1
 67
     7
176
     1
 79
     5
176
     1
170
     0
176
     1
171
     0
176
     1
290
     0
176
     1
 93
       13
176
     1
 44
0.0
176
     1
173
     0
176
     1
  0
VISUALSTYLE
  5
2C
102
{ACAD_REACTORS
330
2A
102
}
330
2A
100
AcDbVisualStyle
  2
FlatWithEdges
 70
     1
177
     2
291
     1
 71
     2
176
     1
 72
     1
176
     1
 73
     1
176
     1
 90
        2
176
     1
 40
-0.6
176
     1
 41
30.0
176
     1
 62
     5
 63
     7
421
 16777215
176
     1
 74
     1
176
     1
 91
        4
176
     1
 64
     7
176
     1
 65
   257
176
     1
 75
     1
176
     1
175
     1
176
     1
 42
1.0
176
     1
 92
        0
176
     1
 66
   257
176
     1
 43
1.0
176
     1
 76
     1
176
     1
 77
     6
176
     1
 78
     2
176
     1
 67
     7
176
     1
 79
     5
176
     1
170
     0
176
     1
171
     0
176
     1
290
     0
176
     1
 93
       13
176
     1
 44
0.0
176
     1
173
     0
176
     1
  0
VISUALSTYLE
  5
2D
102
{ACAD_REACTORS
330
2A
102
}
330
2A
100
AcDbVisualStyle
  2
Gouraud
 70
     2
177
     2
291
     1
 71
     2
176
     1
 72
     2
176
     1
 73
     1
176
     1
 90
        2
176
     1
 40
-0.6
176
     1
 41
30.0
176
     1
 62
     5
 63
     7
421
 16777215
176
     1
 74
     0
176
     1
 91
        4
176
     1
 64
     7
176
     1
 65
   257
176
     1
 75
     1
176
     1
175
     1
176
     1
 42
1.0
176
     1
 92
        0
176
     1
 66
     7
176
     1
 43
1.0
176
     1
 76
     1
176
     1
 77
     6
176
     1
 78
     2
176
     1
 67
     7
176
     1
 79
     5
176
     1
170
     0
176
     1
171
     0
176
     1
290
     0
176
     1
 93
       13
176
     1
 44
0.0
176
     1
173
     0
176
     1
  0
VISUALSTYLE
  5
2E
102
{ACAD_REACTORS
330
2A
102
}
330
2A
100
AcDbVisualStyle
  2
GouraudWithEdges
 70
     3
177
     2
291
     1
 71
     2
176
     1
 72
     2
176
     1
 73
     1
176
     1
 90
        2
176
     1
 40
-0.6
176
     1
 41
30.0
176
     1
 62
     5
 63
     7
421
 16777215
176
     1
 74
     1
176
     1
 91
        4
176
     1
 64
     7
176
     1
 65
   257
176
     1
 75
     1
176
     1
175
     1
176
     1
 42
1.0
176
     1
 92
        0
176
     1
 66
   257
176
     1
 43
1.0
176
     1
 76
     1
176
     1
 77
     6
176
     1
 78
     2
176
     1
 67
     7
176
     1
 79
     5
176
     1
170
     0
176
     1
171
     0
176
     1
290
     0
176
     1
 93
       13
176
     1
 44
0.0
176
     1
173
     0
176
     1
  0
VISUALSTYLE
  5
38
102
{ACAD_REACTORS
330
2A
102
}
330
2A
100
AcDbVisualStyle
  2
Linepattern
 70
    14
177
     2
291
     1
 71
     2
176
     1
 72
     2
176
     1
 73
     0
176
     1
 90
        0
176
     1
 40
-0.6
176
     1
 41
-30.0
176
     1
 62
     5
 63
     7
421
 16777215
176
     1
 74
     1
176
     1
 91
        4
176
     1
 64
     7
176
     1
 65
   257
176
     1
 75
     7
176
     1
175
     7
176
     1
 42
1.0
176
     1
 92
        8
176
     1
 66
     7
176
     1
 43
1.0
176
     1
 76
     1
176
     1
 77
     6
176
     1
 78
     2
176
     1
 67
     7
176
     1
 79
     5
176
     1
170
     0
176
     1
171
     0
176
     1
290
     0
176
     1
 93
        1
176
     1
 44
0.0
176
     1
173
     0
176
     1
  0
VISUALSTYLE
  5
33
102
{ACAD_REACTORS
330
2A
102
}
330
2A
100
AcDbVisualStyle
  2
Realistic
 70
     8
177
     2
291
     0
 71
     2
176
     1
 72
     2
176
     1
 73
     0
176
     1
 90
        0
176
     1
 40
-0.6
176
     1
 41
-30.0
176
     1
 62
     5
 63
     7
421
 16777215
176
     1
 74
     1
176
     1
 91
        0
176
     1
 64
     7
176
     1
 65
   257
176
     1
 75
     1
176
     1
175
     1
176
     1
 42
1.0
176
     1
 92
        8
176
     1
 66
     8
424
  7895160
176
     1
 43
1.0
176
     1
 76
     1
176
     1
 77
     6
176
     1
 78
     2
176
     1
 67
     7
176
     1
 79
     5
176
     1
170
     0
176
     1
171
     0
176
     1
290
     0
176
     1
 93
       13
176
     1
 44
0.0
176
     1
173
     0
176
     1
  0
VISUALSTYLE
  5
37
102
{ACAD_REACTORS
330
2A
102
}
330
2A
100
AcDbVisualStyle
  2
Thicken
 70
    13
177
     2
291
     1
 71
     2
176
     1
 72
     2
176
     1
 73
     0
176
     1
 90
        0
176
     1
 40
-0.6
176
     1
 41
-30.0
176
     1
 62
     5
 63
     7
421
 16777215
176
     1
 74
     1
176
     1
 91
        4
176
     1
 64
     7
176
     1
 65
   257
176
     1
 75
     1
176
     1
175
     1
176
     1
 42
1.0
176
     1
 92
       12
176
     1
 66
     7
176
     1
 43
1.0
176
     1
 76
     1
176
     1
 77
     6
176
     1
 78
     2
176
     1
 67
     7
176
     1
 79
     5
176
     1
170
     0
176
     1
171
     0
176
     1
290
     0
176
     1
 93
        1
176
     1
 44
0.0
176
     1
173
     0
176
     1
  0
ENDSEC
  0
EOF
