  0
SECTION
  2
HEADER
  9
$ACADVER
  1
AC1024
  9
$ACADMAINTVER
 70
     6
  9
$DWGCODEPAGE
  3
UNDEFINED
  9
$INSBASE
 10
0.0
 20
0.0
 30
0.0
  9
$EXTMIN
 10
1.000000000000000E+20
 20
1.000000000000000E+20
 30
1.000000000000000E+20
  9
$EXTMAX
 10
-1.000000000000000E+20
 20
-1.000000000000000E+20
 30
-1.000000000000000E+20
  9
$LIMMIN
 10
0.0
 20
0.0
  9
$LIMMAX
 10
12.0
 20
9.0
  9
$ORTHOMODE
 70
     0
  9
$REGENMODE
 70
     1
  9
$FILLMODE
 70
     1
  9
$QTEXTMODE
 70
     0
  9
$MIRRTEXT
 70
     1
  9
$LTSCALE
 40
1.0
  9
$ATTMODE
 70
     1
  9
$TEXTSIZE
 40
0.2
  9
$TRACEWID
 40
0.05
  9
$TEXTSTYLE
  7
Standard
  9
$CLAYER
  8
0
  9
$CELTYPE
  6
ByLayer
  9
$CECOLOR
 62
   256
  9
$CELTSCALE
 40
1.0
  9
$DISPSILH
 70
     0
  9
$DIMSCALE
 40
1.0
  9
$DIMASZ
 40
0.18
  9
$DIMEXO
 40
0.0625
  9
$DIMDLI
 40
0.38
  9
$DIMRND
 40
0.0
  9
$DIMDLE
 40
0.0
  9
$DIMEXE
 40
0.18
  9
$DIMTP
 40
0.0
  9
$DIMTM
 40
0.0
  9
$DIMTXT
 40
0.18
  9
$DIMCEN
 40
0.09
  9
$DIMTSZ
 40
0.0
  9
$DIMTOL
 70
     0
  9
$DIMLIM
 70
     0
  9
$DIMTIH
 70
     1
  9
$DIMTOH
 70
     1
  9
$DIMSE1
 70
     0
  9
$DIMSE2
 70
     0
  9
$DIMTAD
 70
     0
  9
$DIMZIN
 70
     0
  9
$DIMBLK
  1

  9
$DIMASO
 70
     1
  9
$DIMSHO
 70
     1
  9
$DIMPOST
  1

  9
$DIMAPOST
  1

  9
$DIMALT
 70
     0
  9
$DIMALTD
 70
     2
  9
$DIMALTF
 40
25.4
  9
$DIMLFAC
 40
1.0
  9
$DIMTOFL
 70
     0
  9
$DIMTVP
 40
0.0
  9
$DIMTIX
 70
     0
  9
$DIMSOXD
 70
     0
  9
$DIMSAH
 70
     0
  9
$DIMBLK1
  1

  9
$DIMBLK2
  1

  9
$DIMSTYLE
  2
Standard
  9
$DIMCLRD
 70
     0
  9
$DIMCLRE
 70
     0
  9
$DIMCLRT
 70
     0
  9
$DIMTFAC
 40
1.0
  9
$DIMGAP
 40
0.09
  9
$DIMJUST
 70
     0
  9
$DIMSD1
 70
     0
  9
$DIMSD2
 70
     0
  9
$DIMTOLJ
 70
     1
  9
$DIMTZIN
 70
     0
  9
$DIMALTZ
 70
     0
  9
$DIMALTTZ
 70
     0
  9
$DIMUPT
 70
     0
  9
$DIMDEC
 70
     4
  9
$DIMTDEC
 70
     4
  9
$DIMALTU
 70
     2
  9
$DIMALTTD
 70
     2
  9
$DIMTXSTY
  7
Standard
  9
$DIMAUNIT
 70
     0
  9
$DIMADEC
 70
     0
  9
$DIMALTRND
 40
0.0
  9
$DIMAZIN
 70
     0
  9
$DIMDSEP
 70
    46
  9
$DIMATFIT
 70
     3
  9
$DIMFRAC
 70
     0
  9
$DIMLDRBLK
  1

  9
$DIMLUNIT
 70
     2
  9
$DIMLWD
 70
    -2
  9
$DIMLWE
 70
    -2
  9
$DIMTMOVE
 70
     0
  9
$DIMFXL
 40
1.0
  9
$DIMFXLON
 70
     0
  9
$DIMJOGANG
 40
0.7853981633974483
  9
$DIMTFILL
 70
     0
  9
$DIMTFILLCLR
 70
     0
  9
$DIMARCSYM
 70
     0
  9
$DIMLTYPE
  6

  9
$DIMLTEX1
  6

  9
$DIMLTEX2
  6

  9
$DIMTXTDIRECTION
 70
     0
  9
$LUNITS
 70
     2
  9
$LUPREC
 70
     4
  9
$SKETCHINC
 40
0.1
  9
$FILLETRAD
 40
0.5
  9
$AUNITS
 70
     0
  9
$AUPREC
 70
     0
  9
$MENU
  1
.
  9
$ELEVATION
 40
0.0
  9
$PELEVATION
 40
0.0
  9
$THICKNESS
 40
0.0
  9
$LIMCHECK
 70
     0
  9
$CHAMFERA
 40
0.5
  9
$CHAMFERB
 40
0.5
  9
$CHAMFERC
 40
1.0
  9
$CHAMFERD
 40
0.0
  9
$SKPOLY
 70
     0
  9
$TDCREATE
 40
2457699.546921285
  9
$TDUCREATE
 40
2457699.75525463
  9
$TDUPDATE
 40
2457699.546921285
  9
$TDUUPDATE
 40
2457699.75525463
  9
$TDINDWG
 40
0.0000000116
  9
$TDUSRTIMER
 40
0.0000000116
  9
$USRTIMER
 70
     1
  9
$ANGBASE
 50
0.0
  9
$ANGDIR
 70
     0
  9
$PDMODE
 70
     0
  9
$PDSIZE
 40
0.0
  9
$PLINEWID
 40
0.0
  9
$SPLFRAME
 70
     0
  9
$SPLINETYPE
 70
     6
  9
$SPLINESEGS
 70
     8
  9
$HANDSEED
  5
50
  9
$SURFTAB1
 70
     6
  9
$SURFTAB2
 70
     6
  9
$SURFTYPE
 70
     6
  9
$SURFU
 70
     6
  9
$SURFV
 70
     6
  9
$UCSBASE
  2

  9
$UCSNAME
  2

  9
$UCSORG
 10
0.0
 20
0.0
 30
0.0
  9
$UCSXDIR
 10
1.0
 20
0.0
 30
0.0
  9
$UCSYDIR
 10
0.0
 20
1.0
 30
0.0
  9
$UCSORTHOREF
  2

  9
$UCSORTHOVIEW
 70
     0
  9
$UCSORGTOP
 10
0.0
 20
0.0
 30
0.0
  9
$UCSORGBOTTOM
 10
0.0
 20
0.0
 30
0.0
  9
$UCSORGLEFT
 10
0.0
 20
0.0
 30
0.0
  9
$UCSORGRIGHT
 10
0.0
 20
0.0
 30
0.0
  9
$UCSORGFRONT
 10
0.0
 20
0.0
 30
0.0
  9
$UCSORGBACK
 10
0.0
 20
0.0
 30
0.0
  9
$PUCSBASE
  2

  9
$PUCSNAME
  2

  9
$PUCSORG
 10
0.0
 20
0.0
 30
0.0
  9
$PUCSXDIR
 10
1.0
 20
0.0
 30
0.0
  9
$PUCSYDIR
 10
0.0
 20
1.0
 30
0.0
  9
$PUCSORTHOREF
  2

  9
$PUCSORTHOVIEW
 70
     0
  9
$PUCSORGTOP
 10
0.0
 20
0.0
 30
0.0
  9
$PUCSORGBOTTOM
 10
0.0
 20
0.0
 30
0.0
  9
$PUCSORGLEFT
 10
0.0
 20
0.0
 30
0.0
  9
$PUCSORGRIGHT
 10
0.0
 20
0.0
 30
0.0
  9
$PUCSORGFRONT
 10
0.0
 20
0.0
 30
0.0
  9
$PUCSORGBACK
 10
0.0
 20
0.0
 30
0.0
  9
$USERI1
 70
     0
  9
$USERI2
 70
     0
  9
$USERI3
 70
     0
  9
$USERI4
 70
     0
  9
$USERI5
 70
     0
  9
$USERR1
 40
0.0
  9
$USERR2
 40
0.0
  9
$USERR3
 40
0.0
  9
$USERR4
 40
0.0
  9
$USERR5
 40
0.0
  9
$WORLDVIEW
 70
     1
  9
$SHADEDGE
 70
     3
  9
$SHADEDIF
 70
    70
  9
$TILEMODE
 70
     1
  9
$MAXACTVP
 70
    64
  9
$PINSBASE
 10
0.0
 20
0.0
 30
0.0
  9
$PLIMCHECK
 70
     0
  9
$PEXTMIN
 10
1.000000000000000E+20
 20
1.000000000000000E+20
 30
1.000000000000000E+20
  9
$PEXTMAX
 10
-1.000000000000000E+20
 20
-1.000000000000000E+20
 30
-1.000000000000000E+20
  9
$PLIMMIN
 10
0.0
 20
0.0
  9
$PLIMMAX
 10
12.0
 20
9.0
  9
$UNITMODE
 70
     0
  9
$VISRETAIN
 70
     1
  9
$PLINEGEN
 70
     0
  9
$PSLTSCALE
 70
     1
  9
$TREEDEPTH
 70
  3020
  9
$CMLSTYLE
  2
Standard
  9
$CMLJUST
 70
     0
  9
$CMLSCALE
 40
1.0
  9
$PROXYGRAPHICS
 70
     1
  9
$MEASUREMENT
 70
     0
  9
$CELWEIGHT
370
    -1
  9
$ENDCAPS
280
     0
  9
$JOINSTYLE
280
     0
  9
$LWDISPLAY
290
     1
  9
$INSUNITS
 70
     1
  9
$HYPERLINKBASE
  1

  9
$STYLESHEET
  1

  9
$XEDIT
290
     1
  9
$CEPSNTYPE
380
     0
  9
$PSTYLEMODE
290
     1
  9
$FINGERPRINTGUID
  2
{0DA50570-179B-9B74-FBCD-66B049ECB4DD}
  9
$VERSIONGUID
  2
{FAEB1C32-E019-11D5-929B-00C0DF256EC4}
  9
$EXTNAMES
290
     1
  9
$PSVPSCALE
 40
0.0
  9
$OLESTARTUP
290
     0
  9
$SORTENTS
280
   127
  9
$INDEXCTL
280
     0
  9
$HIDETEXT
280
     1
  9
$XCLIPFRAME
280
     2
  9
$HALOGAP
280
     0
  9
$OBSCOLOR
 70
   257
  9
$OBSLTYPE
280
     0
  9
$INTERSECTIONDISPLAY
280
     0
  9
$INTERSECTIONCOLOR
 70
   257
  9
$DIMASSOC
280
     2
  9
$PROJECTNAME
  1

  9
$CAMERADISPLAY
290
     0
  9
$LENSLENGTH
 40
50.0
  9
$CAMERAHEIGHT
 40
0.0
  9
$STEPSPERSEC
 40
2.0
  9
$STEPSIZE
 40
6.0
  9
$3DDWFPREC
 40
2.0
  9
$PSOLWIDTH
 40
0.25
  9
$PSOLHEIGHT
 40
4.0
  9
$LOFTANG1
 40
1.570796326794897
  9
$LOFTANG2
 40
1.570796326794897
  9
$LOFTMAG1
 40
0.0
  9
$LOFTMAG2
 40
0.0
  9
$LOFTPARAM
 70
     7
  9
$LOFTNORMALS
280
     1
  9
$LATITUDE
 40
37.795
  9
$LONGITUDE
 40
-122.394
  9
$NORTHDIRECTION
 40
0.0
  9
$TIMEZONE
 70
 -8000
  9
$LIGHTGLYPHDISPLAY
280
     1
  9
$TILEMODELIGHTSYNCH
280
     1
  9
$CMATERIAL
347
3C
  9
$SOLIDHIST
280
     1
  9
$SHOWHIST
280
     1
  9
$DWFFRAME
280
     2
  9
$DGNFRAME
280
     2
  9
$REALWORLDSCALE
290
     1
  9
$INTERFERECOLOR
 62
   256
  9
$CSHADOW
280
     0
  9
$SHADOWPLANELOCATION
 40
0.0
  0
ENDSEC
  0
SECTION
  2
CLASSES
  0
CLASS
  1
ACDBDICTIONARYWDFLT
  2
AcDbDictionaryWithDefault
  3
ObjectDBX Classes
 90
        0
 91
        4
280
     0
281
     0
  0
CLASS
  1
VISUALSTYLE
  2
AcDbVisualStyle
  3
ObjectDBX Classes
 90
     4095
 91
        4
280
     0
281
     0
  0
CLASS
  1
MATERIAL
  2
AcDbMaterial
  3
ObjectDBX Classes
 90
     1153
 91
        4
280
     0
281
     0
  0
CLASS
  1
SUN
  2
AcDbSun
  3
SCENEOE
 90
     1024
 91
        4
280
     0
281
     0
  0
ENDSEC
  0
SECTION
  2
TABLES
  0
TABLE
  2
VPORT
  5
8
330
0
100
AcDbSymbolTable
 70
     1
  0
VPORT
  5
29
330
8
100
AcDbSymbolTableRecord
100
AcDbViewportTableRecord
  2
*Active
 70
     0
 10
0.0
 20
0.0
 11
1.0
 21
1.0
 12
0.0
 22
0.0
 13
0.0
 23
0.0
 14
0.5
 24
0.5
 15
0.5
 25
0.5
 16
0.0
 26
0.0
 36
1.0
 17
12.86464326324977
 27
-37.37500117745112
 37
0.0
 40
74.75000235490224
 41
0.3910268465906792
 42
50.0
 43
0.0
 44
0.0
 50
0.0
 51
0.0
 71
     0
 72
   100
 73
     1
 74
     3
 75
     0
 76
     0
 77
     0
 78
     0
281
     0
 65
     1
110
0.0
120
0.0
130
0.0
111
1.0
121
0.0
131
0.0
112
0.0
122
1.0
132
0.0
 79
     0
146
0.0
 60
     3
 61
     5
292
     1
282
     1
141
0.0
142
0.0
 63
   250
361
3F
  0
ENDTAB
  0
TABLE
  2
LTYPE
  5
5
330
0
100
AcDbSymbolTable
 70
     1
  0
LTYPE
  5
14
330
5
100
AcDbSymbolTableRecord
100
AcDbLinetypeTableRecord
  2
ByBlock
 70
     0
  3

 72
    65
 73
     0
 40
0.0
  0
LTYPE
  5
15
330
5
100
AcDbSymbolTableRecord
100
AcDbLinetypeTableRecord
  2
ByLayer
 70
     0
  3

 72
    65
 73
     0
 40
0.0
  0
LTYPE
  5
16
330
5
100
AcDbSymbolTableRecord
100
AcDbLinetypeTableRecord
  2
Continuous
 70
     0
  3
Solid line
 72
    65
 73
     0
 40
0.0
  0
ENDTAB
  0
TABLE
  2
LAYER
  5
2
330
0
100
AcDbSymbolTable
 70
     2
  0
LAYER
  5
10
330
2
100
AcDbSymbolTableRecord
100
AcDbLayerTableRecord
  2
0
 70
     0
 62
     7
  6
Continuous
370
    -3
390
F
347
3E
  0
LAYER
  5
40
330
2
100
AcDbSymbolTableRecord
100
AcDbLayerTableRecord
  2
Layer 1
 70
     0
 62
     7
  6
Continuous
370
    -3
390
F
347
3E
  0
ENDTAB
  0
TABLE
  2
STYLE
  5
3
330
0
100
AcDbSymbolTable
 70
     1
  0
STYLE
  5
11
330
3
100
AcDbSymbolTableRecord
100
AcDbTextStyleTableRecord
  2
Standard
 70
     0
 40
0.0
 41
1.0
 50
0.0
 71
     0
 42
0.2
  3
txt
  4

  0
ENDTAB
  0
TABLE
  2
VIEW
  5
6
330
0
100
AcDbSymbolTable
 70
     0
  0
ENDTAB
  0
TABLE
  2
UCS
  5
7
330
0
100
AcDbSymbolTable
 70
     0
  0
ENDTAB
  0
TABLE
  2
APPID
  5
9
330
0
100
AcDbSymbolTable
 70
     1
  0
APPID
  5
12
330
9
100
AcDbSymbolTableRecord
100
AcDbRegAppTableRecord
  2
ACAD
 70
     0
  0
ENDTAB
  0
TABLE
  2
DIMSTYLE
  5
A
330
0
100
AcDbSymbolTable
 70
     1
100
AcDbDimStyleTable
  0
DIMSTYLE
105
27
330
A
100
AcDbSymbolTableRecord
100
AcDbDimStyleTableRecord
  2
Standard
 70
     0
178
     0
340
11
  0
ENDTAB
  0
TABLE
  2
BLOCK_RECORD
  5
1
330
0
100
AcDbSymbolTable
 70
     1
  0
BLOCK_RECORD
  5
1F
330
1
100
AcDbSymbolTableRecord
100
AcDbBlockTableRecord
  2
*Model_Space
340
22
 70
     0
280
     1
281
     0
  0
BLOCK_RECORD
  5
1B
330
1
100
AcDbSymbolTableRecord
100
AcDbBlockTableRecord
  2
*Paper_Space
340
1E
 70
     0
280
     1
281
     0
  0
BLOCK_RECORD
  5
23
330
1
100
AcDbSymbolTableRecord
100
AcDbBlockTableRecord
  2
*Paper_Space0
340
26
 70
     0
280
     1
281
     0
  0
ENDTAB
  0
ENDSEC
  0
SECTION
  2
BLOCKS
  0
BLOCK
  5
20
330
1F
100
AcDbEntity
  8
0
100
AcDbBlockBegin
  2
*Model_Space
 70
     0
 10
0.0
 20
0.0
 30
0.0
  3
*Model_Space
  1

  0
ENDBLK
  5
21
330
1F
100
AcDbEntity
  8
0
100
AcDbBlockEnd
  0
BLOCK
  5
1C
330
1B
100
AcDbEntity
 67
     1
  8
0
100
AcDbBlockBegin
  2
*Paper_Space
 70
     0
 10
0.0
 20
0.0
 30
0.0
  3
*Paper_Space
  1

  0
ENDBLK
  5
1D
330
1B
100
AcDbEntity
 67
     1
  8
0
100
AcDbBlockEnd
  0
BLOCK
  5
24
330
23
100
AcDbEntity
  8
0
100
AcDbBlockBegin
  2
*Paper_Space0
 70
     0
 10
0.0
 20
0.0
 30
0.0
  3
*Paper_Space0
  1

  0
ENDBLK
  5
25
330
23
100
AcDbEntity
  8
0
100
AcDbBlockEnd
  0
ENDSEC
  0
SECTION
  2
ENTITIES
  0
SPLINE
  5
41
330
1F
100
AcDbEntity
  8
Layer 1
 62
     1
420
 16711680
370
     9
100
AcDbSpline
210
0.0
220
0.0
230
1.0
 70
    11
 71
     3
 72
   164
 73
   160
 74
     0
 42
0.0000000001
 43
0.0000000001
 12
1.0
 22
0.0
 32
0.0
 13
1.0
 23
0.0
 33
0.0
 40
0.0
 40
0.0
 40
0.0
 40
0.0
 40
1.0
 40
1.0
 40
1.0
 40
2.0
 40
2.0
 40
2.0
 40
3.0
 40
3.0
 40
3.0
 40
4.0
 40
4.0
 40
4.0
 40
5.0
 40
5.0
 40
5.0
 40
6.0
 40
6.0
 40
6.0
 40
7.0
 40
7.0
 40
7.0
 40
8.0
 40
8.0
 40
8.0
 40
9.0
 40
9.0
 40
9.0
 40
10.0
 40
10.0
 40
10.0
 40
11.0
 40
11.0
 40
11.0
 40
12.0
 40
12.0
 40
12.0
 40
13.0
 40
13.0
 40
13.0
 40
14.0
 40
14.0
 40
14.0
 40
15.0
 40
15.0
 40
15.0
 40
16.0
 40
16.0
 40
16.0
 40
17.0
 40
17.0
 40
17.0
 40
18.0
 40
18.0
 40
18.0
 40
19.0
 40
19.0
 40
19.0
 40
20.0
 40
20.0
 40
20.0
 40
21.0
 40
21.0
 40
21.0
 40
22.0
 40
22.0
 40
22.0
 40
23.0
 40
23.0
 40
23.0
 40
24.0
 40
24.0
 40
24.0
 40
25.0
 40
25.0
 40
25.0
 40
26.0
 40
26.0
 40
26.0
 40
27.0
 40
27.0
 40
27.0
 40
28.0
 40
28.0
 40
28.0
 40
29.0
 40
29.0
 40
29.0
 40
30.0
 40
30.0
 40
30.0
 40
31.0
 40
31.0
 40
31.0
 40
32.0
 40
32.0
 40
32.0
 40
33.0
 40
33.0
 40
33.0
 40
34.0
 40
34.0
 40
34.0
 40
35.0
 40
35.0
 40
35.0
 40
36.0
 40
36.0
 40
36.0
 40
37.0
 40
37.0
 40
37.0
 40
38.0
 40
38.0
 40
38.0
 40
39.0
 40
39.0
 40
39.0
 40
40.0
 40
40.0
 40
40.0
 40
41.0
 40
41.0
 40
41.0
 40
42.0
 40
42.0
 40
42.0
 40
43.0
 40
43.0
 40
43.0
 40
44.0
 40
44.0
 40
44.0
 40
45.0
 40
45.0
 40
45.0
 40
46.0
 40
46.0
 40
46.0
 40
47.0
 40
47.0
 40
47.0
 40
48.0
 40
48.0
 40
48.0
 40
49.0
 40
49.0
 40
49.0
 40
50.0
 40
50.0
 40
50.0
 40
51.0
 40
51.0
 40
51.0
 40
52.0
 40
52.0
 40
52.0
 40
53.0
 40
53.0
 40
53.0
 40
53.0
 10
25.77099371371784
 20
-7.00097232219724
 30
0.0
 10
25.75695494961545
 20
-7.001553682060376
 30
0.0
 10
25.74375592753759
 20
-7.005149500473105
 30
0.0
 10
25.72956644050771
 20
-7.005149500473105
 30
0.0
 10
25.1772745705286
 20
-7.005149500473105
 30
0.0
 10
24.7295628803736
 20
-6.557437810318106
 30
0.0
 10
24.7295628803736
 20
-6.005145940338991
 30
0.0
 10
24.7295628803736
 20
-5.452854070359877
 30
0.0
 10
25.1772745705286
 20
-5.005142380204878
 30
0.0
 10
25.72956644050771
 20
-5.005142380204878
 30
0.0
 10
25.73656429071213
 20
-5.005142380204878
 30
0.0
 10
25.74304537659375
 20
-5.007058714568548
 30
0.0
 10
25.7500001631046
 20
-5.007209437496027
 30
0.0
 10
25.7500001631046
 20
-3.612850103534722
 30
0.0
 10
25.7500001631046
 20
-2.000007120268227
 30
0.0
 10
25.7500001631046
 20
-2.000007120268227
 30
0.0
 10
25.7500001631046
 20
-0.8999881318279545
 30
0.0
 10
24.84999049942986
 20
0.0
 30
0.0
 10
23.74999304283637
 20
0.0
 30
0.0
 10
23.74999304283637
 20
0.0
 30
0.0
 10
19.87516495949519
 20
0.0
 30
0.0
 10
19.87516495949519
 20
0.0
 30
0.0
 10
19.32289462136285
 20
0.0
 30
0.0
 10
18.87518293120785
 20
-0.4477116901549992
 30
0.0
 10
18.87516139936107
 20
-0.999982028287331
 30
0.0
 10
18.87516139936107
 20
-0.999982028287331
 30
0.0
 10
18.8751183356675
 20
-4.355741881235283
 30
0.0
 10
18.8751183356675
 20
-4.355741881235283
 30
0.0
 10
18.87509680382072
 20
-5.28921203481051
 30
0.0
 10
19.06179944727448
 20
-6.213272771341647
 30
0.0
 10
19.42420196047598
 20
-7.073513114008532
 30
0.0
 10
19.42420196047598
 20
-7.073513114008532
 30
0.0
 10
21.22762331961714
 20
-11.35425957289928
 30
0.0
 10
21.22762331961714
 20
-11.35425957289928
 30
0.0
 10
21.59002583281864
 20
-12.21447838371938
 30
0.0
 10
21.77670694442562
 20
-13.13849605655696
 30
0.0
 10
21.77670694442562
 20
-14.0719446782854
 30
0.0
 10
21.77670694442562
 20
-14.0719446782854
 30
0.0
 10
21.77670694442562
 20
-19.47232563803556
 30
0.0
 10
21.77670694442562
 20
-19.47232563803556
 30
0.0
 10
21.77670694442562
 20
-21.12233258884919
 30
0.0
 10
20.4267032148369
 20
-22.47235785028469
 30
0.0
 10
18.77669626402328
 20
-22.47237938213147
 30
0.0
 10
18.77669626402328
 20
-22.47237938213147
 30
0.0
 10
6.973282367234544
 20
-22.47255163690573
 30
0.0
 10
6.973282367234544
 20
-22.47255163690573
 30
0.0
 10
5.323275416420917
 20
-22.47257316875252
 30
0.0
 10
3.973228623138637
 20
-21.12259097101058
 30
0.0
 10
3.973164027598289
 20
-19.47256248835018
 30
0.0
 10
3.973164027598289
 20
-19.47256248835018
 30
0.0
 10
3.972970240977244
 20
-14.08361493924168
 30
0.0
 10
3.972970240977244
 20
-14.08361493924168
 30
0.0
 10
3.972927177283678
 20
-13.14678581756834
 30
0.0
 10
4.16096479523797
 20
-12.21945224032621
 30
0.0
 10
4.525886534513059
 20
-11.35662807604539
 30
0.0
 10
4.525886534513059
 20
-11.35662807604539
 30
0.0
 10
6.322223916062674
 20
-7.109406702595479
 30
0.0
 10
6.322223916062674
 20
-7.109406702595479
 30
0.0
 10
6.687102591644197
 20
-6.246668665701788
 30
0.0
 10
6.875118677751707
 20
-5.319485811387143
 30
0.0
 10
6.87514020959849
 20
-4.382764348947711
 30
0.0
 10
6.87514020959849
 20
-4.382764348947711
 30
0.0
 10
6.875183273292055
 20
-1.000003560134114
 30
0.0
 10
6.875183273292055
 20
-1.000003560134114
 30
0.0
 10
6.875204805138838
 20
-0.4477116901549992
 30
0.0
 10
6.427471583137056
 20
0.0
 30
0.0
 10
5.875179713157942
 20
0.0
 30
0.0
 10
5.875179713157942
 20
0.0
 30
0.0
 10
1.999985588421445
 20
0.0
 30
0.0
 10
1.999985588421445
 20
0.0
 30
0.0
 10
0.8999881318279545
 20
0.0
 30
0.0
 10
0.0
 20
-0.8999881318279545
 30
0.0
 10
0.0
 20
-1.999985588421445
 30
0.0
 10
0.0
 20
-1.999985588421445
 30
0.0
 10
0.0
 20
-5.007209437496027
 30
0.0
 10
0.0
 20
-5.007209437496027
 30
0.0
 10
0.0069547865108481
 20
-5.007058714568548
 30
0.0
 10
0.0134358723924744
 20
-5.005142380204878
 30
0.0
 10
0.0204337225968881
 20
-5.005142380204878
 30
0.0
 10
0.5727255925760026
 20
-5.005142380204878
 30
0.0
 10
1.020437282731002
 20
-5.452854070359877
 30
0.0
 10
1.020437282731002
 20
-6.005145940338991
 30
0.0
 10
1.020437282731002
 20
-6.557416278471323
 30
0.0
 10
0.5727255925760026
 20
-7.005127968626322
 30
0.0
 10
0.0204337225968881
 20
-7.005127968626322
 30
0.0
 10
0.0062442355670153
 20
-7.005127968626322
 30
0.0
 10
-0.0069547865108481
 20
-7.001532150213593
 30
0.0
 10
-0.0209935506132412
 20
-7.000950790350457
 30
0.0
 10
-0.0209935506132412
 20
-7.000950790350457
 30
0.0
 10
-1.74997931542622
 20
-7.000950790350457
 30
0.0
 10
-1.74997931542622
 20
-7.000950790350457
 30
0.0
 10
-1.74997931542622
 20
-7.000950790350457
 30
0.0
 10
-1.74997931542622
 20
-19.76612768738703
 30
0.0
 10
-1.74997931542622
 20
-19.76612768738703
 30
0.0
 10
-1.74997931542622
 20
-19.76612768738703
 30
0.0
 10
-0.1300738864149642
 20
-19.76612768738703
 30
0.0
 10
-0.1300738864149642
 20
-19.76612768738703
 30
0.0
 10
-0.0806152343548462
 20
-19.75861307285983
 30
0.0
 10
-0.0311135186011626
 20
-19.75094773540514
 30
0.0
 10
0.0204337225968881
 20
-19.75094773540514
 30
0.0
 10
0.5727255925760026
 20
-19.75094773540514
 30
0.0
 10
1.020437282731002
 20
-20.19865942556014
 30
0.0
 10
1.020437282731002
 20
-20.75095129553926
 30
0.0
 10
1.020437282731002
 20
-21.30324316551837
 30
0.0
 10
0.5727255925760026
 20
-21.75095485567337
 30
0.0
 10
0.0204337225968881
 20
-21.75095485567337
 30
0.0
 10
0.0134358723924744
 20
-21.75095485567337
 30
0.0
 10
0.0069547865108481
 20
-21.7490385213097
 30
0.0
 10
0.0
 20
-21.74888779838222
 30
0.0
 10
0.0
 20
-21.74888779838222
 30
0.0
 10
0.0
 20
-54.44265016678214
 30
0.0
 10
0.0
 20
-54.44265016678214
 30
0.0
 10
0.0
 20
-54.44265016678214
 30
0.0
 10
0.0
 20
-54.4427147623228
 30
0.0
 10
0.0
 20
-54.4427147623228
 30
0.0
 10
0.0
 20
-55.54269068706919
 30
0.0
 10
0.3405907524105121
 20
-57.27574597092412
 30
0.0
 10
0.7568659462626065
 20
-58.29394394158971
 30
0.0
 10
0.7568659462626065
 20
-58.29394394158971
 30
0.0
 10
6.523503619788396
 20
-72.89875876405613
 30
0.0
 10
6.523503619788396
 20
-72.89875876405613
 30
0.0
 10
6.93977881364049
 20
-73.91693520287494
 30
0.0
 10
8.18037922972574
 20
-74.75000235490224
 30
0.0
 10
9.28037668631923
 20
-74.75000235490224
 30
0.0
 10
9.28037668631923
 20
-74.75000235490224
 30
0.0
 10
16.46960194493859
 20
-74.75000235490224
 30
0.0
 10
16.46960194493859
 20
-74.75000235490224
 30
0.0
 10
17.56959940153208
 20
-74.75000235490224
 30
0.0
 10
18.81019981761733
 20
-73.91693520287494
 30
0.0
 10
19.22647501146943
 20
-72.89875876405613
 30
0.0
 10
19.22647501146943
 20
-72.89875876405613
 30
0.0
 10
24.99313421684199
 20
-58.29387934604937
 30
0.0
 10
24.99313421684199
 20
-58.29387934604937
 30
0.0
 10
25.40940941069409
 20
-57.27570290723088
 30
0.0
 10
25.7500001631046
 20
-55.54264762337595
 30
0.0
 10
25.7500001631046
 20
-54.44267169862892
 30
0.0
 10
25.7500001631046
 20
-54.44267169862892
 30
0.0
 10
25.7500001631046
 20
-29.10597533452038
 30
0.0
 10
25.7500001631046
 20
-21.74888779838222
 30
0.0
 10
25.74304537659375
 20
-21.7490385213097
 30
0.0
 10
25.73656429071213
 20
-21.75095485567337
 30
0.0
 10
25.72956644050771
 20
-21.75095485567337
 30
0.0
 10
25.1772745705286
 20
-21.75095485567337
 30
0.0
 10
24.7295628803736
 20
-21.30324316551837
 30
0.0
 10
24.7295628803736
 20
-20.75097282738604
 30
0.0
 10
24.7295628803736
 20
-20.19868095740693
 30
0.0
 10
25.1772745705286
 20
-19.75096926725193
 30
0.0
 10
25.72956644050771
 20
-19.75096926725193
 30
0.0
 10
25.78111368170577
 20
-19.75096926725193
 30
0.0
 10
25.83061539745945
 20
-19.75863460470661
 30
0.0
 10
25.88007404951957
 20
-19.76614921923381
 30
0.0
 10
25.88007404951957
 20
-19.76614921923381
 30
0.0
 10
27.47926584192576
 20
-19.76614921923381
 30
0.0
 10
27.47926584192576
 20
-19.76614921923381
 30
0.0
 10
27.47926584192576
 20
-19.76614921923381
 30
0.0
 10
27.47926584192576
 20
-7.00097232219724
 30
0.0
 10
27.47926584192576
 20
-7.00097232219724
 30
0.0
 10
27.47926584192576
 20
-7.00097232219724
 30
0.0
 10
25.77099371371784
 20
-7.00097232219724
 30
0.0
 10
25.77099371371784
 20
-7.00097232219724
 30
0.0
  0
SPLINE
  5
42
330
1F
100
AcDbEntity
  8
Layer 1
 62
     1
420
 16711680
370
     9
100
AcDbSpline
210
0.0
220
0.0
230
1.0
 70
    11
 71
     3
 72
    23
 73
    19
 74
     0
 42
0.0000000001
 43
0.0000000001
 12
1.0
 22
0.0
 32
0.0
 13
1.0
 23
0.0
 33
0.0
 40
0.0
 40
0.0
 40
0.0
 40
0.0
 40
1.0
 40
1.0
 40
1.0
 40
2.0
 40
2.0
 40
2.0
 40
3.0
 40
3.0
 40
3.0
 40
4.0
 40
4.0
 40
4.0
 40
5.0
 40
5.0
 40
5.0
 40
6.0
 40
6.0
 40
6.0
 40
6.0
 10
9.455516728050618
 20
-25.73538003913907
 30
0.0
 10
9.455516728050618
 20
-25.73538003913907
 30
0.0
 10
16.34915279403554
 20
-25.73538003913907
 30
0.0
 10
16.34915279403554
 20
-25.73538003913907
 30
0.0
 10
17.27286902101816
 20
-25.73538003913907
 30
0.0
 10
17.7027308101902
 20
-26.88065896951682
 30
0.0
 10
17.0071229680247
 20
-27.48841687680845
 30
0.0
 10
17.0071229680247
 20
-27.48841687680845
 30
0.0
 10
13.56030493503223
 20
-30.50007628632029
 30
0.0
 10
13.56030493503223
 20
-30.50007628632029
 30
0.0
 10
13.18345455263947
 20
-30.82936281916983
 30
0.0
 10
12.62121496944669
 20
-30.82936281916983
 30
0.0
 10
12.24436458705393
 20
-30.50007628632029
 30
0.0
 10
12.24436458705393
 20
-30.50007628632029
 30
0.0
 10
8.797546554061464
 20
-27.48841687680845
 30
0.0
 10
8.797546554061464
 20
-27.48841687680845
 30
0.0
 10
8.101938711895956
 20
-26.88065896951682
 30
0.0
 10
8.531800501068005
 20
-25.73538003913907
 30
0.0
 10
9.455516728050618
 20
-25.73538003913907
 30
0.0
  0
SPLINE
  5
43
330
1F
100
AcDbEntity
  8
Layer 1
 62
     1
420
 16711680
370
     9
100
AcDbSpline
210
0.0
220
0.0
230
1.0
 70
    11
 71
     3
 72
    23
 73
    19
 74
     0
 42
0.0000000001
 43
0.0000000001
 12
1.0
 22
0.0
 32
0.0
 13
1.0
 23
0.0
 33
0.0
 40
0.0
 40
0.0
 40
0.0
 40
0.0
 40
1.0
 40
1.0
 40
1.0
 40
2.0
 40
2.0
 40
2.0
 40
3.0
 40
3.0
 40
3.0
 40
4.0
 40
4.0
 40
4.0
 40
5.0
 40
5.0
 40
5.0
 40
6.0
 40
6.0
 40
6.0
 40
6.0
 10
12.24436458705393
 20
-46.8812469365222
 30
0.0
 10
12.24436458705393
 20
-46.8812469365222
 30
0.0
 10
8.797546554061464
 20
-43.86958752701003
 30
0.0
 10
8.797546554061464
 20
-43.86958752701003
 30
0.0
 10
8.101938711895956
 20
-43.26180808787161
 30
0.0
 10
8.531800501068005
 20
-42.11655068934066
 30
0.0
 10
9.455516728050618
 20
-42.11655068934066
 30
0.0
 10
9.455516728050618
 20
-42.11655068934066
 30
0.0
 10
16.34915279403554
 20
-42.11655068934066
 30
0.0
 10
16.34915279403554
 20
-42.11655068934066
 30
0.0
 10
17.27286902101816
 20
-42.11655068934066
 30
0.0
 10
17.7027308101902
 20
-43.26180808787161
 30
0.0
 10
17.0071229680247
 20
-43.86958752701003
 30
0.0
 10
17.0071229680247
 20
-43.86958752701003
 30
0.0
 10
13.56030493503223
 20
-46.8812469365222
 30
0.0
 10
13.56030493503223
 20
-46.8812469365222
 30
0.0
 10
13.18345455263947
 20
-47.21051193752495
 30
0.0
 10
12.62121496944669
 20
-47.21051193752495
 30
0.0
 10
12.24436458705393
 20
-46.8812469365222
 30
0.0
  0
SPLINE
  5
44
330
1F
100
AcDbEntity
  8
Layer 1
 62
     1
420
 16711680
370
     9
100
AcDbSpline
210
0.0
220
0.0
230
1.0
 70
    11
 71
     3
 72
    23
 73
    19
 74
     0
 42
0.0000000001
 43
0.0000000001
 12
1.0
 22
0.0
 32
0.0
 13
1.0
 23
0.0
 33
0.0
 40
0.0
 40
0.0
 40
0.0
 40
0.0
 40
1.0
 40
1.0
 40
1.0
 40
2.0
 40
2.0
 40
2.0
 40
3.0
 40
3.0
 40
3.0
 40
4.0
 40
4.0
 40
4.0
 40
5.0
 40
5.0
 40
5.0
 40
6.0
 40
6.0
 40
6.0
 40
6.0
 10
17.0071229680247
 20
-54.03360967344938
 30
0.0
 10
17.7027308101902
 20
-54.64138911258748
 30
0.0
 10
17.27286902101816
 20
-55.78664651111877
 30
0.0
 10
16.34915279403554
 20
-55.78664651111877
 30
0.0
 10
16.34915279403554
 20
-55.78664651111877
 30
0.0
 10
9.455516728050618
 20
-55.78664651111877
 30
0.0
 10
9.455516728050618
 20
-55.78664651111877
 30
0.0
 10
8.531800501068005
 20
-55.78664651111877
 30
0.0
 10
8.101938711895956
 20
-54.64138911258748
 30
0.0
 10
8.797546554061464
 20
-54.03360967344938
 30
0.0
 10
8.797546554061464
 20
-54.03360967344938
 30
0.0
 10
12.24436458705393
 20
-51.02195026393722
 30
0.0
 10
12.24436458705393
 20
-51.02195026393722
 30
0.0
 10
12.62121496944669
 20
-50.69268526293447
 30
0.0
 10
13.18345455263947
 20
-50.69268526293447
 30
0.0
 10
13.56030493503223
 20
-51.02195026393722
 30
0.0
 10
13.56030493503223
 20
-51.02195026393722
 30
0.0
 10
17.0071229680247
 20
-54.03360967344938
 30
0.0
 10
17.0071229680247
 20
-54.03360967344938
 30
0.0
  0
SPLINE
  5
45
330
1F
100
AcDbEntity
  8
Layer 1
 62
     1
420
 16711680
370
     9
100
AcDbSpline
210
0.0
220
0.0
230
1.0
 70
    11
 71
     3
 72
    23
 73
    19
 74
     0
 42
0.0000000001
 43
0.0000000001
 12
1.0
 22
0.0
 32
0.0
 13
1.0
 23
0.0
 33
0.0
 40
0.0
 40
0.0
 40
0.0
 40
0.0
 40
1.0
 40
1.0
 40
1.0
 40
2.0
 40
2.0
 40
2.0
 40
3.0
 40
3.0
 40
3.0
 40
4.0
 40
4.0
 40
4.0
 40
5.0
 40
5.0
 40
5.0
 40
6.0
 40
6.0
 40
6.0
 40
6.0
 10
16.34915279403554
 20
-39.40547586091719
 30
0.0
 10
16.34915279403554
 20
-39.40547586091719
 30
0.0
 10
9.455516728050618
 20
-39.40547586091719
 30
0.0
 10
9.455516728050618
 20
-39.40547586091719
 30
0.0
 10
8.531800501068005
 20
-39.40547586091719
 30
0.0
 10
8.101938711895956
 20
-38.2602184623859
 30
0.0
 10
8.797546554061464
 20
-37.6524390232478
 30
0.0
 10
8.797546554061464
 20
-37.6524390232478
 30
0.0
 10
12.24436458705393
 20
-34.64077961373564
 30
0.0
 10
12.24436458705393
 20
-34.64077961373564
 30
0.0
 10
12.62121496944669
 20
-34.31151461273289
 30
0.0
 10
13.18345455263947
 20
-34.31151461273289
 30
0.0
 10
13.56030493503223
 20
-34.64077961373564
 30
0.0
 10
13.56030493503223
 20
-34.64077961373564
 30
0.0
 10
17.0071229680247
 20
-37.6524390232478
 30
0.0
 10
17.0071229680247
 20
-37.6524390232478
 30
0.0
 10
17.7027308101902
 20
-38.2602184623859
 30
0.0
 10
17.27286902101816
 20
-39.40547586091719
 30
0.0
 10
16.34915279403554
 20
-39.40547586091719
 30
0.0
  0
SPLINE
  5
46
330
1F
100
AcDbEntity
  8
Layer 1
 62
     1
420
 16711680
370
     9
100
AcDbSpline
210
0.0
220
0.0
230
1.0
 70
    11
 71
     3
 72
    23
 73
    19
 74
     0
 42
0.0000000001
 43
0.0000000001
 12
1.0
 22
0.0
 32
0.0
 13
1.0
 23
0.0
 33
0.0
 40
0.0
 40
0.0
 40
0.0
 40
0.0
 40
1.0
 40
1.0
 40
1.0
 40
2.0
 40
2.0
 40
2.0
 40
3.0
 40
3.0
 40
3.0
 40
4.0
 40
4.0
 40
4.0
 40
5.0
 40
5.0
 40
5.0
 40
6.0
 40
6.0
 40
6.0
 40
6.0
 10
5.036578876507782
 20
-28.67947251344645
 30
0.0
 10
5.036578876507782
 20
-28.67947251344645
 30
0.0
 10
8.627918665106476
 20
-31.8173946724927
 30
0.0
 10
8.627918665106476
 20
-31.8173946724927
 30
0.0
 10
9.08394164811964
 20
-32.21584149720863
 30
0.0
 10
9.08394164811964
 20
-32.92501440284731
 30
0.0
 10
8.627918665106476
 20
-33.32348275941002
 30
0.0
 10
8.627918665106476
 20
-33.32348275941002
 30
0.0
 10
5.036578876507782
 20
-36.4613833866098
 30
0.0
 10
5.036578876507782
 20
-36.4613833866098
 30
0.0
 10
4.389848326539257
 20
-37.02646517357791
 30
0.0
 10
3.378605142384516
 20
-36.56716934985344
 30
0.0
 10
3.378605142384516
 20
-35.70835010907422
 30
0.0
 10
3.378605142384516
 20
-35.70835010907422
 30
0.0
 10
3.378605142384516
 20
-29.4325273228285
 30
0.0
 10
3.378605142384516
 20
-29.4325273228285
 30
0.0
 10
3.378605142384516
 20
-28.57370808204928
 30
0.0
 10
4.389848326539257
 20
-28.11439072647835
 30
0.0
 10
5.036578876507782
 20
-28.67947251344645
 30
0.0
  0
SPLINE
  5
47
330
1F
100
AcDbEntity
  8
Layer 1
 62
     1
420
 16711680
370
     9
100
AcDbSpline
210
0.0
220
0.0
230
1.0
 70
    11
 71
     3
 72
    17
 73
    13
 74
     0
 42
0.0000000001
 43
0.0000000001
 12
1.0
 22
0.0
 32
0.0
 13
1.0
 23
0.0
 33
0.0
 40
0.0
 40
0.0
 40
0.0
 40
0.0
 40
1.0
 40
1.0
 40
1.0
 40
2.0
 40
2.0
 40
2.0
 40
3.0
 40
3.0
 40
3.0
 40
4.0
 40
4.0
 40
4.0
 40
4.0
 10
3.137922159046249
 20
-4.863828869769286
 30
0.0
 10
2.506285433672474
 20
-4.767086282174114
 30
0.0
 10
1.990037875207786
 20
-4.250838723709426
 30
0.0
 10
1.893295287612614
 20
-3.619201998335651
 30
0.0
 10
1.73802914046176
 20
-2.605568779188018
 30
0.0
 10
2.598549397136821
 20
-1.745048522512957
 30
0.0
 10
3.61222567997802
 20
-1.900271605970245
 30
0.0
 10
4.243862405351795
 20
-1.996992661718634
 30
0.0
 10
4.760131495663266
 20
-2.513261752030105
 30
0.0
 10
4.856852551411655
 20
-3.144920009250662
 30
0.0
 10
5.012097166715726
 20
-4.158574760245079
 30
0.0
 10
4.151555378193883
 20
-5.01909501692014
 30
0.0
 10
3.137922159046249
 20
-4.863828869769286
 30
0.0
  0
SPLINE
  5
48
330
1F
100
AcDbEntity
  8
Layer 1
 62
     1
420
 16711680
370
     9
100
AcDbSpline
210
0.0
220
0.0
230
1.0
 70
    11
 71
     3
 72
    23
 73
    19
 74
     0
 42
0.0000000001
 43
0.0000000001
 12
1.0
 22
0.0
 32
0.0
 13
1.0
 23
0.0
 33
0.0
 40
0.0
 40
0.0
 40
0.0
 40
0.0
 40
1.0
 40
1.0
 40
1.0
 40
2.0
 40
2.0
 40
2.0
 40
3.0
 40
3.0
 40
3.0
 40
4.0
 40
4.0
 40
4.0
 40
5.0
 40
5.0
 40
5.0
 40
6.0
 40
6.0
 40
6.0
 40
6.0
 10
3.378605142384516
 20
-52.08949922742902
 30
0.0
 10
3.378605142384516
 20
-52.08949922742902
 30
0.0
 10
3.378605142384516
 20
-45.81369797303041
 30
0.0
 10
3.378605142384516
 20
-45.81369797303041
 30
0.0
 10
3.378605142384516
 20
-44.95485720040408
 30
0.0
 10
4.389848326539257
 20
-44.49556137667993
 30
0.0
 10
5.036578876507782
 20
-45.06064316364804
 30
0.0
 10
5.036578876507782
 20
-45.06064316364804
 30
0.0
 10
8.627918665106476
 20
-48.19856532269461
 30
0.0
 10
8.627918665106476
 20
-48.19856532269461
 30
0.0
 10
9.08394164811964
 20
-48.59701214741021
 30
0.0
 10
9.08394164811964
 20
-49.30618505304889
 30
0.0
 10
8.627918665106476
 20
-49.7046534096116
 30
0.0
 10
8.627918665106476
 20
-49.7046534096116
 30
0.0
 10
5.036578876507782
 20
-52.84255403681139
 30
0.0
 10
5.036578876507782
 20
-52.84255403681139
 30
0.0
 10
4.389848326539257
 20
-53.40763582377949
 30
0.0
 10
3.378605142384516
 20
-52.94834000005502
 30
0.0
 10
3.378605142384516
 20
-52.08949922742902
 30
0.0
  0
SPLINE
  5
49
330
1F
100
AcDbEntity
  8
Layer 1
 62
     1
420
 16711680
370
     9
100
AcDbSpline
210
0.0
220
0.0
230
1.0
 70
    11
 71
     3
 72
    17
 73
    13
 74
     0
 42
0.0000000001
 43
0.0000000001
 12
1.0
 22
0.0
 32
0.0
 13
1.0
 23
0.0
 33
0.0
 40
0.0
 40
0.0
 40
0.0
 40
0.0
 40
1.0
 40
1.0
 40
1.0
 40
2.0
 40
2.0
 40
2.0
 40
3.0
 40
3.0
 40
3.0
 40
4.0
 40
4.0
 40
4.0
 40
4.0
 10
14.38413492478938
 20
-70.41391904977965
 30
0.0
 10
14.28743540088778
 20
-71.0455557751531
 30
0.0
 10
13.77123090611665
 20
-71.5618248654649
 30
0.0
 10
13.13959418074288
 20
-71.65861051675331
 30
0.0
 10
12.12587483420812
 20
-71.81394125944452
 30
0.0
 10
11.26522538645236
 20
-70.95331334353554
 30
0.0
 10
11.42057766099034
 20
-69.93959399700078
 30
0.0
 10
11.51736331227908
 20
-69.30795727162733
 30
0.0
 10
12.03361087074377
 20
-68.79175277685589
 30
0.0
 10
12.66526912796433
 20
-68.69505325295428
 30
0.0
 10
13.67885928341839
 20
-68.53987323319087
 30
0.0
 10
14.53931494455311
 20
-69.40032889432527
 30
0.0
 10
14.38413492478938
 20
-70.41391904977965
 30
0.0
  0
SPLINE
  5
4A
330
1F
100
AcDbEntity
  8
Layer 1
 62
     1
420
 16711680
370
     9
100
AcDbSpline
210
0.0
220
0.0
230
1.0
 70
    11
 71
     3
 72
    29
 73
    25
 74
     0
 42
0.0000000001
 43
0.0000000001
 12
1.0
 22
0.0
 32
0.0
 13
1.0
 23
0.0
 33
0.0
 40
0.0
 40
0.0
 40
0.0
 40
0.0
 40
1.0
 40
1.0
 40
1.0
 40
2.0
 40
2.0
 40
2.0
 40
3.0
 40
3.0
 40
3.0
 40
4.0
 40
4.0
 40
4.0
 40
5.0
 40
5.0
 40
5.0
 40
6.0
 40
6.0
 40
6.0
 40
7.0
 40
7.0
 40
7.0
 40
8.0
 40
8.0
 40
8.0
 40
8.0
 10
20.45510372074343
 20
-60.26688553045194
 30
0.0
 10
20.45510372074343
 20
-60.26688553045194
 30
0.0
 10
18.94576432496191
 20
-63.50863425468491
 30
0.0
 10
18.94576432496191
 20
-63.50863425468491
 30
0.0
 10
18.52789577444789
 20
-64.40612469228606
 30
0.0
 10
17.37600656710782
 20
-65.14044679496706
 30
0.0
 10
16.38599378388093
 20
-65.14044679496706
 30
0.0
 10
16.38599378388093
 20
-65.14044679496706
 30
0.0
 10
9.359786137254238
 20
-65.14044679496706
 30
0.0
 10
9.359786137254238
 20
-65.14044679496706
 30
0.0
 10
8.369773354027348
 20
-65.14044679496706
 30
0.0
 10
7.223288640229768
 20
-64.40362699805925
 30
0.0
 10
6.812030366678069
 20
-63.50310057006173
 30
0.0
 10
6.812030366678069
 20
-63.50310057006173
 30
0.0
 10
5.336625161426261
 20
-60.27244074692191
 30
0.0
 10
5.336625161426261
 20
-60.27244074692191
 30
0.0
 10
4.925366887874561
 20
-59.37189278707761
 30
0.0
 10
5.398873730475368
 20
-58.63509452201658
 30
0.0
 10
6.388886513702258
 20
-58.63509452201658
 30
0.0
 10
6.388886513702258
 20
-58.63509452201658
 30
0.0
 10
19.41485713897224
 20
-58.6350729901698
 30
0.0
 10
19.41485713897224
 20
-58.6350729901698
 30
0.0
 10
20.40486992219913
 20
-58.6350729901698
 30
0.0
 10
20.87297227125745
 20
-59.36939509285079
 30
0.0
 10
20.45510372074343
 20
-60.26688553045194
 30
0.0
  0
SPLINE
  5
4B
330
1F
100
AcDbEntity
  8
Layer 1
 62
     1
420
 16711680
370
     9
100
AcDbSpline
210
0.0
220
0.0
230
1.0
 70
    11
 71
     3
 72
    23
 73
    19
 74
     0
 42
0.0000000001
 43
0.0000000001
 12
1.0
 22
0.0
 32
0.0
 13
1.0
 23
0.0
 33
0.0
 40
0.0
 40
0.0
 40
0.0
 40
0.0
 40
1.0
 40
1.0
 40
1.0
 40
2.0
 40
2.0
 40
2.0
 40
3.0
 40
3.0
 40
3.0
 40
4.0
 40
4.0
 40
4.0
 40
5.0
 40
5.0
 40
5.0
 40
6.0
 40
6.0
 40
6.0
 40
6.0
 10
22.42606437970165
 20
-52.08949922742902
 30
0.0
 10
22.42606437970165
 20
-52.94834000005502
 30
0.0
 10
21.4148211955469
 20
-53.40763582377949
 30
0.0
 10
20.76809064557838
 20
-52.84255403681139
 30
0.0
 10
20.76809064557838
 20
-52.84255403681139
 30
0.0
 10
17.17677238882647
 20
-49.7046534096116
 30
0.0
 10
17.17677238882647
 20
-49.7046534096116
 30
0.0
 10
16.72072787396652
 20
-49.30618505304889
 30
0.0
 10
16.72072787396652
 20
-48.59701214741021
 30
0.0
 10
17.17677238882647
 20
-48.19856532269461
 30
0.0
 10
17.17677238882647
 20
-48.19856532269461
 30
0.0
 10
20.76809064557838
 20
-45.06064316364804
 30
0.0
 10
20.76809064557838
 20
-45.06064316364804
 30
0.0
 10
21.4148211955469
 20
-44.49556137667993
 30
0.0
 10
22.42606437970165
 20
-44.95485720040408
 30
0.0
 10
22.42606437970165
 20
-45.81369797303041
 30
0.0
 10
22.42606437970165
 20
-45.81369797303041
 30
0.0
 10
22.42606437970165
 20
-52.08949922742902
 30
0.0
 10
22.42606437970165
 20
-52.08949922742902
 30
0.0
  0
SPLINE
  5
4C
330
1F
100
AcDbEntity
  8
Layer 1
 62
     1
420
 16711680
370
     9
100
AcDbSpline
210
0.0
220
0.0
230
1.0
 70
    11
 71
     3
 72
    23
 73
    19
 74
     0
 42
0.0000000001
 43
0.0000000001
 12
1.0
 22
0.0
 32
0.0
 13
1.0
 23
0.0
 33
0.0
 40
0.0
 40
0.0
 40
0.0
 40
0.0
 40
1.0
 40
1.0
 40
1.0
 40
2.0
 40
2.0
 40
2.0
 40
3.0
 40
3.0
 40
3.0
 40
4.0
 40
4.0
 40
4.0
 40
5.0
 40
5.0
 40
5.0
 40
6.0
 40
6.0
 40
6.0
 40
6.0
 10
22.42606437970165
 20
-35.70835010907422
 30
0.0
 10
22.42606437970165
 20
-36.56716934985344
 30
0.0
 10
21.4148211955469
 20
-37.02646517357791
 30
0.0
 10
20.76809064557838
 20
-36.4613833866098
 30
0.0
 10
20.76809064557838
 20
-36.4613833866098
 30
0.0
 10
17.17677238882647
 20
-33.32348275941002
 30
0.0
 10
17.17677238882647
 20
-33.32348275941002
 30
0.0
 10
16.72072787396652
 20
-32.92501440284731
 30
0.0
 10
16.72072787396652
 20
-32.21584149720863
 30
0.0
 10
17.17677238882647
 20
-31.8173946724927
 30
0.0
 10
17.17677238882647
 20
-31.8173946724927
 30
0.0
 10
20.76809064557838
 20
-28.67947251344645
 30
0.0
 10
20.76809064557838
 20
-28.67947251344645
 30
0.0
 10
21.4148211955469
 20
-28.11439072647835
 30
0.0
 10
22.42606437970165
 20
-28.57370808204928
 30
0.0
 10
22.42606437970165
 20
-29.4325273228285
 30
0.0
 10
22.42606437970165
 20
-29.4325273228285
 30
0.0
 10
22.42606437970165
 20
-35.70835010907422
 30
0.0
 10
22.42606437970165
 20
-35.70835010907422
 30
0.0
  0
SPLINE
  5
4D
330
1F
100
AcDbEntity
  8
Layer 1
 62
     1
420
 16711680
370
     9
100
AcDbSpline
210
0.0
220
0.0
230
1.0
 70
    11
 71
     3
 72
    17
 73
    13
 74
     0
 42
0.0000000001
 43
0.0000000001
 12
1.0
 22
0.0
 32
0.0
 13
1.0
 23
0.0
 33
0.0
 40
0.0
 40
0.0
 40
0.0
 40
0.0
 40
1.0
 40
1.0
 40
1.0
 40
2.0
 40
2.0
 40
2.0
 40
3.0
 40
3.0
 40
3.0
 40
4.0
 40
4.0
 40
4.0
 40
4.0
 10
23.85683406657268
 20
-3.619223530182434
 30
0.0
 10
23.76009147897751
 20
-4.250860255556209
 30
0.0
 10
23.24384392051282
 20
-4.767107814020897
 30
0.0
 10
22.61220719513905
 20
-4.863850401616069
 30
0.0
 10
21.59857397599142
 20
-5.019073485073357
 30
0.0
 10
20.73805371931635
 20
-4.158553228398296
 30
0.0
 10
20.89329833462043
 20
-3.14489847740388
 30
0.0
 10
20.9900409222156
 20
-2.513240220183322
 30
0.0
 10
21.50631001252707
 20
-1.996971129871851
 30
0.0
 10
22.13796826974763
 20
-1.900271605970245
 30
0.0
 10
23.15162302074204
 20
-1.745048522512957
 30
0.0
 10
24.01210021372354
 20
-2.6055903110348
 30
0.0
 10
23.85683406657268
 20
-3.619223530182434
 30
0.0
  0
ENDSEC
  0
SECTION
  2
OBJECTS
  0
DICTIONARY
  5
C
330
0
100
AcDbDictionary
281
     1
  3
ACAD_GROUP
350
D
  3
ACAD_LAYOUT
350
1A
  3
ACAD_MATERIAL
350
3B
  3
ACAD_MLEADERSTYLE
350
4F
  3
ACAD_MLINESTYLE
350
17
  3
ACAD_PLOTSETTINGS
350
19
  3
ACAD_PLOTSTYLENAME
350
E
  3
ACAD_TABLESTYLE
350
4E
  3
ACAD_VISUALSTYLE
350
2A
  0
SUN
  5
3F
330
29
100
AcDbSun
 90
        1
290
     0
 63
     7
421
 16777215
 40
1.0
291
     1
 91
  2455826
 92
 54000000
292
     0
 70
     2
 71
   256
280
     1
  0
DICTIONARY
  5
D
102
{ACAD_REACTORS
330
C
102
}
330
C
100
AcDbDictionary
281
     1
  0
DICTIONARY
  5
1A
102
{ACAD_REACTORS
330
C
102
}
330
C
100
AcDbDictionary
281
     1
  3
Layout1
350
1E
  3
Layout2
350
26
  3
Model
350
22
  0
DICTIONARY
  5
3B
102
{ACAD_REACTORS
330
C
102
}
330
C
100
AcDbDictionary
281
     1
  3
ByBlock
350
3D
  3
ByLayer
350
3C
  3
Global
350
3E
  0
DICTIONARY
  5
4F
102
{ACAD_REACTORS
330
C
102
}
330
C
100
AcDbDictionary
281
     1
  0
DICTIONARY
  5
17
102
{ACAD_REACTORS
330
C
102
}
330
C
100
AcDbDictionary
281
     1
  3
Standard
350
18
  0
DICTIONARY
  5
19
102
{ACAD_REACTORS
330
C
102
}
330
C
100
AcDbDictionary
281
     1
  0
ACDBDICTIONARYWDFLT
  5
E
102
{ACAD_REACTORS
330
C
102
}
330
C
100
AcDbDictionary
281
     1
  3
Normal
350
F
100
AcDbDictionaryWithDefault
340
F
  0
DICTIONARY
  5
4E
102
{ACAD_REACTORS
330
C
102
}
330
C
100
AcDbDictionary
281
     1
  0
DICTIONARY
  5
2A
102
{ACAD_REACTORS
330
C
102
}
330
C
100
AcDbDictionary
281
     1
  3
2dWireframe
350
2F
  3
3D Hidden
350
31
  3
3dWireframe
350
30
  3
Basic
350
32
  3
Brighten
350
36
  3
ColorChange
350
3A
  3
Conceptual
350
34
  3
Dim
350
35
  3
Facepattern
350
39
  3
Flat
350
2B
  3
FlatWithEdges
350
2C
  3
Gouraud
350
2D
  3
GouraudWithEdges
350
2E
  3
Linepattern
350
38
  3
Realistic
350
33
  3
Thicken
350
37
  0
LAYOUT
  5
1E
102
{ACAD_REACTORS
330
1A
102
}
330
1A
100
AcDbPlotSettings
  1

  2
none_device
  4

  6

 40
0.0
 41
0.0
 42
0.0
 43
0.0
 44
0.0
 45
0.0
 46
0.0
 47
0.0
 48
0.0
 49
0.0
140
0.0
141
0.0
142
1.0
143
1.0
 70
   688
 72
     0
 73
     0
 74
     5
  7

 75
    16
 76
     0
 77
     2
 78
   300
147
1.0
148
0.0
149
0.0
100
AcDbLayout
  1
Layout1
 70
     1
 71
     1
 10
0.0
 20
0.0
 11
12.0
 21
9.0
 12
0.0
 22
0.0
 32
0.0
 14
1.000000000000000E+20
 24
1.000000000000000E+20
 34
1.000000000000000E+20
 15
-1.000000000000000E+20
 25
-1.000000000000000E+20
 35
-1.000000000000000E+20
146
0.0
 13
0.0
 23
0.0
 33
0.0
 16
1.0
 26
0.0
 36
0.0
 17
0.0
 27
1.0
 37
0.0
 76
     0
330
1B
  0
LAYOUT
  5
26
102
{ACAD_REACTORS
330
1A
102
}
330
1A
100
AcDbPlotSettings
  1

  2
none_device
  4

  6

 40
0.0
 41
0.0
 42
0.0
 43
0.0
 44
0.0
 45
0.0
 46
0.0
 47
0.0
 48
0.0
 49
0.0
140
0.0
141
0.0
142
1.0
143
1.0
 70
   688
 72
     0
 73
     0
 74
     5
  7

 75
    16
 76
     0
 77
     2
 78
   300
147
1.0
148
0.0
149
0.0
100
AcDbLayout
  1
Layout2
 70
     1
 71
     2
 10
0.0
 20
0.0
 11
0.0
 21
0.0
 12
0.0
 22
0.0
 32
0.0
 14
0.0
 24
0.0
 34
0.0
 15
0.0
 25
0.0
 35
0.0
146
0.0
 13
0.0
 23
0.0
 33
0.0
 16
1.0
 26
0.0
 36
0.0
 17
0.0
 27
1.0
 37
0.0
 76
     0
330
23
  0
LAYOUT
  5
22
102
{ACAD_REACTORS
330
1A
102
}
330
1A
100
AcDbPlotSettings
  1

  2
none_device
  4

  6

 40
0.0
 41
0.0
 42
0.0
 43
0.0
 44
0.0
 45
0.0
 46
0.0
 47
0.0
 48
0.0
 49
0.0
140
0.0
141
0.0
142
1.0
143
1.0
 70
  1712
 72
     0
 73
     0
 74
     0
  7

 75
     0
 76
     0
 77
     2
 78
   300
147
1.0
148
0.0
149
0.0
100
AcDbLayout
  1
Model
 70
     1
 71
     0
 10
0.0
 20
0.0
 11
12.0
 21
9.0
 12
0.0
 22
0.0
 32
0.0
 14
1.000000000000000E+20
 24
1.000000000000000E+20
 34
1.000000000000000E+20
 15
-1.000000000000000E+20
 25
-1.000000000000000E+20
 35
-1.000000000000000E+20
146
0.0
 13
0.0
 23
0.0
 33
0.0
 16
1.0
 26
0.0
 36
0.0
 17
0.0
 27
1.0
 37
0.0
 76
     0
330
1F
331
29
  0
MATERIAL
  5
3D
102
{ACAD_REACTORS
330
3B
102
}
330
3B
100
AcDbMaterial
  1
ByBlock
 72
     1
 94
      127
  0
MATERIAL
  5
3C
102
{ACAD_REACTORS
330
3B
102
}
330
3B
100
AcDbMaterial
  1
ByLayer
 72
     1
 94
      127
  0
MATERIAL
  5
3E
102
{ACAD_REACTORS
330
3B
102
}
330
3B
100
AcDbMaterial
  1
Global
 72
     1
 94
      127
  0
MLINESTYLE
  5
18
102
{ACAD_REACTORS
330
17
102
}
330
17
100
AcDbMlineStyle
  2
Standard
 70
     0
  3

 62
   256
 51
90.0
 52
90.0
 71
     2
 49
0.5
 62
   256
  6
BYLAYER
 49
-0.5
 62
   256
  6
BYLAYER
  0
ACDBPLACEHOLDER
  5
F
102
{ACAD_REACTORS
330
E
102
}
330
E
  0
VISUALSTYLE
  5
2F
102
{ACAD_REACTORS
330
2A
102
}
330
2A
100
AcDbVisualStyle
  2
2dWireframe
 70
     4
177
     2
291
     0
 71
     0
176
     1
 72
     2
176
     1
 73
     0
176
     1
 90
        0
176
     1
 40
-0.6
176
     1
 41
-30.0
176
     1
 62
     5
 63
     7
421
 16777215
176
     1
 74
     1
176
     1
 91
        4
176
     1
 64
     7
176
     1
 65
   257
176
     1
 75
     1
176
     1
175
     1
176
     1
 42
1.0
176
     1
 92
        0
176
     1
 66
   257
176
     1
 43
1.0
176
     1
 76
     1
176
     1
 77
     6
176
     1
 78
     2
176
     1
 67
     7
176
     1
 79
     5
176
     1
170
     0
176
     1
171
     0
176
     1
290
     0
176
     1
 93
        1
176
     1
 44
0.0
176
     1
173
     0
176
     1
  0
VISUALSTYLE
  5
31
102
{ACAD_REACTORS
330
2A
102
}
330
2A
100
AcDbVisualStyle
  2
3D Hidden
 70
     6
177
     2
291
     0
 71
     1
176
     1
 72
     2
176
     1
 73
     2
176
     1
 90
        0
176
     1
 40
-0.6
176
     1
 41
-30.0
176
     1
 62
     5
 63
     7
421
 16777215
176
     1
 74
     2
176
     1
 91
        2
176
     1
 64
     7
176
     1
 65
   257
176
     1
 75
     2
176
     1
175
     1
176
     1
 42
40.0
176
     1
 92
        0
176
     1
 66
   257
176
     1
 43
1.0
176
     1
 76
     1
176
     1
 77
     6
176
     1
 78
     2
176
     1
 67
     7
176
     1
 79
     3
176
     1
170
     0
176
     1
171
     0
176
     1
290
     0
176
     1
 93
        1
176
     1
 44
0.0
176
     1
173
     0
176
     1
  0
VISUALSTYLE
  5
30
102
{ACAD_REACTORS
330
2A
102
}
330
2A
100
AcDbVisualStyle
  2
3dWireframe
 70
     5
177
     2
291
     0
 71
     0
176
     1
 72
     2
176
     1
 73
     0
176
     1
 90
        0
176
     1
 40
-0.6
176
     1
 41
-30.0
176
     1
 62
     5
 63
     7
421
 16777215
176
     1
 74
     1
176
     1
 91
        4
176
     1
 64
     7
176
     1
 65
   257
176
     1
 75
     1
176
     1
175
     1
176
     1
 42
1.0
176
     1
 92
        0
176
     1
 66
   257
176
     1
 43
1.0
176
     1
 76
     1
176
     1
 77
     6
176
     1
 78
     2
176
     1
 67
     7
176
     1
 79
     5
176
     1
170
     0
176
     1
171
     0
176
     1
290
     0
176
     1
 93
        1
176
     1
 44
0.0
176
     1
173
     0
176
     1
  0
VISUALSTYLE
  5
32
102
{ACAD_REACTORS
330
2A
102
}
330
2A
100
AcDbVisualStyle
  2
Basic
 70
     7
177
     2
291
     1
 71
     1
176
     1
 72
     0
176
     1
 73
     1
176
     1
 90
        0
176
     1
 40
-0.6
176
     1
 41
-30.0
176
     1
 62
     5
 63
     7
421
 16777215
176
     1
 74
     0
176
     1
 91
        4
176
     1
 64
     7
176
     1
 65
   257
176
     1
 75
     1
176
     1
175
     1
176
     1
 42
1.0
176
     1
 92
        8
176
     1
 66
     7
176
     1
 43
1.0
176
     1
 76
     1
176
     1
 77
     6
176
     1
 78
     2
176
     1
 67
     7
176
     1
 79
     5
176
     1
170
     0
176
     1
171
     0
176
     1
290
     0
176
     1
 93
        1
176
     1
 44
0.0
176
     1
173
     0
176
     1
  0
VISUALSTYLE
  5
36
102
{ACAD_REACTORS
330
2A
102
}
330
2A
100
AcDbVisualStyle
  2
Brighten
 70
    12
177
     2
291
     1
 71
     2
176
     1
 72
     2
176
     1
 73
     0
176
     1
 90
        0
176
     1
 40
-0.6
176
     1
 41
-30.0
176
     1
 62
     5
 63
     7
421
 16777215
176
     1
 74
     1
176
     1
 91
        4
176
     1
 64
     7
176
     1
 65
   257
176
     1
 75
     1
176
     1
175
     1
176
     1
 42
1.0
176
     1
 92
        8
176
     1
 66
     7
176
     1
 43
1.0
176
     1
 76
     1
176
     1
 77
     6
176
     1
 78
     2
176
     1
 67
     7
176
     1
 79
     5
176
     1
170
     0
176
     1
171
     0
176
     1
290
     0
176
     1
 93
        1
176
     1
 44
50.0
176
     1
173
     0
176
     1
  0
VISUALSTYLE
  5
3A
102
{ACAD_REACTORS
330
2A
102
}
330
2A
100
AcDbVisualStyle
  2
ColorChange
 70
    16
177
     2
291
     1
 71
     2
176
     1
 72
     2
176
     1
 73
     3
176
     1
 90
        0
176
     1
 40
-0.6
176
     1
 41
-30.0
176
     1
 62
     5
 63
     8
421
  8421504
176
     1
 74
     1
176
     1
 91
        4
176
     1
 64
     7
176
     1
 65
   257
176
     1
 75
     1
176
     1
175
     1
176
     1
 42
1.0
176
     1
 92
        8
176
     1
 66
     8
424
  8421504
176
     1
 43
1.0
176
     1
 76
     1
176
     1
 77
     6
176
     1
 78
     2
176
     1
 67
     7
176
     1
 79
     5
176
     1
170
     0
176
     1
171
     0
176
     1
290
     0
176
     1
 93
        1
176
     1
 44
0.0
176
     1
173
     0
176
     1
  0
VISUALSTYLE
  5
34
102
{ACAD_REACTORS
330
2A
102
}
330
2A
100
AcDbVisualStyle
  2
Conceptual
 70
     9
177
     2
291
     0
 71
     3
176
     1
 72
     2
176
     1
 73
     0
176
     1
 90
        0
176
     1
 40
-0.6
176
     1
 41
-30.0
176
     1
 62
     5
 63
     7
421
 16777215
176
     1
 74
     2
176
     1
 91
        2
176
     1
 64
     7
176
     1
 65
   257
176
     1
 75
     1
176
     1
175
     1
176
     1
 42
40.0
176
     1
 92
        8
176
     1
 66
     7
176
     1
 43
1.0
176
     1
 76
     1
176
     1
 77
     6
176
     1
 78
     2
176
     1
 67
     7
176
     1
 79
     3
176
     1
170
     0
176
     1
171
     0
176
     1
290
     0
176
     1
 93
        1
176
     1
 44
0.0
176
     1
173
     0
176
     1
  0
VISUALSTYLE
  5
35
102
{ACAD_REACTORS
330
2A
102
}
330
2A
100
AcDbVisualStyle
  2
Dim
 70
    11
177
     2
291
     1
 71
     2
176
     1
 72
     2
176
     1
 73
     0
176
     1
 90
        0
176
     1
 40
-0.6
176
     1
 41
-30.0
176
     1
 62
     5
 63
     7
421
 16777215
176
     1
 74
     1
176
     1
 91
        4
176
     1
 64
     7
176
     1
 65
   257
176
     1
 75
     1
176
     1
175
     1
176
     1
 42
1.0
176
     1
 92
        8
176
     1
 66
     7
176
     1
 43
1.0
176
     1
 76
     1
176
     1
 77
     6
176
     1
 78
     2
176
     1
 67
     7
176
     1
 79
     5
176
     1
170
     0
176
     1
171
     0
176
     1
290
     0
176
     1
 93
        1
176
     1
 44
-50.0
176
     1
173
     0
176
     1
  0
VISUALSTYLE
  5
39
102
{ACAD_REACTORS
330
2A
102
}
330
2A
100
AcDbVisualStyle
  2
Facepattern
 70
    15
177
     2
291
     1
 71
     2
176
     1
 72
     2
176
     1
 73
     0
176
     1
 90
        0
176
     1
 40
-0.6
176
     1
 41
-30.0
176
     1
 62
     5
 63
     7
421
 16777215
176
     1
 74
     1
176
     1
 91
        4
176
     1
 64
     7
176
     1
 65
   257
176
     1
 75
     1
176
     1
175
     1
176
     1
 42
1.0
176
     1
 92
        8
176
     1
 66
     7
176
     1
 43
1.0
176
     1
 76
     1
176
     1
 77
     6
176
     1
 78
     2
176
     1
 67
     7
176
     1
 79
     5
176
     1
170
     0
176
     1
171
     0
176
     1
290
     0
176
     1
 93
        1
176
     1
 44
0.0
176
     1
173
     0
176
     1
  0
VISUALSTYLE
  5
2B
102
{ACAD_REACTORS
330
2A
102
}
330
2A
100
AcDbVisualStyle
  2
Flat
 70
     0
177
     2
291
     1
 71
     2
176
     1
 72
     1
176
     1
 73
     1
176
     1
 90
        2
176
     1
 40
-0.6
176
     1
 41
30.0
176
     1
 62
     5
 63
     7
421
 16777215
176
     1
 74
     0
176
     1
 91
        4
176
     1
 64
     7
176
     1
 65
   257
176
     1
 75
     1
176
     1
175
     1
176
     1
 42
1.0
176
     1
 92
        8
176
     1
 66
     7
176
     1
 43
1.0
176
     1
 76
     1
176
     1
 77
     6
176
     1
 78
     2
176
     1
 67
     7
176
     1
 79
     5
176
     1
170
     0
176
     1
171
     0
176
     1
290
     0
176
     1
 93
       13
176
     1
 44
0.0
176
     1
173
     0
176
     1
  0
VISUALSTYLE
  5
2C
102
{ACAD_REACTORS
330
2A
102
}
330
2A
100
AcDbVisualStyle
  2
FlatWithEdges
 70
     1
177
     2
291
     1
 71
     2
176
     1
 72
     1
176
     1
 73
     1
176
     1
 90
        2
176
     1
 40
-0.6
176
     1
 41
30.0
176
     1
 62
     5
 63
     7
421
 16777215
176
     1
 74
     1
176
     1
 91
        4
176
     1
 64
     7
176
     1
 65
   257
176
     1
 75
     1
176
     1
175
     1
176
     1
 42
1.0
176
     1
 92
        0
176
     1
 66
   257
176
     1
 43
1.0
176
     1
 76
     1
176
     1
 77
     6
176
     1
 78
     2
176
     1
 67
     7
176
     1
 79
     5
176
     1
170
     0
176
     1
171
     0
176
     1
290
     0
176
     1
 93
       13
176
     1
 44
0.0
176
     1
173
     0
176
     1
  0
VISUALSTYLE
  5
2D
102
{ACAD_REACTORS
330
2A
102
}
330
2A
100
AcDbVisualStyle
  2
Gouraud
 70
     2
177
     2
291
     1
 71
     2
176
     1
 72
     2
176
     1
 73
     1
176
     1
 90
        2
176
     1
 40
-0.6
176
     1
 41
30.0
176
     1
 62
     5
 63
     7
421
 16777215
176
     1
 74
     0
176
     1
 91
        4
176
     1
 64
     7
176
     1
 65
   257
176
     1
 75
     1
176
     1
175
     1
176
     1
 42
1.0
176
     1
 92
        0
176
     1
 66
     7
176
     1
 43
1.0
176
     1
 76
     1
176
     1
 77
     6
176
     1
 78
     2
176
     1
 67
     7
176
     1
 79
     5
176
     1
170
     0
176
     1
171
     0
176
     1
290
     0
176
     1
 93
       13
176
     1
 44
0.0
176
     1
173
     0
176
     1
  0
VISUALSTYLE
  5
2E
102
{ACAD_REACTORS
330
2A
102
}
330
2A
100
AcDbVisualStyle
  2
GouraudWithEdges
 70
     3
177
     2
291
     1
 71
     2
176
     1
 72
     2
176
     1
 73
     1
176
     1
 90
        2
176
     1
 40
-0.6
176
     1
 41
30.0
176
     1
 62
     5
 63
     7
421
 16777215
176
     1
 74
     1
176
     1
 91
        4
176
     1
 64
     7
176
     1
 65
   257
176
     1
 75
     1
176
     1
175
     1
176
     1
 42
1.0
176
     1
 92
        0
176
     1
 66
   257
176
     1
 43
1.0
176
     1
 76
     1
176
     1
 77
     6
176
     1
 78
     2
176
     1
 67
     7
176
     1
 79
     5
176
     1
170
     0
176
     1
171
     0
176
     1
290
     0
176
     1
 93
       13
176
     1
 44
0.0
176
     1
173
     0
176
     1
  0
VISUALSTYLE
  5
38
102
{ACAD_REACTORS
330
2A
102
}
330
2A
100
AcDbVisualStyle
  2
Linepattern
 70
    14
177
     2
291
     1
 71
     2
176
     1
 72
     2
176
     1
 73
     0
176
     1
 90
        0
176
     1
 40
-0.6
176
     1
 41
-30.0
176
     1
 62
     5
 63
     7
421
 16777215
176
     1
 74
     1
176
     1
 91
        4
176
     1
 64
     7
176
     1
 65
   257
176
     1
 75
     7
176
     1
175
     7
176
     1
 42
1.0
176
     1
 92
        8
176
     1
 66
     7
176
     1
 43
1.0
176
     1
 76
     1
176
     1
 77
     6
176
     1
 78
     2
176
     1
 67
     7
176
     1
 79
     5
176
     1
170
     0
176
     1
171
     0
176
     1
290
     0
176
     1
 93
        1
176
     1
 44
0.0
176
     1
173
     0
176
     1
  0
VISUALSTYLE
  5
33
102
{ACAD_REACTORS
330
2A
102
}
330
2A
100
AcDbVisualStyle
  2
Realistic
 70
     8
177
     2
291
     0
 71
     2
176
     1
 72
     2
176
     1
 73
     0
176
     1
 90
        0
176
     1
 40
-0.6
176
     1
 41
-30.0
176
     1
 62
     5
 63
     7
421
 16777215
176
     1
 74
     1
176
     1
 91
        0
176
     1
 64
     7
176
     1
 65
   257
176
     1
 75
     1
176
     1
175
     1
176
     1
 42
1.0
176
     1
 92
        8
176
     1
 66
     8
424
  7895160
176
     1
 43
1.0
176
     1
 76
     1
176
     1
 77
     6
176
     1
 78
     2
176
     1
 67
     7
176
     1
 79
     5
176
     1
170
     0
176
     1
171
     0
176
     1
290
     0
176
     1
 93
       13
176
     1
 44
0.0
176
     1
173
     0
176
     1
  0
VISUALSTYLE
  5
37
102
{ACAD_REACTORS
330
2A
102
}
330
2A
100
AcDbVisualStyle
  2
Thicken
 70
    13
177
     2
291
     1
 71
     2
176
     1
 72
     2
176
     1
 73
     0
176
     1
 90
        0
176
     1
 40
-0.6
176
     1
 41
-30.0
176
     1
 62
     5
 63
     7
421
 16777215
176
     1
 74
     1
176
     1
 91
        4
176
     1
 64
     7
176
     1
 65
   257
176
     1
 75
     1
176
     1
175
     1
176
     1
 42
1.0
176
     1
 92
       12
176
     1
 66
     7
176
     1
 43
1.0
176
     1
 76
     1
176
     1
 77
     6
176
     1
 78
     2
176
     1
 67
     7
176
     1
 79
     5
176
     1
170
     0
176
     1
171
     0
176
     1
290
     0
176
     1
 93
        1
176
     1
 44
0.0
176
     1
173
     0
176
     1
  0
ENDSEC
  0
EOF
