  0
SECTION
  2
HEADER
  9
$ACADVER
  1
AC1009
  9
$INSBASE
 10
0.0
 20
0.0
 30
0.0
  9
$EXTMIN
 10
0.0
 20
0.0
 30
0.0
  9
$EXTMAX
 10
0.0
 20
0.0
 30
0.0
  0
ENDSEC
  0
SECTION
  2
TABLES
  0
TABLE
  2
VPORT
 70
0
  0
ENDTAB
  0
TABLE
  2
LTYPE
 70
1
  0
LTYPE
  2
CONTINUOUS
 70
0
  3
Solid line
 72
65
 73
0
 40
0.0
  0
ENDTAB
  0
TABLE
  2
LAYER
 70
1
  0
LAYER
  2
0
 70
64
 62
7
  6
continuous
  0
ENDTAB
  0
TABLE
  2
STYLE
 70
1
  0
STYLE
  2
STANDARD
 70
0
 40
0
 41
1.0
 50
0.0
 71
0
 42
1
 3
ARIAL.TTF
 4

  0
ENDTAB
  0
TABLE
  2
VIEW
 70
0
  0
ENDTAB
  0
ENDSEC
  0
SECTION
  2
BLOCKS
  0
BLOCK
  8
0
  2
FILLET003
 70
0
 10
0.0
 20
0.0
 30
0.0
  3
FILLET003
  0
LINE
  8
0
 62
0
 10
-1.41421356237
 20
7.58578643763
 30
0.0
 11
-7.58578643763
 21
1.41421356237
 31
0.0
  0
ARC
  8
0
 62
0
 10
-1.60982338571e-15
 20
6.17157287525
 30
0.0
 40
2.0
 50
45.0
 51
135.0
  0
ARC
  8
0
 62
0
 10
-6.17157287525
 20
-1.7763568394e-15
 30
0.0
 40
2.0
 50
135.0
 51
-135.0
  0
LINE
  8
0
 62
0
 10
7.58578643763
 20
1.41421356237
 30
0.0
 11
1.41421356237
 21
7.58578643763
 31
0.0
  0
LINE
  8
0
 62
0
 10
-7.58578643763
 20
-1.41421356237
 30
0.0
 11
-1.41421356237
 21
-7.58578643763
 31
0.0
  0
ARC
  8
0
 62
0
 10
6.17157287525
 20
1.55431223448e-15
 30
0.0
 40
2.0
 50
-45.0
 51
45.0
  0
ARC
  8
0
 62
0
 10
2.05391259556e-15
 20
-6.17157287525
 30
0.0
 40
2.0
 50
-135.0
 51
-45.0
  0
LINE
  8
0
 62
0
 10
1.41421356237
 20
-7.58578643763
 30
0.0
 11
7.58578643763
 21
-1.41421356237
 31
0.0
  0
LINE
  8
0
 62
0
 10
-35.7114680369
 20
-26.5190798815
 30
0.0
 11
-20.0710678119
 21
-10.8786796564
 31
0.0
  0
ARC
  8
0
 62
0
 10
-37.1256815993
 20
-25.1048663192
 30
0.0
 40
2.0
 50
-72.279612736
 51
-45.0
  0
ARC
  8
0
 62
0
 10
-22.545941546
 20
-8.40380592229
 30
0.0
 40
3.5
 50
-45.0
 51
45.0
  0
LINE
  8
0
 62
0
 10
-36.5169375546
 20
-27.009972796
 30
0.0
 11
-46.4448659265
 21
-30.1822717439
 31
0.0
  0
LINE
  8
0
 62
0
 10
-20.0710678119
 20
-5.92893218813
 30
0.0
 11
-22.9142135624
 21
-3.08578643763
 31
0.0
  0
ARC
  8
0
 62
0
 10
-45.8361218819
 20
-32.0873782208
 30
0.0
 40
2.0
 50
107.720387264
 51
165.0
  0
ARC
  8
0
 62
0
 10
-21.5
 20
-1.67157287525
 30
0.0
 40
2.0
 50
180.0
 51
-135.0
  0
LINE
  8
0
 62
0
 10
-47.7679735344
 20
-31.5697401306
 30
0.0
 11
-50.2922514247
 21
-40.9904734696
 31
0.0
  0
LINE
  8
0
 62
0
 10
-23.5
 20
-1.67157287525
 30
0.0
 11
-23.5
 21
1.67157287525
 31
0.0
  0
ARC
  8
0
 62
0
 10
-48.3603997722
 20
-41.5081115598
 30
0.0
 40
2.0
 50
165.0
 51
-135.0
  0
ARC
  8
0
 62
0
 10
-21.5
 20
1.67157287525
 30
0.0
 40
2.0
 50
135.0
 51
-180.0
  0
LINE
  8
0
 62
0
 10
-49.7746133345
 20
-42.9223251222
 30
0.0
 11
-42.9223251222
 21
-49.7746133345
 31
0.0
  0
LINE
  8
0
 62
0
 10
-22.9142135624
 20
3.08578643763
 30
0.0
 11
-20.0710678119
 21
5.92893218813
 31
0.0
  0
ARC
  8
0
 62
0
 10
-41.5081115598
 20
-48.3603997722
 30
0.0
 40
2.0
 50
-135.0
 51
-75.0
  0
ARC
  8
0
 62
0
 10
-22.545941546
 20
8.40380592229
 30
0.0
 40
3.5
 50
-45.0
 51
45.0
  0
LINE
  8
0
 62
0
 10
-40.9904734696
 20
-50.2922514247
 30
0.0
 11
-31.5697401306
 21
-47.7679735345
 31
0.0
  0
LINE
  8
0
 62
0
 10
-20.0710678119
 20
10.8786796564
 30
0.0
 11
-35.7114680369
 21
26.5190798815
 31
0.0
  0
ARC
  8
0
 62
0
 10
-32.0873782208
 20
-45.8361218819
 30
0.0
 40
2.0
 50
-75.0
 51
-17.7203872641
  0
ARC
  8
0
 62
0
 10
-37.1256815993
 20
25.1048663192
 30
0.0
 40
2.0
 50
45.0
 51
72.279612736
  0
LINE
  8
0
 62
0
 10
-30.1822717439
 20
-46.4448659265
 30
0.0
 11
-27.009972796
 21
-36.5169375547
 31
0.0
  0
LINE
  8
0
 62
0
 10
-36.5169375546
 20
27.009972796
 30
0.0
 11
-46.4448659265
 21
30.1822717439
 31
0.0
  0
ARC
  8
0
 62
0
 10
-25.1048663191
 20
-37.1256815993
 30
0.0
 40
2.0
 50
135.0
 51
162.279612736
  0
ARC
  8
0
 62
0
 10
-45.8361218819
 20
32.0873782208
 30
0.0
 40
2.0
 50
-165.0
 51
-107.720387264
  0
LINE
  8
0
 62
0
 10
-10.8786796564
 20
-20.0710678119
 30
0.0
 11
-26.5190798815
 21
-35.711468037
 31
0.0
  0
LINE
  8
0
 62
0
 10
-47.7679735344
 20
31.5697401306
 30
0.0
 11
-50.2922514247
 21
40.9904734696
 31
0.0
  0
ARC
  8
0
 62
0
 10
-8.40380592229
 20
-22.545941546
 30
0.0
 40
3.5
 50
45.0
 51
135.0
  0
ARC
  8
0
 62
0
 10
-48.3603997722
 20
41.5081115598
 30
0.0
 40
2.0
 50
135.0
 51
-165.0
  0
LINE
  8
0
 62
0
 10
-5.92893218814
 20
-20.0710678119
 30
0.0
 11
-3.08578643763
 21
-22.9142135624
 31
0.0
  0
LINE
  8
0
 62
0
 10
-49.7746133345
 20
42.9223251222
 30
0.0
 11
-42.9223251222
 21
49.7746133345
 31
0.0
  0
ARC
  8
0
 62
0
 10
-1.67157287525
 20
-21.5
 30
0.0
 40
2.0
 50
-135.0
 51
-90.0
  0
ARC
  8
0
 62
0
 10
-41.5081115598
 20
48.3603997722
 30
0.0
 40
2.0
 50
75.0
 51
135.0
  0
LINE
  8
0
 62
0
 10
-1.67157287525
 20
-23.5
 30
0.0
 11
1.67157287525
 21
-23.5
 31
0.0
  0
LINE
  8
0
 62
0
 10
-40.9904734696
 20
50.2922514247
 30
0.0
 11
-31.5697401306
 21
47.7679735345
 31
0.0
  0
ARC
  8
0
 62
0
 10
1.67157287525
 20
-21.5
 30
0.0
 40
2.0
 50
-90.0
 51
-45.0
  0
ARC
  8
0
 62
0
 10
-32.0873782208
 20
45.8361218819
 30
0.0
 40
2.0
 50
17.7203872641
 51
75.0
  0
LINE
  8
0
 62
0
 10
3.08578643763
 20
-22.9142135624
 30
0.0
 11
5.92893218814
 21
-20.0710678119
 31
0.0
  0
LINE
  8
0
 62
0
 10
-30.1822717439
 20
46.4448659265
 30
0.0
 11
-27.009972796
 21
36.5169375547
 31
0.0
  0
ARC
  8
0
 62
0
 10
8.40380592229
 20
-22.545941546
 30
0.0
 40
3.5
 50
45.0
 51
135.0
  0
ARC
  8
0
 62
0
 10
-25.1048663191
 20
37.1256815993
 30
0.0
 40
2.0
 50
-162.279612736
 51
-135.0
  0
LINE
  8
0
 62
0
 10
26.5190798815
 20
-35.711468037
 30
0.0
 11
10.8786796564
 21
-20.0710678119
 31
0.0
  0
LINE
  8
0
 62
0
 10
-26.5190798815
 20
35.711468037
 30
0.0
 11
-10.8786796564
 21
20.0710678119
 31
0.0
  0
ARC
  8
0
 62
0
 10
25.1048663191
 20
-37.1256815993
 30
0.0
 40
2.0
 50
17.7203872641
 51
45.0
  0
ARC
  8
0
 62
0
 10
-8.40380592229
 20
22.545941546
 30
0.0
 40
3.5
 50
-135.0
 51
-45.0
  0
LINE
  8
0
 62
0
 10
30.1822717439
 20
-46.4448659265
 30
0.0
 11
27.009972796
 21
-36.5169375547
 31
0.0
  0
LINE
  8
0
 62
0
 10
-5.92893218814
 20
20.0710678119
 30
0.0
 11
-3.08578643763
 21
22.9142135624
 31
0.0
  0
ARC
  8
0
 62
0
 10
32.0873782208
 20
-45.8361218819
 30
0.0
 40
2.0
 50
-162.279612736
 51
-105.0
  0
ARC
  8
0
 62
0
 10
-1.67157287525
 20
21.5
 30
0.0
 40
2.0
 50
90.0
 51
135.0
  0
LINE
  8
0
 62
0
 10
40.9904734696
 20
-50.2922514247
 30
0.0
 11
31.5697401306
 21
-47.7679735345
 31
0.0
  0
LINE
  8
0
 62
0
 10
-1.67157287525
 20
23.5
 30
0.0
 11
1.67157287525
 21
23.5
 31
0.0
  0
ARC
  8
0
 62
0
 10
41.5081115598
 20
-48.3603997722
 30
0.0
 40
2.0
 50
-105.0
 51
-45.0
  0
ARC
  8
0
 62
0
 10
1.67157287525
 20
21.5
 30
0.0
 40
2.0
 50
45.0
 51
90.0
  0
LINE
  8
0
 62
0
 10
49.7746133345
 20
-42.9223251222
 30
0.0
 11
42.9223251222
 21
-49.7746133345
 31
0.0
  0
LINE
  8
0
 62
0
 10
3.08578643763
 20
22.9142135624
 30
0.0
 11
5.92893218814
 21
20.0710678119
 31
0.0
  0
ARC
  8
0
 62
0
 10
48.3603997722
 20
-41.5081115598
 30
0.0
 40
2.0
 50
-45.0
 51
15.0
  0
ARC
  8
0
 62
0
 10
8.40380592229
 20
22.545941546
 30
0.0
 40
3.5
 50
-135.0
 51
-45.0
  0
LINE
  8
0
 62
0
 10
47.7679735344
 20
-31.5697401306
 30
0.0
 11
50.2922514247
 21
-40.9904734696
 31
0.0
  0
LINE
  8
0
 62
0
 10
10.8786796564
 20
20.0710678119
 30
0.0
 11
26.5190798815
 21
35.711468037
 31
0.0
  0
ARC
  8
0
 62
0
 10
45.8361218819
 20
-32.0873782208
 30
0.0
 40
2.0
 50
15.0
 51
72.279612736
  0
ARC
  8
0
 62
0
 10
25.1048663191
 20
37.1256815993
 30
0.0
 40
2.0
 50
-45.0
 51
-17.7203872641
  0
LINE
  8
0
 62
0
 10
36.5169375546
 20
-27.009972796
 30
0.0
 11
46.4448659265
 21
-30.1822717439
 31
0.0
  0
LINE
  8
0
 62
0
 10
27.009972796
 20
36.5169375547
 30
0.0
 11
30.1822717439
 21
46.4448659265
 31
0.0
  0
ARC
  8
0
 62
0
 10
37.1256815993
 20
-25.1048663192
 30
0.0
 40
2.0
 50
-135.0
 51
-107.720387264
  0
ARC
  8
0
 62
0
 10
32.0873782208
 20
45.8361218819
 30
0.0
 40
2.0
 50
105.0
 51
162.279612736
  0
LINE
  8
0
 62
0
 10
20.0710678119
 20
-10.8786796564
 30
0.0
 11
35.7114680369
 21
-26.5190798815
 31
0.0
  0
LINE
  8
0
 62
0
 10
31.5697401306
 20
47.7679735345
 30
0.0
 11
40.9904734696
 21
50.2922514247
 31
0.0
  0
ARC
  8
0
 62
0
 10
22.545941546
 20
-8.40380592229
 30
0.0
 40
3.5
 50
135.0
 51
-135.0
  0
ARC
  8
0
 62
0
 10
41.5081115598
 20
48.3603997722
 30
0.0
 40
2.0
 50
45.0
 51
105.0
  0
LINE
  8
0
 62
0
 10
20.0710678119
 20
-5.92893218813
 30
0.0
 11
22.9142135624
 21
-3.08578643763
 31
0.0
  0
LINE
  8
0
 62
0
 10
42.9223251222
 20
49.7746133345
 30
0.0
 11
49.7746133345
 21
42.9223251222
 31
0.0
  0
ARC
  8
0
 62
0
 10
21.5
 20
-1.67157287525
 30
0.0
 40
2.0
 50
-45.0
 51
0.0
  0
ARC
  8
0
 62
0
 10
48.3603997722
 20
41.5081115598
 30
0.0
 40
2.0
 50
-15.0
 51
45.0
  0
LINE
  8
0
 62
0
 10
23.5
 20
-1.67157287525
 30
0.0
 11
23.5
 21
1.67157287525
 31
0.0
  0
LINE
  8
0
 62
0
 10
50.2922514247
 20
40.9904734696
 30
0.0
 11
47.7679735344
 21
31.5697401306
 31
0.0
  0
ARC
  8
0
 62
0
 10
21.5
 20
1.67157287525
 30
0.0
 40
2.0
 50
0.0
 51
45.0
  0
ARC
  8
0
 62
0
 10
45.8361218819
 20
32.0873782208
 30
0.0
 40
2.0
 50
-72.279612736
 51
-15.0
  0
LINE
  8
0
 62
0
 10
22.9142135624
 20
3.08578643763
 30
0.0
 11
20.0710678119
 21
5.92893218813
 31
0.0
  0
LINE
  8
0
 62
0
 10
46.4448659265
 20
30.1822717439
 30
0.0
 11
36.5169375546
 21
27.009972796
 31
0.0
  0
ARC
  8
0
 62
0
 10
22.545941546
 20
8.40380592229
 30
0.0
 40
3.5
 50
135.0
 51
-135.0
  0
ARC
  8
0
 62
0
 10
37.1256815993
 20
25.1048663192
 30
0.0
 40
2.0
 50
107.720387264
 51
135.0
  0
LINE
  8
0
 62
0
 10
35.7114680369
 20
26.5190798815
 30
0.0
 11
20.0710678119
 21
10.8786796564
 31
0.0
  0
LINE
  8
0
 62
0
 10
-15.3
 20
8.5
 30
0.0
 11
-15.2
 21
8.5
 31
0.0
  0
ARC
  8
0
 62
0
 10
-15.3
 20
7.8
 30
0.0
 40
0.7
 50
90.0
 51
-180.0
  0
ARC
  8
0
 62
0
 10
-15.2
 20
7.8
 30
0.0
 40
0.7
 50
-0.0
 51
90.0
  0
LINE
  8
0
 62
0
 10
-16.0
 20
-7.8
 30
0.0
 11
-16.0
 21
7.8
 31
0.0
  0
LINE
  8
0
 62
0
 10
-14.5
 20
7.8
 30
0.0
 11
-14.5
 21
-7.8
 31
0.0
  0
ARC
  8
0
 62
0
 10
-15.3
 20
-7.8
 30
0.0
 40
0.7
 50
-180.0
 51
-90.0
  0
ARC
  8
0
 62
0
 10
-15.2
 20
-7.8
 30
0.0
 40
0.7
 50
-90.0
 51
-0.0
  0
LINE
  8
0
 62
0
 10
-15.2
 20
-8.5
 30
0.0
 11
-15.3
 21
-8.5
 31
0.0
  0
CIRCLE
  8
0
 62
0
 10
-39.0
 20
-39.0
 30
0.0
 40
2.8
  0
CIRCLE
  8
0
 62
0
 10
39.0
 20
-39.0
 30
0.0
 40
2.8
  0
CIRCLE
  8
0
 62
0
 10
-39.0
 20
39.0
 30
0.0
 40
2.8
  0
CIRCLE
  8
0
 62
0
 10
39.0
 20
39.0
 30
0.0
 40
2.8
  0
CIRCLE
  8
0
 62
0
 10
-10.0
 20
-10.0
 30
0.0
 40
1.5
  0
CIRCLE
  8
0
 62
0
 10
10.0
 20
-10.0
 30
0.0
 40
1.5
  0
CIRCLE
  8
0
 62
0
 10
-10.0
 20
10.0
 30
0.0
 40
1.5
  0
CIRCLE
  8
0
 62
0
 10
10.0
 20
10.0
 30
0.0
 40
1.5
  0
CIRCLE
  8
0
 62
0
 10
0.0
 20
-20.0
 30
0.0
 40
1.5
  0
CIRCLE
  8
0
 62
0
 10
0.0
 20
20.0
 30
0.0
 40
1.5
  0
CIRCLE
  8
0
 62
0
 10
-20.0
 20
0.0
 30
0.0
 40
1.5
  0
CIRCLE
  8
0
 62
0
 10
20.0
 20
0.0
 30
0.0
 40
1.5
  0
CIRCLE
  8
0
 62
0
 10
-45.0
 20
39.0
 30
0.0
 40
1.0
  0
CIRCLE
  8
0
 62
0
 10
39.0
 20
45.0
 30
0.0
 40
1.0
  0
CIRCLE
  8
0
 62
0
 10
45.0
 20
39.0
 30
0.0
 40
1.0
  0
CIRCLE
  8
0
 62
0
 10
-39.0
 20
45.0
 30
0.0
 40
1.0
  0
CIRCLE
  8
0
 62
0
 10
-45.0
 20
-39.0
 30
0.0
 40
1.0
  0
CIRCLE
  8
0
 62
0
 10
39.0
 20
-45.0
 30
0.0
 40
1.0
  0
CIRCLE
  8
0
 62
0
 10
-39.0
 20
-45.0
 30
0.0
 40
1.0
  0
CIRCLE
  8
0
 62
0
 10
45.0
 20
-39.0
 30
0.0
 40
1.0
  0
CIRCLE
  8
0
 62
0
 10
39.0
 20
33.0
 30
0.0
 40
1.0
  0
CIRCLE
  8
0
 62
0
 10
-33.0
 20
39.0
 30
0.0
 40
1.0
  0
CIRCLE
  8
0
 62
0
 10
33.0
 20
39.0
 30
0.0
 40
1.0
  0
CIRCLE
  8
0
 62
0
 10
-39.0
 20
33.0
 30
0.0
 40
1.0
  0
CIRCLE
  8
0
 62
0
 10
-33.0
 20
-39.0
 30
0.0
 40
1.0
  0
CIRCLE
  8
0
 62
0
 10
39.0
 20
-33.0
 30
0.0
 40
1.0
  0
CIRCLE
  8
0
 62
0
 10
33.0
 20
-39.0
 30
0.0
 40
1.0
  0
CIRCLE
  8
0
 62
0
 10
-39.0
 20
-33.0
 30
0.0
 40
1.0
  0
LINE
  8
0
 62
0
 10
15.2
 20
8.5
 30
0.0
 11
15.3
 21
8.5
 31
0.0
  0
ARC
  8
0
 62
0
 10
15.2
 20
7.8
 30
0.0
 40
0.7
 50
90.0
 51
-180.0
  0
ARC
  8
0
 62
0
 10
15.3
 20
7.8
 30
0.0
 40
0.7
 50
-0.0
 51
90.0
  0
LINE
  8
0
 62
0
 10
14.5
 20
-7.8
 30
0.0
 11
14.5
 21
7.8
 31
0.0
  0
LINE
  8
0
 62
0
 10
16.0
 20
7.8
 30
0.0
 11
16.0
 21
-7.8
 31
0.0
  0
ARC
  8
0
 62
0
 10
15.2
 20
-7.8
 30
0.0
 40
0.7
 50
180.0
 51
-90.0
  0
ARC
  8
0
 62
0
 10
15.3
 20
-7.8
 30
0.0
 40
0.7
 50
-90.0
 51
0.0
  0
LINE
  8
0
 62
0
 10
15.3
 20
-8.5
 30
0.0
 11
15.2
 21
-8.5
 31
0.0
  0
ENDBLK
  0
ENDSEC
  0
SECTION
  2
ENTITIES
  0
INSERT
  2
FILLET003
  8
0
 62
0
 10
0.0
 20
0.0
 30
0.0
  0
ENDSEC
  0
EOF
