  0
SECTION
  2
HEADER
  9
$ACADVER
  1
AC1027
  9
$ACADMAINTVER
 70
     8
  9
$DWGCODEPAGE
  3
ANSI_1252
  9
$REQUIREDVERSIONS
160
                 0
  9
$INSBASE
 10
0.0
 20
0.0
 30
0.0
  9
$EXTMIN
 10
1.000000000000000E+20
 20
1.000000000000000E+20
 30
1.000000000000000E+20
  9
$EXTMAX
 10
-1.000000000000000E+20
 20
-1.000000000000000E+20
 30
-1.000000000000000E+20
  9
$LIMMIN
 10
0.0
 20
0.0
  9
$LIMMAX
 10
12.0
 20
9.0
  9
$ORTHOMODE
 70
     0
  9
$REGENMODE
 70
     1
  9
$FILLMODE
 70
     1
  9
$QTEXTMODE
 70
     0
  9
$MIRRTEXT
 70
     1
  9
$LTSCALE
 40
1.0
  9
$ATTMODE
 70
     1
  9
$TEXTSIZE
 40
0.2
  9
$TRACEWID
 40
0.05
  9
$TEXTSTYLE
  7
Standard
  9
$CLAYER
  8
0
  9
$CELTYPE
  6
ByLayer
  9
$CECOLOR
 62
   256
  9
$CELTSCALE
 40
1.0
  9
$DISPSILH
 70
     0
  9
$DIMSCALE
 40
1.0
  9
$DIMASZ
 40
0.18
  9
$DIMEXO
 40
0.0625
  9
$DIMDLI
 40
0.38
  9
$DIMRND
 40
0.0
  9
$DIMDLE
 40
0.0
  9
$DIMEXE
 40
0.18
  9
$DIMTP
 40
0.0
  9
$DIMTM
 40
0.0
  9
$DIMTXT
 40
0.18
  9
$DIMCEN
 40
0.09
  9
$DIMTSZ
 40
0.0
  9
$DIMTOL
 70
     0
  9
$DIMLIM
 70
     0
  9
$DIMTIH
 70
     1
  9
$DIMTOH
 70
     1
  9
$DIMSE1
 70
     0
  9
$DIMSE2
 70
     0
  9
$DIMTAD
 70
     0
  9
$DIMZIN
 70
     0
  9
$DIMBLK
  1

  9
$DIMASO
 70
     1
  9
$DIMSHO
 70
     1
  9
$DIMPOST
  1

  9
$DIMAPOST
  1

  9
$DIMALT
 70
     0
  9
$DIMALTD
 70
     2
  9
$DIMALTF
 40
25.4
  9
$DIMLFAC
 40
1.0
  9
$DIMTOFL
 70
     0
  9
$DIMTVP
 40
0.0
  9
$DIMTIX
 70
     0
  9
$DIMSOXD
 70
     0
  9
$DIMSAH
 70
     0
  9
$DIMBLK1
  1

  9
$DIMBLK2
  1

  9
$DIMSTYLE
  2
Standard
  9
$DIMCLRD
 70
     0
  9
$DIMCLRE
 70
     0
  9
$DIMCLRT
 70
     0
  9
$DIMTFAC
 40
1.0
  9
$DIMGAP
 40
0.09
  9
$DIMJUST
 70
     0
  9
$DIMSD1
 70
     0
  9
$DIMSD2
 70
     0
  9
$DIMTOLJ
 70
     1
  9
$DIMTZIN
 70
     0
  9
$DIMALTZ
 70
     0
  9
$DIMALTTZ
 70
     0
  9
$DIMUPT
 70
     0
  9
$DIMDEC
 70
     4
  9
$DIMTDEC
 70
     4
  9
$DIMALTU
 70
     2
  9
$DIMALTTD
 70
     2
  9
$DIMTXSTY
  7
Standard
  9
$DIMAUNIT
 70
     0
  9
$DIMADEC
 70
     0
  9
$DIMALTRND
 40
0.0
  9
$DIMAZIN
 70
     0
  9
$DIMDSEP
 70
    46
  9
$DIMATFIT
 70
     3
  9
$DIMFRAC
 70
     0
  9
$DIMLDRBLK
  1

  9
$DIMLUNIT
 70
     2
  9
$DIMLWD
 70
    -2
  9
$DIMLWE
 70
    -2
  9
$DIMTMOVE
 70
     0
  9
$DIMFXL
 40
1.0
  9
$DIMFXLON
 70
     0
  9
$DIMJOGANG
 40
0.7853981633974483
  9
$DIMTFILL
 70
     0
  9
$DIMTFILLCLR
 70
     0
  9
$DIMARCSYM
 70
     0
  9
$DIMLTYPE
  6

  9
$DIMLTEX1
  6

  9
$DIMLTEX2
  6

  9
$DIMTXTDIRECTION
 70
     0
  9
$LUNITS
 70
     2
  9
$LUPREC
 70
     4
  9
$SKETCHINC
 40
0.1
  9
$FILLETRAD
 40
0.5
  9
$AUNITS
 70
     0
  9
$AUPREC
 70
     0
  9
$MENU
  1
.
  9
$ELEVATION
 40
0.0
  9
$PELEVATION
 40
0.0
  9
$THICKNESS
 40
0.0
  9
$LIMCHECK
 70
     0
  9
$CHAMFERA
 40
0.0
  9
$CHAMFERB
 40
0.0
  9
$CHAMFERC
 40
0.0
  9
$CHAMFERD
 40
0.0
  9
$SKPOLY
 70
     0
  9
$TDCREATE
 40
2457670.631084722
  9
$TDUCREATE
 40
2457670.547751389
  9
$TDUPDATE
 40
2457670.63108478
  9
$TDUUPDATE
 40
2457670.547751447
  9
$TDINDWG
 40
0.0000000116
  9
$TDUSRTIMER
 40
0.0000000116
  9
$USRTIMER
 70
     1
  9
$ANGBASE
 50
0.0
  9
$ANGDIR
 70
     0
  9
$PDMODE
 70
     0
  9
$PDSIZE
 40
0.0
  9
$PLINEWID
 40
0.0
  9
$SPLFRAME
 70
     0
  9
$SPLINETYPE
 70
     6
  9
$SPLINESEGS
 70
     8
  9
$HANDSEED
  5
30F
  9
$SURFTAB1
 70
     6
  9
$SURFTAB2
 70
     6
  9
$SURFTYPE
 70
     6
  9
$SURFU
 70
     6
  9
$SURFV
 70
     6
  9
$UCSBASE
  2

  9
$UCSNAME
  2

  9
$UCSORG
 10
0.0
 20
0.0
 30
0.0
  9
$UCSXDIR
 10
1.0
 20
0.0
 30
0.0
  9
$UCSYDIR
 10
0.0
 20
1.0
 30
0.0
  9
$UCSORTHOREF
  2

  9
$UCSORTHOVIEW
 70
     0
  9
$UCSORGTOP
 10
0.0
 20
0.0
 30
0.0
  9
$UCSORGBOTTOM
 10
0.0
 20
0.0
 30
0.0
  9
$UCSORGLEFT
 10
0.0
 20
0.0
 30
0.0
  9
$UCSORGRIGHT
 10
0.0
 20
0.0
 30
0.0
  9
$UCSORGFRONT
 10
0.0
 20
0.0
 30
0.0
  9
$UCSORGBACK
 10
0.0
 20
0.0
 30
0.0
  9
$PUCSBASE
  2

  9
$PUCSNAME
  2

  9
$PUCSORG
 10
0.0
 20
0.0
 30
0.0
  9
$PUCSXDIR
 10
1.0
 20
0.0
 30
0.0
  9
$PUCSYDIR
 10
0.0
 20
1.0
 30
0.0
  9
$PUCSORTHOREF
  2

  9
$PUCSORTHOVIEW
 70
     0
  9
$PUCSORGTOP
 10
0.0
 20
0.0
 30
0.0
  9
$PUCSORGBOTTOM
 10
0.0
 20
0.0
 30
0.0
  9
$PUCSORGLEFT
 10
0.0
 20
0.0
 30
0.0
  9
$PUCSORGRIGHT
 10
0.0
 20
0.0
 30
0.0
  9
$PUCSORGFRONT
 10
0.0
 20
0.0
 30
0.0
  9
$PUCSORGBACK
 10
0.0
 20
0.0
 30
0.0
  9
$USERI1
 70
     0
  9
$USERI2
 70
     0
  9
$USERI3
 70
     0
  9
$USERI4
 70
     0
  9
$USERI5
 70
     0
  9
$USERR1
 40
0.0
  9
$USERR2
 40
0.0
  9
$USERR3
 40
0.0
  9
$USERR4
 40
0.0
  9
$USERR5
 40
0.0
  9
$WORLDVIEW
 70
     1
  9
$SHADEDGE
 70
     3
  9
$SHADEDIF
 70
    70
  9
$TILEMODE
 70
     1
  9
$MAXACTVP
 70
    64
  9
$PINSBASE
 10
0.0
 20
0.0
 30
0.0
  9
$PLIMCHECK
 70
     0
  9
$PEXTMIN
 10
1.000000000000000E+20
 20
1.000000000000000E+20
 30
1.000000000000000E+20
  9
$PEXTMAX
 10
-1.000000000000000E+20
 20
-1.000000000000000E+20
 30
-1.000000000000000E+20
  9
$PLIMMIN
 10
0.0
 20
0.0
  9
$PLIMMAX
 10
12.0
 20
9.0
  9
$UNITMODE
 70
     0
  9
$VISRETAIN
 70
     1
  9
$PLINEGEN
 70
     0
  9
$PSLTSCALE
 70
     1
  9
$TREEDEPTH
 70
  3020
  9
$CMLSTYLE
  2
Standard
  9
$CMLJUST
 70
     0
  9
$CMLSCALE
 40
1.0
  9
$PROXYGRAPHICS
 70
     1
  9
$MEASUREMENT
 70
     1
  9
$CELWEIGHT
370
    -1
  9
$ENDCAPS
280
     0
  9
$JOINSTYLE
280
     0
  9
$LWDISPLAY
290
     0
  9
$INSUNITS
 70
     4
  9
$HYPERLINKBASE
  1

  9
$STYLESHEET
  1

  9
$XEDIT
290
     1
  9
$CEPSNTYPE
380
     0
  9
$PSTYLEMODE
290
     1
  9
$FINGERPRINTGUID
  2
{2C468DF7-33E8-4E78-BBFB-BEC4C1C5D518}
  9
$VERSIONGUID
  2
{FAEB1C32-E019-11D5-929B-00C0DF256EC4}
  9
$EXTNAMES
290
     1
  9
$PSVPSCALE
 40
0.0
  9
$OLESTARTUP
290
     0
  9
$SORTENTS
280
   127
  9
$INDEXCTL
280
     0
  9
$HIDETEXT
280
     1
  9
$XCLIPFRAME
280
     2
  9
$HALOGAP
280
     0
  9
$OBSCOLOR
 70
   257
  9
$OBSLTYPE
280
     0
  9
$INTERSECTIONDISPLAY
280
     0
  9
$INTERSECTIONCOLOR
 70
   257
  9
$DIMASSOC
280
     2
  9
$PROJECTNAME
  1

  9
$CAMERADISPLAY
290
     0
  9
$LENSLENGTH
 40
50.0
  9
$CAMERAHEIGHT
 40
0.0
  9
$STEPSPERSEC
 40
2.0
  9
$STEPSIZE
 40
6.0
  9
$3DDWFPREC
 40
2.0
  9
$PSOLWIDTH
 40
0.25
  9
$PSOLHEIGHT
 40
4.0
  9
$LOFTANG1
 40
1.570796326794897
  9
$LOFTANG2
 40
1.570796326794897
  9
$LOFTMAG1
 40
0.0
  9
$LOFTMAG2
 40
0.0
  9
$LOFTPARAM
 70
     7
  9
$LOFTNORMALS
280
     1
  9
$LATITUDE
 40
37.795
  9
$LONGITUDE
 40
-122.394
  9
$NORTHDIRECTION
 40
0.0
  9
$TIMEZONE
 70
 -8000
  9
$LIGHTGLYPHDISPLAY
280
     1
  9
$TILEMODELIGHTSYNCH
280
     1
  9
$CMATERIAL
347
44
  9
$SOLIDHIST
280
     1
  9
$SHOWHIST
280
     1
  9
$DWFFRAME
280
     2
  9
$DGNFRAME
280
     2
  9
$REALWORLDSCALE
290
     1
  9
$INTERFERECOLOR
 62
   256
  9
$CSHADOW
280
     0
  9
$SHADOWPLANELOCATION
 40
0.0
  0
ENDSEC
  0
SECTION
  2
CLASSES
  0
CLASS
  1
ACDBDICTIONARYWDFLT
  2
AcDbDictionaryWithDefault
  3
ObjectDBX Classes
 90
        0
 91
        4
280
     0
281
     0
  0
CLASS
  1
VISUALSTYLE
  2
AcDbVisualStyle
  3
ObjectDBX Classes
 90
     4095
 91
        4
280
     0
281
     0
  0
CLASS
  1
MATERIAL
  2
AcDbMaterial
  3
ObjectDBX Classes
 90
     1153
 91
        4
280
     0
281
     0
  0
CLASS
  1
SCALE
  2
AcDbScale
  3
ObjectDBX Classes
 90
     1153
 91
        4
280
     0
281
     0
  0
CLASS
  1
SUN
  2
AcDbSun
  3
SCENEOE
 90
     1153
 91
        4
280
     0
281
     0
  0
CLASS
  1
DICTIONARYVAR
  2
AcDbDictionaryVar
  3
ObjectDBX Classes
 90
        0
 91
        4
280
     0
281
     0
  0
ENDSEC
  0
SECTION
  2
TABLES
  0
TABLE
  2
VPORT
  5
8
330
0
100
AcDbSymbolTable
 70
     1
  0
VPORT
  5
29
330
8
100
AcDbSymbolTableRecord
100
AcDbViewportTableRecord
  2
*Active
 70
     0
 10
0.0
 20
0.0
 11
1.0
 21
1.0
 12
0.0
 22
0.0
 13
0.0
 23
0.0
 14
0.5
 24
0.5
 15
0.5
 25
0.5
 16
0.0
 26
0.0
 36
1.0
 17
0.0
 27
0.0
 37
-1000.0
 40
207.3953869647169
 41
2.353808353808354
 42
50.0
 43
69.93761144475239
 44
113.4145818147791
 50
0.0
 51
0.0
 71
     0
 72
   100
 73
     1
 74
     3
 75
     0
 76
     0
 77
     0
 78
     0
281
     0
 65
     1
110
0.0
120
0.0
130
0.0
111
1.0
121
0.0
131
0.0
112
0.0
122
1.0
132
0.0
 79
     0
146
0.0
 60
     3
 61
     5
292
     1
282
     1
141
0.0
142
0.0
 63
   250
361
69
  0
ENDTAB
  0
TABLE
  2
LTYPE
  5
5
330
0
100
AcDbSymbolTable
 70
     1
  0
LTYPE
  5
14
330
5
100
AcDbSymbolTableRecord
100
AcDbLinetypeTableRecord
  2
ByBlock
 70
     0
  3

 72
    65
 73
     0
 40
0.0
  0
LTYPE
  5
15
330
5
100
AcDbSymbolTableRecord
100
AcDbLinetypeTableRecord
  2
ByLayer
 70
     0
  3

 72
    65
 73
     0
 40
0.0
  0
LTYPE
  5
16
330
5
100
AcDbSymbolTableRecord
100
AcDbLinetypeTableRecord
  2
Continuous
 70
     0
  3
Solid line
 72
    65
 73
     0
 40
0.0
  0
ENDTAB
  0
TABLE
  2
LAYER
  5
2
330
0
100
AcDbSymbolTable
 70
     3
  0
LAYER
  5
10
330
2
100
AcDbSymbolTableRecord
100
AcDbLayerTableRecord
  2
0
 70
     0
 62
     7
  6
Continuous
370
    -3
390
F
347
46
348
0
  0
LAYER
  5
6A
330
2
100
AcDbSymbolTableRecord
100
AcDbLayerTableRecord
  2
ProfileEdges
 70
     0
 62
     7
  6
Continuous
370
    -3
390
F
347
46
348
0
  0
LAYER
  5
6B
330
2
100
AcDbSymbolTableRecord
100
AcDbLayerTableRecord
  2
SectionCutEdges
 70
     0
 62
     7
  6
Continuous
370
    -3
390
F
347
46
348
0
  0
ENDTAB
  0
TABLE
  2
STYLE
  5
3
330
0
100
AcDbSymbolTable
 70
     1
  0
STYLE
  5
11
330
3
100
AcDbSymbolTableRecord
100
AcDbTextStyleTableRecord
  2
Standard
 70
     0
 40
0.0
 41
1.0
 50
0.0
 71
     0
 42
0.2
  3
txt
  4

  0
ENDTAB
  0
TABLE
  2
VIEW
  5
6
330
0
100
AcDbSymbolTable
 70
     0
  0
ENDTAB
  0
TABLE
  2
UCS
  5
7
330
0
100
AcDbSymbolTable
 70
     0
  0
ENDTAB
  0
TABLE
  2
APPID
  5
9
330
0
100
AcDbSymbolTable
 70
     1
  0
APPID
  5
12
330
9
100
AcDbSymbolTableRecord
100
AcDbRegAppTableRecord
  2
ACAD
 70
     0
  0
ENDTAB
  0
TABLE
  2
DIMSTYLE
  5
A
330
0
100
AcDbSymbolTable
 70
     1
100
AcDbDimStyleTable
  0
DIMSTYLE
105
27
330
A
100
AcDbSymbolTableRecord
100
AcDbDimStyleTableRecord
  2
Standard
 70
     0
178
     0
340
11
  0
ENDTAB
  0
TABLE
  2
BLOCK_RECORD
  5
1
330
0
100
AcDbSymbolTable
 70
     1
  0
BLOCK_RECORD
  5
1F
330
1
100
AcDbSymbolTableRecord
100
AcDbBlockTableRecord
  2
*Model_Space
340
22
 70
     0
280
     1
281
     0
  0
BLOCK_RECORD
  5
1B
330
1
100
AcDbSymbolTableRecord
100
AcDbBlockTableRecord
  2
*Paper_Space
340
1E
 70
     0
280
     1
281
     0
  0
BLOCK_RECORD
  5
23
330
1
100
AcDbSymbolTableRecord
100
AcDbBlockTableRecord
  2
*Paper_Space0
340
26
 70
     0
280
     1
281
     0
  0
ENDTAB
  0
ENDSEC
  0
SECTION
  2
BLOCKS
  0
BLOCK
  5
20
330
1F
100
AcDbEntity
  8
0
100
AcDbBlockBegin
  2
*Model_Space
 70
     0
 10
0.0
 20
0.0
 30
0.0
  3
*Model_Space
  1
*Model_Space
  0
ENDBLK
  5
21
330
1F
100
AcDbEntity
  8
0
100
AcDbBlockEnd
  0
BLOCK
  5
1C
330
1B
100
AcDbEntity
 67
     1
  8
0
100
AcDbBlockBegin
  2
*Paper_Space
 70
     0
 10
0.0
 20
0.0
 30
0.0
  3
*Paper_Space
  1
*Paper_Space
  0
ENDBLK
  5
1D
330
1B
100
AcDbEntity
 67
     1
  8
0
100
AcDbBlockEnd
  0
BLOCK
  5
24
330
23
100
AcDbEntity
  8
0
100
AcDbBlockBegin
  2
*Paper_Space0
 70
     0
 10
0.0
 20
0.0
 30
0.0
  3
*Paper_Space0
  1
*Paper_Space0
  0
ENDBLK
  5
25
330
23
100
AcDbEntity
  8
0
100
AcDbBlockEnd
  0
ENDSEC
  0
SECTION
  2
ENTITIES
  0
LINE
  5
6C
330
1F
100
AcDbEntity
  8
0
100
AcDbLine
 10
-1.189828929410928
 20
42.87276360025155
 30
0.0
 11
-1.127569152013309
 21
42.7968998420267
 31
0.0
  0
LINE
  5
6D
330
1F
100
AcDbEntity
  8
0
100
AcDbLine
 10
1.060480950519363
 20
42.72527049828581
 30
0.0
 11
1.127569152013312
 21
42.7968998420267
 31
0.0
  0
LINE
  5
6E
330
1F
100
AcDbEntity
  8
0
100
AcDbLine
 10
7.259433327567641
 20
36.10927557092851
 30
0.0
 11
7.187803983726752
 21
36.17636377242247
 31
0.0
  0
LINE
  5
6F
330
1F
100
AcDbEntity
  8
0
100
AcDbLine
 10
5.449079105631149
 20
36.34761322576485
 30
0.0
 11
5.365737840704923
 21
36.29578829697781
 31
0.0
  0
LINE
  5
70
330
1F
100
AcDbEntity
  8
0
100
AcDbLine
 10
4.81336724213608
 20
35.622722775151
 30
0.0
 11
4.778797188975064
 21
35.53087234727332
 31
0.0
  0
LINE
  5
71
330
1F
100
AcDbEntity
  8
0
100
AcDbLine
 10
6.39470858254955
 20
36.53571062370459
 30
0.0
 11
6.297040493956522
 21
36.54533009081465
 31
0.0
  0
LINE
  5
72
330
1F
100
AcDbEntity
  8
0
100
AcDbLine
 10
7.010384148178958
 20
22.55793460425187
 30
0.0
 11
7.010384148178958
 21
-16.51464038327521
 31
0.0
  0
LINE
  5
73
330
1F
100
AcDbEntity
  8
0
100
AcDbLine
 10
4.750308458370537
 20
34.66063165235075
 30
0.0
 11
4.778797188975064
 21
34.56671689364499
 31
0.0
  0
LINE
  5
74
330
1F
100
AcDbEntity
  8
0
100
AcDbLine
 10
-7.01038414827894
 20
22.55793460425187
 30
0.0
 11
-7.01038414827894
 21
28.55692077558892
 31
0.0
  0
LINE
  5
75
330
1F
100
AcDbEntity
  8
0
100
AcDbLine
 10
7.032166913291654
 20
36.29578829697781
 30
0.0
 11
6.948825648465407
 21
36.34761322576485
 31
0.0
  0
LINE
  5
76
330
1F
100
AcDbEntity
  8
0
100
AcDbLine
 10
7.584537511860495
 20
34.47486646576728
 30
0.0
 11
7.61910756502151
 21
34.56671689364499
 31
0.0
  0
LINE
  5
77
330
1F
100
AcDbEntity
  8
0
100
AcDbLine
 10
7.584537511860495
 20
35.622722775151
 30
0.0
 11
7.544034170525182
 21
35.71211555447129
 31
0.0
  0
LINE
  5
78
330
1F
100
AcDbEntity
  8
0
100
AcDbLine
 10
0.6633209340621443
 20
42.44066965532825
 30
0.0
 11
0.7498732714171318
 21
42.48693284344944
 31
0.0
  0
LINE
  5
79
330
1F
100
AcDbEntity
  8
0
100
AcDbLine
 10
5.138471426528918
 20
36.10927557092851
 30
0.0
 11
5.071383225034969
 21
36.03764622718762
 31
0.0
  0
LINE
  5
7A
330
1F
100
AcDbEntity
  8
0
100
AcDbLine
 10
7.698698919882538
 20
35.04879462040915
 30
0.0
 11
7.695487847353796
 21
35.14688273741739
 31
0.0
  0
LINE
  5
7B
330
1F
100
AcDbEntity
  8
0
100
AcDbLine
 10
5.625024222306429
 20
36.43437975532135
 30
0.0
 11
5.535631442886151
 21
36.39387641388605
 31
0.0
  0
LINE
  5
7C
330
1F
100
AcDbEntity
  8
0
100
AcDbLine
 10
5.071383225034969
 20
36.03764622718762
 30
0.0
 11
5.00912344763735
 21
35.96178246896274
 31
0.0
  0
LINE
  5
7D
330
1F
100
AcDbEntity
  8
0
100
AcDbLine
 10
7.68586838024374
 20
35.24455082591041
 30
0.0
 11
7.669881710590909
 21
35.34138065636907
 31
0.0
  0
LINE
  5
7E
330
1F
100
AcDbEntity
  8
0
100
AcDbLine
 10
5.365737840704923
 20
36.29578829697781
 30
0.0
 11
5.285964528494683
 21
36.23862354972011
 31
0.0
  0
LINE
  5
7F
330
1F
100
AcDbEntity
  8
0
100
AcDbLine
 10
5.906366341088357
 20
36.51972395395178
 30
0.0
 11
5.810789408889899
 21
36.49743853898691
 31
0.0
  0
LINE
  5
80
330
1F
100
AcDbEntity
  8
0
100
AcDbLine
 10
7.445946053516957
 20
34.21558008416579
 30
0.0
 11
7.497770982403972
 21
34.29892134899202
 31
0.0
  0
LINE
  5
81
330
1F
100
AcDbEntity
  8
0
100
AcDbLine
 10
6.948825648465407
 20
33.74997601505346
 30
0.0
 11
7.032166913291654
 21
33.80180094394047
 31
0.0
  0
LINE
  5
82
330
1F
100
AcDbEntity
  8
0
100
AcDbLine
 10
4.778797188975064
 20
35.53087234727332
 30
0.0
 11
4.750308458370537
 21
35.43695758856753
 31
0.0
  0
LINE
  5
83
330
1F
100
AcDbEntity
  8
0
100
AcDbLine
 10
-0.2925860359599208
 20
42.31482211526251
 30
0.0
 11
-0.19575620560125
 21
42.29883544550971
 31
0.0
  0
LINE
  5
84
330
1F
100
AcDbEntity
  8
0
100
AcDbLine
 10
6.587115345106678
 20
36.49743853898691
 30
0.0
 11
6.491538413008201
 21
36.51972395395178
 31
0.0
  0
LINE
  5
85
330
1F
100
AcDbEntity
  8
0
100
AcDbLine
 10
7.111940225601872
 20
33.85896569109821
 30
0.0
 11
7.187803983726752
 21
33.92122546839585
 31
0.0
  0
LINE
  5
86
330
1F
100
AcDbEntity
  8
0
100
AcDbLine
 10
4.853870583571377
 20
35.71211555447129
 30
0.0
 11
4.81336724213608
 21
35.622722775151
 31
0.0
  0
LINE
  5
87
330
1F
100
AcDbEntity
  8
0
100
AcDbLine
 10
6.491538413008201
 20
36.51972395395178
 30
0.0
 11
6.39470858254955
 21
36.53571062370459
 31
0.0
  0
LINE
  5
88
330
1F
100
AcDbEntity
  8
0
100
AcDbLine
 10
7.68586838024374
 20
34.85303841490788
 30
0.0
 11
7.695487847353796
 21
34.95070650350092
 31
0.0
  0
LINE
  5
89
330
1F
100
AcDbEntity
  8
0
100
AcDbLine
 10
0.0
 20
42.2860049059709
 30
0.0
 11
0.0980881169082439
 21
42.28921597839965
 31
0.0
  0
LINE
  5
8A
330
1F
100
AcDbEntity
  8
0
100
AcDbLine
 10
0.1957562055012708
 20
42.29883544550971
 30
0.0
 11
0.2925860359599236
 21
42.31482211526251
 31
0.0
  0
LINE
  5
8B
330
1F
100
AcDbEntity
  8
0
100
AcDbLine
 10
-0.9129878485535929
 20
42.59592251939421
 30
0.0
 11
-0.8332145363433556
 21
42.53875777223649
 31
0.0
  0
LINE
  5
8C
330
1F
100
AcDbEntity
  8
0
100
AcDbLine
 10
4.900133771692584
 20
35.79866789182628
 30
0.0
 11
4.853870583571377
 21
35.71211555447129
 31
0.0
  0
LINE
  5
8D
330
1F
100
AcDbEntity
  8
0
100
AcDbLine
 10
-5.365737840804901
 20
36.29578829697781
 30
0.0
 11
-5.449079105631147
 21
36.34761322576485
 31
0.0
  0
LINE
  5
8E
330
1F
100
AcDbEntity
  8
0
100
AcDbLine
 10
7.187803983726752
 20
36.17636377242247
 30
0.0
 11
7.111940225601872
 21
36.23862354972011
 31
0.0
  0
LINE
  5
8F
330
1F
100
AcDbEntity
  8
0
100
AcDbLine
 10
6.681030103812456
 20
36.46894980848237
 30
0.0
 11
6.587115345106678
 21
36.49743853898691
 31
0.0
  0
LINE
  5
90
330
1F
100
AcDbEntity
  8
0
100
AcDbLine
 10
4.778797188975064
 20
34.56671689364499
 30
0.0
 11
4.81336724213608
 21
34.47486646576728
 31
0.0
  0
LINE
  5
91
330
1F
100
AcDbEntity
  8
0
100
AcDbLine
 10
-7.388781306459205
 20
35.96178246896274
 30
0.0
 11
-7.445946053616939
 21
35.88200915665253
 31
0.0
  0
LINE
  5
92
330
1F
100
AcDbEntity
  8
0
100
AcDbLine
 10
5.716874650184121
 20
33.62863943243594
 30
0.0
 11
5.810789408889899
 21
33.60015070183141
 31
0.0
  0
LINE
  5
93
330
1F
100
AcDbEntity
  8
0
100
AcDbLine
 10
7.388781306359224
 20
34.13580677185555
 30
0.0
 11
7.445946053516957
 21
34.21558008416579
 31
0.0
  0
LINE
  5
94
330
1F
100
AcDbEntity
  8
0
100
AcDbLine
 10
5.810789408889899
 20
36.49743853898691
 30
0.0
 11
5.716874650184121
 21
36.46894980848237
 31
0.0
  0
LINE
  5
95
330
1F
100
AcDbEntity
  8
0
100
AcDbLine
 10
-5.138471426528915
 20
36.10927557092851
 30
0.0
 11
-5.210100770369804
 21
36.17636377242247
 31
0.0
  0
LINE
  5
96
330
1F
100
AcDbEntity
  8
0
100
AcDbLine
 10
0.5739281546418641
 20
42.40016631389296
 30
0.0
 11
0.6633209340621443
 21
42.44066965532825
 31
0.0
  0
LINE
  5
97
330
1F
100
AcDbEntity
  8
0
100
AcDbLine
 10
5.285964528494683
 20
36.23862354972011
 30
0.0
 11
5.210100770269825
 21
36.17636377242247
 31
0.0
  0
LINE
  5
98
330
1F
100
AcDbEntity
  8
0
100
AcDbLine
 10
7.010384148178958
 20
22.55793460425187
 30
0.0
 11
7.010384148178958
 21
28.55692077558892
 31
0.0
  0
LINE
  5
99
330
1F
100
AcDbEntity
  8
0
100
AcDbLine
 10
-7.01038414827894
 20
-16.51464038327521
 30
0.0
 11
-7.01038414827894
 21
22.55793460425187
 31
0.0
  0
LINE
  5
9A
330
1F
100
AcDbEntity
  8
0
100
AcDbLine
 10
5.00912344763735
 20
34.13580677185555
 30
0.0
 11
5.071383225034969
 21
34.05994301373069
 31
0.0
  0
LINE
  5
9B
330
1F
100
AcDbEntity
  8
0
100
AcDbLine
 10
0.482077726764178
 20
42.36559626073193
 30
0.0
 11
0.5739281546418641
 21
42.40016631389296
 31
0.0
  0
LINE
  5
9C
330
1F
100
AcDbEntity
  8
0
100
AcDbLine
 10
0.9888516066784736
 20
42.65818229679187
 30
0.0
 11
1.060480950519363
 21
42.72527049828581
 31
0.0
  0
LINE
  5
9D
330
1F
100
AcDbEntity
  8
0
100
AcDbLine
 10
7.544034170525182
 20
35.71211555447129
 30
0.0
 11
7.497770982403972
 21
35.79866789182628
 31
0.0
  0
LINE
  5
9E
330
1F
100
AcDbEntity
  8
0
100
AcDbLine
 10
1.470929333542631
 20
43.49316541284523
 30
0.0
 11
1.486916003195461
 21
43.58999524320389
 31
0.0
  0
LINE
  5
9F
330
1F
100
AcDbEntity
  8
0
100
AcDbLine
 10
0.9129878485535972
 20
42.59592251939421
 30
0.0
 11
0.9888516066784736
 21
42.65818229679187
 31
0.0
  0
LINE
  5
A0
330
1F
100
AcDbEntity
  8
0
100
AcDbLine
 10
1.189828929310946
 20
42.87276360025155
 30
0.0
 11
1.246993676468678
 21
42.9525369124618
 31
0.0
  0
LINE
  5
A1
330
1F
100
AcDbEntity
  8
0
100
AcDbLine
 10
1.246993676468678
 20
42.9525369124618
 30
0.0
 11
1.298818605355694
 21
43.03587817738802
 31
0.0
  0
LINE
  5
A2
330
1F
100
AcDbEntity
  8
0
100
AcDbLine
 10
7.647596295626038
 20
34.66063165235075
 30
0.0
 11
7.669881710590909
 21
34.75620858444923
 31
0.0
  0
LINE
  5
A3
330
1F
100
AcDbEntity
  8
0
100
AcDbLine
 10
7.326521529061589
 20
36.03764622718762
 30
0.0
 11
7.259433327567641
 21
36.10927557092851
 31
0.0
  0
LINE
  5
A4
330
1F
100
AcDbEntity
  8
0
100
AcDbLine
 10
-1.385585134912199
 20
44.35967960344705
 30
0.0
 11
-1.420155188073214
 21
44.26782917556934
 31
0.0
  0
LINE
  5
A5
330
1F
100
AcDbEntity
  8
0
100
AcDbLine
 10
1.127569152013312
 20
42.7968998420267
 30
0.0
 11
1.189828929310946
 21
42.87276360025155
 31
0.0
  0
LINE
  5
A6
330
1F
100
AcDbEntity
  8
0
100
AcDbLine
 10
-0.5739281547418474
 20
42.40016631389296
 30
0.0
 11
-0.4820777268641571
 21
42.36559626073193
 31
0.0
  0
LINE
  5
A7
330
1F
100
AcDbEntity
  8
0
100
AcDbLine
 10
-1.298818605355694
 20
43.03587817738802
 30
0.0
 11
-1.246993676568659
 21
42.9525369124618
 31
0.0
  0
LINE
  5
A8
330
1F
100
AcDbEntity
  8
0
100
AcDbLine
 10
0.3881629680583998
 20
45.2343953673829
 30
0.0
 11
0.2925860359599236
 21
45.2566807823478
 31
0.0
  0
LINE
  5
A9
330
1F
100
AcDbEntity
  8
0
100
AcDbLine
 10
-0.8332145363433556
 20
45.03274512527383
 30
0.0
 11
-0.9129878485535929
 21
44.97558037811613
 31
0.0
  0
LINE
  5
AA
330
1F
100
AcDbEntity
  8
0
100
AcDbLine
 10
-0.4820777268641571
 20
42.36559626073193
 30
0.0
 11
-0.3881629681583804
 21
42.33710753012742
 31
0.0
  0
LINE
  5
AB
330
1F
100
AcDbEntity
  8
0
100
AcDbLine
 10
6.948825648465407
 20
36.34761322576485
 30
0.0
 11
6.862273311110422
 21
36.39387641388605
 31
0.0
  0
LINE
  5
AC
330
1F
100
AcDbEntity
  8
0
100
AcDbLine
 10
4.702416906642778
 20
35.14688273741739
 30
0.0
 11
4.699205834214017
 21
35.04879462040915
 31
0.0
  0
LINE
  5
AD
330
1F
100
AcDbEntity
  8
0
100
AcDbLine
 10
-1.448643918677742
 20
43.3975884806468
 30
0.0
 11
-1.420155188073214
 21
43.30367372194098
 31
0.0
  0
LINE
  5
AE
330
1F
100
AcDbEntity
  8
0
100
AcDbLine
 10
7.497770982403972
 20
34.29892134899202
 30
0.0
 11
7.544034170525182
 21
34.38547368634701
 31
0.0
  0
LINE
  5
AF
330
1F
100
AcDbEntity
  8
0
100
AcDbLine
 10
-0.098088117008223
 20
42.28921597839965
 30
0.0
 11
0.0
 21
42.2860049059709
 31
0.0
  0
LINE
  5
B0
330
1F
100
AcDbEntity
  8
0
100
AcDbLine
 10
-1.345081793476901
 20
43.12243051464304
 30
0.0
 11
-1.298818605355694
 21
43.03587817738802
 31
0.0
  0
LINE
  5
B1
330
1F
100
AcDbEntity
  8
0
100
AcDbLine
 10
5.00912344763735
 20
35.96178246896274
 30
0.0
 11
4.95195870047962
 21
35.88200915665253
 31
0.0
  0
LINE
  5
B2
330
1F
100
AcDbEntity
  8
0
100
AcDbLine
 10
0.0980881169082439
 20
42.28921597839965
 30
0.0
 11
0.1957562055012708
 21
42.29883544550971
 31
0.0
  0
LINE
  5
B3
330
1F
100
AcDbEntity
  8
0
100
AcDbLine
 10
1.499746542834264
 20
43.78575144880514
 30
0.0
 11
1.496535470305521
 21
43.88383956571337
 31
0.0
  0
LINE
  5
B4
330
1F
100
AcDbEntity
  8
0
100
AcDbLine
 10
0.3881629680583998
 20
42.33710753012742
 30
0.0
 11
0.482077726764178
 21
42.36559626073193
 31
0.0
  0
LINE
  5
B5
330
1F
100
AcDbEntity
  8
0
100
AcDbLine
 10
6.772880531690145
 20
33.66320948549696
 30
0.0
 11
6.862273311110422
 21
33.70371282693223
 31
0.0
  0
LINE
  5
B6
330
1F
100
AcDbEntity
  8
0
100
AcDbLine
 10
0.482077726764178
 20
45.20590663677835
 30
0.0
 11
0.3881629680583998
 21
45.2343953673829
 31
0.0
  0
LINE
  5
B7
330
1F
100
AcDbEntity
  8
0
100
AcDbLine
 10
1.496535470305521
 20
43.88383956571337
 30
0.0
 11
1.486916003195461
 21
43.98150765430645
 31
0.0
  0
LINE
  5
B8
330
1F
100
AcDbEntity
  8
0
100
AcDbLine
 10
1.345081793476904
 20
44.44907238286733
 30
0.0
 11
1.298818605355694
 21
44.53562472022229
 31
0.0
  0
LINE
  5
B9
330
1F
100
AcDbEntity
  8
0
100
AcDbLine
 10
1.385585134812217
 20
43.21182329406329
 30
0.0
 11
1.420155187973232
 21
43.30367372194098
 31
0.0
  0
LINE
  5
BA
330
1F
100
AcDbEntity
  8
0
100
AcDbLine
 10
-0.19575620560125
 20
42.29883544550971
 30
0.0
 11
-0.098088117008223
 21
42.28921597839965
 31
0.0
  0
LINE
  5
BB
330
1F
100
AcDbEntity
  8
0
100
AcDbLine
 10
1.298818605355694
 20
43.03587817738802
 30
0.0
 11
1.345081793476904
 21
43.12243051464304
 31
0.0
  0
LINE
  5
BC
330
1F
100
AcDbEntity
  8
0
100
AcDbLine
 10
1.44864391857776
 20
43.3975884806468
 30
0.0
 11
1.470929333542631
 21
43.49316541284523
 31
0.0
  0
LINE
  5
BD
330
1F
100
AcDbEntity
  8
0
100
AcDbLine
 10
4.712036373752837
 20
35.24455082591041
 30
0.0
 11
4.702416906642778
 21
35.14688273741739
 31
0.0
  0
LINE
  5
BE
330
1F
100
AcDbEntity
  8
0
100
AcDbLine
 10
4.750308458370537
 20
35.43695758856753
 30
0.0
 11
4.728023043505647
 21
35.34138065636907
 31
0.0
  0
LINE
  5
BF
330
1F
100
AcDbEntity
  8
0
100
AcDbLine
 10
6.198952377048278
 20
33.5490480775749
 30
0.0
 11
6.297040493956522
 21
33.55225915010363
 31
0.0
  0
LINE
  5
C0
330
1F
100
AcDbEntity
  8
0
100
AcDbLine
 10
4.95195870047962
 20
35.88200915665253
 30
0.0
 11
4.900133771692584
 21
35.79866789182628
 31
0.0
  0
LINE
  5
C1
330
1F
100
AcDbEntity
  8
0
100
AcDbLine
 10
1.298818605355694
 20
44.53562472022229
 30
0.0
 11
1.246993676468678
 21
44.61896598504857
 31
0.0
  0
LINE
  5
C2
330
1F
100
AcDbEntity
  8
0
100
AcDbLine
 10
-1.499746542834259
 20
43.78575144880514
 30
0.0
 11
-1.4965354704055
 21
43.68766333179695
 31
0.0
  0
LINE
  5
C3
330
1F
100
AcDbEntity
  8
0
100
AcDbLine
 10
-0.3881629681583804
 20
42.33710753012742
 30
0.0
 11
-0.2925860359599208
 21
42.31482211526251
 31
0.0
  0
LINE
  5
C4
330
1F
100
AcDbEntity
  8
0
100
AcDbLine
 10
7.544034170525182
 20
34.38547368634701
 30
0.0
 11
7.584537511860495
 21
34.47486646576728
 31
0.0
  0
LINE
  5
C5
330
1F
100
AcDbEntity
  8
0
100
AcDbLine
 10
-1.486916003295442
 20
43.58999524320389
 30
0.0
 11
-1.470929333542629
 21
43.49316541284523
 31
0.0
  0
LINE
  5
C6
330
1F
100
AcDbEntity
  8
0
100
AcDbLine
 10
1.486916003195461
 20
43.58999524320389
 30
0.0
 11
1.496535470305521
 21
43.68766333179695
 31
0.0
  0
LINE
  5
C7
330
1F
100
AcDbEntity
  8
0
100
AcDbLine
 10
5.210100770269825
 20
36.17636377242247
 30
0.0
 11
5.138471426528918
 21
36.10927557092851
 31
0.0
  0
LINE
  5
C8
330
1F
100
AcDbEntity
  8
0
100
AcDbLine
 10
-0.6633209341621248
 20
42.44066965532825
 30
0.0
 11
-0.5739281547418474
 21
42.40016631389296
 31
0.0
  0
LINE
  5
C9
330
1F
100
AcDbEntity
  8
0
100
AcDbLine
 10
1.420155187973232
 20
44.26782917556934
 30
0.0
 11
1.385585134812217
 21
44.35967960344705
 31
0.0
  0
LINE
  5
CA
330
1F
100
AcDbEntity
  8
0
100
AcDbLine
 10
-0.5739281547418474
 20
45.17133658361738
 30
0.0
 11
-0.6633209341621248
 21
45.13083324228206
 31
0.0
  0
LINE
  5
CB
330
1F
100
AcDbEntity
  8
0
100
AcDbLine
 10
0.2925860359599236
 20
42.31482211526251
 30
0.0
 11
0.3881629680583998
 21
42.33710753012742
 31
0.0
  0
LINE
  5
CC
330
1F
100
AcDbEntity
  8
0
100
AcDbLine
 10
-1.06048095051936
 20
42.72527049828581
 30
0.0
 11
-0.9888516067784527
 21
42.65818229679187
 31
0.0
  0
LINE
  5
CD
330
1F
100
AcDbEntity
  8
0
100
AcDbLine
 10
-1.385585134912199
 20
43.21182329406329
 30
0.0
 11
-1.345081793476901
 21
43.12243051464304
 31
0.0
  0
LINE
  5
CE
330
1F
100
AcDbEntity
  8
0
100
AcDbLine
 10
0.9888516066784736
 20
44.91332060081846
 30
0.0
 11
0.9129878485535972
 21
44.97558037811613
 31
0.0
  0
LINE
  5
CF
330
1F
100
AcDbEntity
  8
0
100
AcDbLine
 10
-1.298818605355694
 20
44.53562472022229
 30
0.0
 11
-1.345081793476901
 21
44.44907238286733
 31
0.0
  0
LINE
  5
D0
330
1F
100
AcDbEntity
  8
0
100
AcDbLine
 10
-1.06048095051936
 20
44.84623239932453
 30
0.0
 11
-1.127569152013309
 21
44.7746030554836
 31
0.0
  0
LINE
  5
D1
330
1F
100
AcDbEntity
  8
0
100
AcDbLine
 10
1.385585134812217
 20
44.35967960344705
 30
0.0
 11
1.345081793476904
 21
44.44907238286733
 31
0.0
  0
LINE
  5
D2
330
1F
100
AcDbEntity
  8
0
100
AcDbLine
 10
7.259433327567641
 20
33.98831366988978
 30
0.0
 11
7.326521529061589
 21
34.05994301373069
 31
0.0
  0
LINE
  5
D3
330
1F
100
AcDbEntity
  8
0
100
AcDbLine
 10
-1.4965354704055
 20
43.68766333179695
 30
0.0
 11
-1.486916003295442
 21
43.58999524320389
 31
0.0
  0
LINE
  5
D4
330
1F
100
AcDbEntity
  8
0
100
AcDbLine
 10
4.728023043505647
 20
35.34138065636907
 30
0.0
 11
4.712036373752837
 21
35.24455082591041
 31
0.0
  0
LINE
  5
D5
330
1F
100
AcDbEntity
  8
0
100
AcDbLine
 10
-1.246993676568659
 20
42.9525369124618
 30
0.0
 11
-1.189828929410928
 21
42.87276360025155
 31
0.0
  0
LINE
  5
D6
330
1F
100
AcDbEntity
  8
0
100
AcDbLine
 10
1.496535470305521
 20
43.68766333179695
 30
0.0
 11
1.499746542834264
 21
43.78575144880514
 31
0.0
  0
LINE
  5
D7
330
1F
100
AcDbEntity
  8
0
100
AcDbLine
 10
1.345081793476904
 20
43.12243051464304
 30
0.0
 11
1.385585134812217
 21
43.21182329406329
 31
0.0
  0
LINE
  5
D8
330
1F
100
AcDbEntity
  8
0
100
AcDbLine
 10
7.032166913291654
 20
33.80180094394047
 30
0.0
 11
7.111940225601872
 21
33.85896569109821
 31
0.0
  0
LINE
  5
D9
330
1F
100
AcDbEntity
  8
0
100
AcDbLine
 10
-0.9888516067784527
 20
42.65818229679187
 30
0.0
 11
-0.9129878485535929
 21
42.59592251939421
 31
0.0
  0
LINE
  5
DA
330
1F
100
AcDbEntity
  8
0
100
AcDbLine
 10
-0.3881629681583804
 20
45.2343953673829
 30
0.0
 11
-0.4820777268641571
 21
45.20590663677835
 31
0.0
  0
LINE
  5
DB
330
1F
100
AcDbEntity
  8
0
100
AcDbLine
 10
1.127569152013312
 20
44.7746030554836
 30
0.0
 11
1.060480950519363
 21
44.84623239932453
 31
0.0
  0
LINE
  5
DC
330
1F
100
AcDbEntity
  8
0
100
AcDbLine
 10
0.6633209340621443
 20
45.13083324228206
 30
0.0
 11
0.5739281546418641
 21
45.17133658361738
 31
0.0
  0
LINE
  5
DD
330
1F
100
AcDbEntity
  8
0
100
AcDbLine
 10
-0.749873271417129
 20
45.08457005416084
 30
0.0
 11
-0.8332145363433556
 21
45.03274512527383
 31
0.0
  0
LINE
  5
DE
330
1F
100
AcDbEntity
  8
0
100
AcDbLine
 10
-1.470929333542629
 20
44.07833748476509
 30
0.0
 11
-1.486916003295442
 21
43.98150765430645
 31
0.0
  0
LINE
  5
DF
330
1F
100
AcDbEntity
  8
0
100
AcDbLine
 10
7.61910756502151
 20
35.53087234727332
 30
0.0
 11
7.584537511860495
 21
35.622722775151
 31
0.0
  0
LINE
  5
E0
330
1F
100
AcDbEntity
  8
0
100
AcDbLine
 10
-0.6633209341621248
 20
45.13083324228206
 30
0.0
 11
-0.749873271417129
 21
45.08457005416084
 31
0.0
  0
LINE
  5
E1
330
1F
100
AcDbEntity
  8
0
100
AcDbLine
 10
0.5739281546418641
 20
45.17133658361738
 30
0.0
 11
0.482077726764178
 21
45.20590663677835
 31
0.0
  0
LINE
  5
E2
330
1F
100
AcDbEntity
  8
0
100
AcDbLine
 10
0.8332145362433766
 20
42.53875777223649
 30
0.0
 11
0.9129878485535972
 21
42.59592251939421
 31
0.0
  0
LINE
  5
E3
330
1F
100
AcDbEntity
  8
0
100
AcDbLine
 10
-6.613886088850983
 20
45.22463744247224
 30
0.0
 11
-6.900774783261626
 21
44.77078026913455
 31
0.0
  0
LINE
  5
E4
330
1F
100
AcDbEntity
  8
0
100
AcDbLine
 10
-1.486916003295442
 20
43.98150765430645
 30
0.0
 11
-1.4965354704055
 21
43.88383956571337
 31
0.0
  0
LINE
  5
E5
330
1F
100
AcDbEntity
  8
0
100
AcDbLine
 10
0.8041819731465387
 20
48.68443670799636
 30
0.0
 11
0.2684638973013586
 21
48.72045892324194
 31
0.0
  0
LINE
  5
E6
330
1F
100
AcDbEntity
  8
0
100
AcDbLine
 10
-0.749873271417129
 20
42.48693284344944
 30
0.0
 11
-0.6633209341621248
 21
42.44066965532825
 31
0.0
  0
LINE
  5
E7
330
1F
100
AcDbEntity
  8
0
100
AcDbLine
 10
1.44864391857776
 20
44.17391441686357
 30
0.0
 11
1.420155187973232
 21
44.26782917556934
 31
0.0
  0
LINE
  5
E8
330
1F
100
AcDbEntity
  8
0
100
AcDbLine
 10
-1.127569152013309
 20
42.7968998420267
 30
0.0
 11
-1.06048095051936
 21
42.72527049828581
 31
0.0
  0
LINE
  5
E9
330
1F
100
AcDbEntity
  8
0
100
AcDbLine
 10
1.060480950519363
 20
44.84623239932453
 30
0.0
 11
0.9888516066784736
 21
44.91332060081846
 31
0.0
  0
LINE
  5
EA
330
1F
100
AcDbEntity
  8
0
100
AcDbLine
 10
-1.4965354704055
 20
43.88383956571337
 30
0.0
 11
-1.499746542834259
 21
43.78575144880514
 31
0.0
  0
LINE
  5
EB
330
1F
100
AcDbEntity
  8
0
100
AcDbLine
 10
-1.470929333542629
 20
43.49316541284523
 30
0.0
 11
-1.448643918677742
 21
43.3975884806468
 31
0.0
  0
LINE
  5
EC
330
1F
100
AcDbEntity
  8
0
100
AcDbLine
 10
-1.336276343397965
 20
48.61255459637322
 30
0.0
 11
-1.862349349959856
 21
48.5051364947324
 31
0.0
  0
LINE
  5
ED
330
1F
100
AcDbEntity
  8
0
100
AcDbLine
 10
-1.420155188073214
 20
43.30367372194098
 30
0.0
 11
-1.385585134912199
 21
43.21182329406329
 31
0.0
  0
LINE
  5
EE
330
1F
100
AcDbEntity
  8
0
100
AcDbLine
 10
1.486916003195461
 20
43.98150765430645
 30
0.0
 11
1.470929333542631
 21
44.07833748476509
 31
0.0
  0
LINE
  5
EF
330
1F
100
AcDbEntity
  8
0
100
AcDbLine
 10
1.246993676468678
 20
44.61896598504857
 30
0.0
 11
1.189828929310946
 21
44.69873929735876
 31
0.0
  0
LINE
  5
F0
330
1F
100
AcDbEntity
  8
0
100
AcDbLine
 10
-3.380934518366392
 20
47.97529343250991
 30
0.0
 11
-3.859647301206095
 21
47.73213601791301
 31
0.0
  0
LINE
  5
F1
330
1F
100
AcDbEntity
  8
0
100
AcDbLine
 10
-0.8332145363433556
 20
42.53875777223649
 30
0.0
 11
-0.749873271417129
 21
42.48693284344944
 31
0.0
  0
LINE
  5
F2
330
1F
100
AcDbEntity
  8
0
100
AcDbLine
 10
-1.246993676568659
 20
44.61896598504857
 30
0.0
 11
-1.298818605355694
 21
44.53562472022229
 31
0.0
  0
LINE
  5
F3
330
1F
100
AcDbEntity
  8
0
100
AcDbLine
 10
-5.952127701918372
 20
46.06958868421238
 30
0.0
 11
-6.297194716492911
 21
45.65822484010206
 31
0.0
  0
LINE
  5
F4
330
1F
100
AcDbEntity
  8
0
100
AcDbLine
 10
5.580239943449556
 20
46.45687533766791
 30
0.0
 11
5.183207195883897
 21
46.81833965699797
 31
0.0
  0
LINE
  5
F5
330
1F
100
AcDbEntity
  8
0
100
AcDbLine
 10
-2.886986985299482
 20
48.18578640479762
 30
0.0
 11
-3.380934518366392
 21
47.97529343250991
 31
0.0
  0
LINE
  5
F6
330
1F
100
AcDbEntity
  8
0
100
AcDbLine
 10
-0.098088117008223
 20
45.2822869191107
 30
0.0
 11
-0.19575620560125
 21
45.27266745200061
 31
0.0
  0
LINE
  5
F7
330
1F
100
AcDbEntity
  8
0
100
AcDbLine
 10
10.53192685576137
 20
37.50745708295299
 30
0.0
 11
10.3665811857796
 21
37.8680639603907
 31
0.0
  0
LINE
  5
F8
330
1F
100
AcDbEntity
  8
0
100
AcDbLine
 10
-1.448643918677742
 20
44.17391441686357
 30
0.0
 11
-1.470929333542629
 21
44.07833748476509
 31
0.0
  0
LINE
  5
F9
330
1F
100
AcDbEntity
  8
0
100
AcDbLine
 10
-0.2925860359599208
 20
45.2566807823478
 30
0.0
 11
-0.3881629681583804
 21
45.2343953673829
 31
0.0
  0
LINE
  5
FA
330
1F
100
AcDbEntity
  8
0
100
AcDbLine
 10
0.8332145362433766
 20
45.03274512527383
 30
0.0
 11
0.7498732714171318
 21
45.08457005416084
 31
0.0
  0
LINE
  5
FB
330
1F
100
AcDbEntity
  8
0
100
AcDbLine
 10
-0.4820777268641571
 20
45.20590663677835
 30
0.0
 11
-0.5739281547418474
 21
45.17133658361738
 31
0.0
  0
LINE
  5
FC
330
1F
100
AcDbEntity
  8
0
100
AcDbLine
 10
0.9129878485535972
 20
44.97558037811613
 30
0.0
 11
0.8332145362433766
 21
45.03274512527383
 31
0.0
  0
LINE
  5
FD
330
1F
100
AcDbEntity
  8
0
100
AcDbLine
 10
10.3665811857796
 20
37.8680639603907
 30
0.0
 11
7.1565680573983
 21
44.29869843546445
 31
0.0
  0
LINE
  5
FE
330
1F
100
AcDbEntity
  8
0
100
AcDbLine
 10
-4.762818519370225
 20
47.15235285646727
 30
0.0
 11
-5.183207195983876
 21
46.81833965699797
 31
0.0
  0
LINE
  5
FF
330
1F
100
AcDbEntity
  8
0
100
AcDbLine
 10
-1.345081793476901
 20
44.44907238286733
 30
0.0
 11
-1.385585134912199
 21
44.35967960344705
 31
0.0
  0
LINE
  5
100
330
1F
100
AcDbEntity
  8
0
100
AcDbLine
 10
4.320968217271282
 20
47.45740984673594
 30
0.0
 11
3.859647301206097
 21
47.73213601791301
 31
0.0
  0
LINE
  5
101
330
1F
100
AcDbEntity
  8
0
100
AcDbLine
 10
1.189828929310946
 20
44.69873929735876
 30
0.0
 11
1.127569152013312
 21
44.7746030554836
 31
0.0
  0
LINE
  5
102
330
1F
100
AcDbEntity
  8
0
100
AcDbLine
 10
-5.183207195983876
 20
46.81833965699797
 30
0.0
 11
-5.580239943449556
 21
46.45687533766791
 31
0.0
  0
LINE
  5
103
330
1F
100
AcDbEntity
  8
0
100
AcDbLine
 10
-1.127569152013309
 20
44.7746030554836
 30
0.0
 11
-1.189828929410928
 21
44.69873929735876
 31
0.0
  0
LINE
  5
104
330
1F
100
AcDbEntity
  8
0
100
AcDbLine
 10
-6.900774783261626
 20
44.77078026913455
 30
0.0
 11
-7.156568057398296
 21
44.29869843546445
 31
0.0
  0
LINE
  5
105
330
1F
100
AcDbEntity
  8
0
100
AcDbLine
 10
-0.9888516067784527
 20
44.91332060081846
 30
0.0
 11
-1.06048095051936
 21
44.84623239932453
 31
0.0
  0
LINE
  5
106
330
1F
100
AcDbEntity
  8
0
100
AcDbLine
 10
2.886986985299485
 20
48.18578640479762
 30
0.0
 11
2.380030467451
 21
48.36266643717215
 31
0.0
  0
LINE
  5
107
330
1F
100
AcDbEntity
  8
0
100
AcDbLine
 10
7.1565680573983
 20
44.29869843546445
 30
0.0
 11
6.900774783261626
 21
44.77078026913455
 31
0.0
  0
LINE
  5
108
330
1F
100
AcDbEntity
  8
0
100
AcDbLine
 10
-0.19575620560125
 20
45.27266745200061
 30
0.0
 11
-0.2925860359599208
 21
45.2566807823478
 31
0.0
  0
LINE
  5
109
330
1F
100
AcDbEntity
  8
0
100
AcDbLine
 10
0.2925860359599236
 20
45.2566807823478
 30
0.0
 11
0.1957562055012708
 21
45.27266745200061
 31
0.0
  0
LINE
  5
10A
330
1F
100
AcDbEntity
  8
0
100
AcDbLine
 10
0.1957562055012708
 20
45.27266745200061
 30
0.0
 11
0.0980881169082439
 21
45.2822869191107
 31
0.0
  0
LINE
  5
10B
330
1F
100
AcDbEntity
  8
0
100
AcDbLine
 10
0.0980881169082439
 20
45.2822869191107
 30
0.0
 11
0.0
 21
45.28549799163943
 31
0.0
  0
LINE
  5
10C
330
1F
100
AcDbEntity
  8
0
100
AcDbLine
 10
0.2684638973013586
 20
48.72045892324194
 30
0.0
 11
-0.2684638974013376
 21
48.72045892324194
 31
0.0
  0
LINE
  5
10D
330
1F
100
AcDbEntity
  8
0
100
AcDbLine
 10
-5.580239943449556
 20
46.45687533766791
 30
0.0
 11
-5.952127701918372
 21
46.06958868421238
 31
0.0
  0
LINE
  5
10E
330
1F
100
AcDbEntity
  8
0
100
AcDbLine
 10
0.0
 20
45.28549799163943
 30
0.0
 11
-0.098088117008223
 21
45.2822869191107
 31
0.0
  0
LINE
  5
10F
330
1F
100
AcDbEntity
  8
0
100
AcDbLine
 10
4.762818519370225
 20
47.15235285646727
 30
0.0
 11
4.320968217271282
 21
47.45740984673594
 31
0.0
  0
LINE
  5
110
330
1F
100
AcDbEntity
  8
0
100
AcDbLine
 10
-2.380030467550983
 20
48.36266643717215
 30
0.0
 11
-2.886986985299482
 21
48.18578640479762
 31
0.0
  0
LINE
  5
111
330
1F
100
AcDbEntity
  8
0
100
AcDbLine
 10
-3.859647301206095
 20
47.73213601791301
 30
0.0
 11
-4.320968217371262
 21
47.45740984673594
 31
0.0
  0
LINE
  5
112
330
1F
100
AcDbEntity
  8
0
100
AcDbLine
 10
-1.862349349959856
 20
48.5051364947324
 30
0.0
 11
-2.380030467550983
 21
48.36266643717215
 31
0.0
  0
LINE
  5
113
330
1F
100
AcDbEntity
  8
0
100
AcDbLine
 10
6.613886088750998
 20
45.22463744247224
 30
0.0
 11
6.297194716492914
 21
45.65822484010206
 31
0.0
  0
LINE
  5
114
330
1F
100
AcDbEntity
  8
0
100
AcDbLine
 10
10.78941571754373
 20
36.75744554060364
 30
0.0
 11
10.67307745241054
 21
37.13671051222342
 31
0.0
  0
LINE
  5
115
330
1F
100
AcDbEntity
  8
0
100
AcDbLine
 10
1.470929333542631
 20
44.07833748476509
 30
0.0
 11
1.44864391857776
 21
44.17391441686357
 31
0.0
  0
LINE
  5
116
330
1F
100
AcDbEntity
  8
0
100
AcDbLine
 10
-1.189828929410928
 20
44.69873929735876
 30
0.0
 11
-1.246993676568659
 21
44.61896598504857
 31
0.0
  0
LINE
  5
117
330
1F
100
AcDbEntity
  8
0
100
AcDbLine
 10
-1.420155188073214
 20
44.26782917556934
 30
0.0
 11
-1.448643918677742
 21
44.17391441686357
 31
0.0
  0
LINE
  5
118
330
1F
100
AcDbEntity
  8
0
100
AcDbLine
 10
1.336276343397967
 20
48.61255459637322
 30
0.0
 11
0.8041819731465387
 21
48.68443670799636
 31
0.0
  0
LINE
  5
119
330
1F
100
AcDbEntity
  8
0
100
AcDbLine
 10
0.7498732714171318
 20
45.08457005416084
 30
0.0
 11
0.6633209340621443
 21
45.13083324228206
 31
0.0
  0
LINE
  5
11A
330
1F
100
AcDbEntity
  8
0
100
AcDbLine
 10
1.420155187973232
 20
43.30367372194098
 30
0.0
 11
1.44864391857776
 21
43.3975884806468
 31
0.0
  0
LINE
  5
11B
330
1F
100
AcDbEntity
  8
0
100
AcDbLine
 10
-4.712036373852817
 20
34.85303841490788
 30
0.0
 11
-4.702416906742758
 21
34.95070650350092
 31
0.0
  0
LINE
  5
11C
330
1F
100
AcDbEntity
  8
0
100
AcDbLine
 10
-6.198952377048278
 20
33.5490480775749
 30
0.0
 11
-6.100864260140034
 21
33.55225915010363
 31
0.0
  0
LINE
  5
11D
330
1F
100
AcDbEntity
  8
0
100
AcDbLine
 10
-10.78941571764372
 20
36.75744554060364
 30
0.0
 11
-10.88043289854014
 21
36.37132071189968
 31
0.0
  0
LINE
  5
11E
330
1F
100
AcDbEntity
  8
0
100
AcDbLine
 10
-7.54403417052518
 20
34.38547368634701
 30
0.0
 11
-7.49777098240397
 21
34.29892134899202
 31
0.0
  0
LINE
  5
11F
330
1F
100
AcDbEntity
  8
0
100
AcDbLine
 10
-7.669881710590905
 20
34.75620858444923
 30
0.0
 11
-7.647596295726019
 21
34.66063165235075
 31
0.0
  0
LINE
  5
120
330
1F
100
AcDbEntity
  8
0
100
AcDbLine
 10
-7.111940225601872
 20
33.85896569109821
 30
0.0
 11
-7.032166913391634
 21
33.80180094394047
 31
0.0
  0
LINE
  5
121
330
1F
100
AcDbEntity
  8
0
100
AcDbLine
 10
-4.750308458470515
 20
34.66063165235075
 30
0.0
 11
-4.728023043505645
 21
34.75620858444923
 31
0.0
  0
LINE
  5
122
330
1F
100
AcDbEntity
  8
0
100
AcDbLine
 10
-10.94573097266562
 20
35.98002456814799
 30
0.0
 11
-10.98502438857833
 21
35.58526826596306
 31
0.0
  0
LINE
  5
123
330
1F
100
AcDbEntity
  8
0
100
AcDbLine
 10
-6.772880531790124
 20
33.66320948549696
 30
0.0
 11
-6.681030103912436
 21
33.62863943243594
 31
0.0
  0
LINE
  5
124
330
1F
100
AcDbEntity
  8
0
100
AcDbLine
 10
-6.587115345206658
 20
33.60015070183141
 30
0.0
 11
-6.491538413008199
 21
33.57786528686651
 31
0.0
  0
LINE
  5
125
330
1F
100
AcDbEntity
  8
0
100
AcDbLine
 10
5.210100770269825
 20
33.92122546839585
 30
0.0
 11
5.285964528494683
 21
33.85896569109821
 31
0.0
  0
LINE
  5
126
330
1F
100
AcDbEntity
  8
0
100
AcDbLine
 10
-7.68586838034372
 20
34.85303841490788
 30
0.0
 11
-7.669881710590905
 21
34.75620858444923
 31
0.0
  0
LINE
  5
127
330
1F
100
AcDbEntity
  8
0
100
AcDbLine
 10
-5.7168746502841
 20
36.46894980848237
 30
0.0
 11
-5.810789408989878
 21
36.49743853898691
 31
0.0
  0
LINE
  5
128
330
1F
100
AcDbEntity
  8
0
100
AcDbLine
 10
-6.948825648465407
 20
36.34761322576485
 30
0.0
 11
-7.032166913391634
 21
36.29578829697781
 31
0.0
  0
LINE
  5
129
330
1F
100
AcDbEntity
  8
0
100
AcDbLine
 10
-6.681030103912436
 20
33.62863943243594
 30
0.0
 11
-6.587115345206658
 21
33.60015070183141
 31
0.0
  0
LINE
  5
12A
330
1F
100
AcDbEntity
  8
0
100
AcDbLine
 10
-7.49777098240397
 20
34.29892134899202
 30
0.0
 11
-7.445946053616939
 21
34.21558008416579
 31
0.0
  0
LINE
  5
12B
330
1F
100
AcDbEntity
  8
0
100
AcDbLine
 10
-7.584537511960473
 20
34.47486646576728
 30
0.0
 11
-7.54403417052518
 21
34.38547368634701
 31
0.0
  0
LINE
  5
12C
330
1F
100
AcDbEntity
  8
0
100
AcDbLine
 10
-7.698698919882538
 20
35.04879462040915
 30
0.0
 11
-7.695487847453778
 21
34.95070650350092
 31
0.0
  0
LINE
  5
12D
330
1F
100
AcDbEntity
  8
0
100
AcDbLine
 10
-4.853870583571374
 20
34.38547368634701
 30
0.0
 11
-4.813367242236058
 21
34.47486646576728
 31
0.0
  0
LINE
  5
12E
330
1F
100
AcDbEntity
  8
0
100
AcDbLine
 10
-6.491538413008199
 20
33.57786528686651
 30
0.0
 11
-6.394708582649531
 21
33.5618786172137
 31
0.0
  0
LINE
  5
12F
330
1F
100
AcDbEntity
  8
0
100
AcDbLine
 10
-7.445946053616939
 20
34.21558008416579
 30
0.0
 11
-7.388781306459205
 21
34.13580677185555
 31
0.0
  0
LINE
  5
130
330
1F
100
AcDbEntity
  8
0
100
AcDbLine
 10
-5.138471426528915
 20
33.98831366988978
 30
0.0
 11
-5.071383225034967
 21
34.05994301373069
 31
0.0
  0
LINE
  5
131
330
1F
100
AcDbEntity
  8
0
100
AcDbLine
 10
4.702416906642778
 20
34.95070650350092
 30
0.0
 11
4.712036373752837
 21
34.85303841490788
 31
0.0
  0
LINE
  5
132
330
1F
100
AcDbEntity
  8
0
100
AcDbLine
 10
-10.36658118587959
 20
37.8680639603907
 30
0.0
 11
-7.156568057398296
 21
44.29869843546445
 31
0.0
  0
LINE
  5
133
330
1F
100
AcDbEntity
  8
0
100
AcDbLine
 10
-5.625024222406411
 20
33.66320948549696
 30
0.0
 11
-5.535631442986134
 21
33.70371282693223
 31
0.0
  0
LINE
  5
134
330
1F
100
AcDbEntity
  8
0
100
AcDbLine
 10
-6.198952377048278
 20
36.54854116324341
 30
0.0
 11
-6.297040494056501
 21
36.54533009081465
 31
0.0
  0
LINE
  5
135
330
1F
100
AcDbEntity
  8
0
100
AcDbLine
 10
-10.88043289854014
 20
36.37132071189968
 30
0.0
 11
-10.94573097266562
 21
35.98002456814799
 31
0.0
  0
LINE
  5
136
330
1F
100
AcDbEntity
  8
0
100
AcDbLine
 10
-5.449079105631147
 20
33.74997601505346
 30
0.0
 11
-5.365737840804901
 21
33.80180094394047
 31
0.0
  0
LINE
  5
137
330
1F
100
AcDbEntity
  8
0
100
AcDbLine
 10
-10.53192685576137
 20
37.50745708295299
 30
0.0
 11
-10.67307745241054
 21
37.13671051222342
 31
0.0
  0
LINE
  5
138
330
1F
100
AcDbEntity
  8
0
100
AcDbLine
 10
-5.810789408989878
 20
33.60015070183141
 30
0.0
 11
-5.7168746502841
 21
33.62863943243594
 31
0.0
  0
LINE
  5
139
330
1F
100
AcDbEntity
  8
0
100
AcDbLine
 10
-5.285964528494683
 20
36.23862354972011
 30
0.0
 11
-5.365737840804901
 21
36.29578829697781
 31
0.0
  0
LINE
  5
13A
330
1F
100
AcDbEntity
  8
0
100
AcDbLine
 10
4.900133771692584
 20
34.29892134899202
 30
0.0
 11
4.95195870047962
 21
34.21558008416579
 31
0.0
  0
LINE
  5
13B
330
1F
100
AcDbEntity
  8
0
100
AcDbLine
 10
-10.67307745241054
 20
37.13671051222342
 30
0.0
 11
-10.78941571764372
 21
36.75744554060364
 31
0.0
  0
LINE
  5
13C
330
1F
100
AcDbEntity
  8
0
100
AcDbLine
 10
-7.388781306459205
 20
34.13580677185555
 30
0.0
 11
-7.326521529061584
 21
34.05994301373069
 31
0.0
  0
LINE
  5
13D
330
1F
100
AcDbEntity
  8
0
100
AcDbLine
 10
-6.772880531790124
 20
36.43437975532135
 30
0.0
 11
-6.8622733112104
 21
36.39387641388605
 31
0.0
  0
LINE
  5
13E
330
1F
100
AcDbEntity
  8
0
100
AcDbLine
 10
-4.9519587005796
 20
34.21558008416579
 30
0.0
 11
-4.900133771692581
 21
34.29892134899202
 31
0.0
  0
LINE
  5
13F
330
1F
100
AcDbEntity
  8
0
100
AcDbLine
 10
-4.813367242236058
 20
34.47486646576728
 30
0.0
 11
-4.778797189075043
 21
34.56671689364499
 31
0.0
  0
LINE
  5
140
330
1F
100
AcDbEntity
  8
0
100
AcDbLine
 10
-4.712036373852817
 20
35.24455082591041
 30
0.0
 11
-4.728023043505645
 21
35.34138065636907
 31
0.0
  0
LINE
  5
141
330
1F
100
AcDbEntity
  8
0
100
AcDbLine
 10
-6.8622733112104
 20
33.70371282693223
 30
0.0
 11
-6.772880531790124
 21
33.66320948549696
 31
0.0
  0
LINE
  5
142
330
1F
100
AcDbEntity
  8
0
100
AcDbLine
 10
4.853870583571377
 20
34.38547368634701
 30
0.0
 11
4.900133771692584
 21
34.29892134899202
 31
0.0
  0
LINE
  5
143
330
1F
100
AcDbEntity
  8
0
100
AcDbLine
 10
-4.702416906742758
 20
35.14688273741739
 30
0.0
 11
-4.712036373852817
 21
35.24455082591041
 31
0.0
  0
LINE
  5
144
330
1F
100
AcDbEntity
  8
0
100
AcDbLine
 10
-7.619107565121491
 20
34.56671689364499
 30
0.0
 11
-7.584537511960473
 21
34.47486646576728
 31
0.0
  0
LINE
  5
145
330
1F
100
AcDbEntity
  8
0
100
AcDbLine
 10
-6.297040494056501
 20
33.55225915010363
 30
0.0
 11
-6.198952377048278
 21
33.5490480775749
 31
0.0
  0
LINE
  5
146
330
1F
100
AcDbEntity
  8
0
100
AcDbLine
 10
-7.111940225601872
 20
36.23862354972011
 30
0.0
 11
-7.187803983826731
 21
36.17636377242247
 31
0.0
  0
LINE
  5
147
330
1F
100
AcDbEntity
  8
0
100
AcDbLine
 10
-10.36658118587959
 20
37.8680639603907
 30
0.0
 11
-10.53192685576137
 21
37.50745708295299
 31
0.0
  0
LINE
  5
148
330
1F
100
AcDbEntity
  8
0
100
AcDbLine
 10
-6.394708582649531
 20
33.5618786172137
 30
0.0
 11
-6.297040494056501
 21
33.55225915010363
 31
0.0
  0
LINE
  5
149
330
1F
100
AcDbEntity
  8
0
100
AcDbLine
 10
-7.647596295726019
 20
34.66063165235075
 30
0.0
 11
-7.619107565121491
 21
34.56671689364499
 31
0.0
  0
LINE
  5
14A
330
1F
100
AcDbEntity
  8
0
100
AcDbLine
 10
-6.394708582649531
 20
36.53571062370459
 30
0.0
 11
-6.491538413008199
 21
36.51972395395178
 31
0.0
  0
LINE
  5
14B
330
1F
100
AcDbEntity
  8
0
100
AcDbLine
 10
-4.813367242236058
 20
35.622722775151
 30
0.0
 11
-4.853870583571374
 21
35.71211555447129
 31
0.0
  0
LINE
  5
14C
330
1F
100
AcDbEntity
  8
0
100
AcDbLine
 10
-5.535631442986134
 20
33.70371282693223
 30
0.0
 11
-5.449079105631147
 21
33.74997601505346
 31
0.0
  0
LINE
  5
14D
330
1F
100
AcDbEntity
  8
0
100
AcDbLine
 10
-6.948825648465407
 20
33.74997601505346
 30
0.0
 11
-6.8622733112104
 21
33.70371282693223
 31
0.0
  0
LINE
  5
14E
330
1F
100
AcDbEntity
  8
0
100
AcDbLine
 10
-6.681030103912436
 20
36.46894980848237
 30
0.0
 11
-6.772880531790124
 21
36.43437975532135
 31
0.0
  0
LINE
  5
14F
330
1F
100
AcDbEntity
  8
0
100
AcDbLine
 10
-4.728023043505645
 20
35.34138065636907
 30
0.0
 11
-4.750308458470515
 21
35.43695758856753
 31
0.0
  0
LINE
  5
150
330
1F
100
AcDbEntity
  8
0
100
AcDbLine
 10
-6.003196171547007
 20
36.53571062370459
 30
0.0
 11
-6.100864260140034
 21
36.54533009081465
 31
0.0
  0
LINE
  5
151
330
1F
100
AcDbEntity
  8
0
100
AcDbLine
 10
-5.7168746502841
 20
33.62863943243594
 30
0.0
 11
-5.625024222406411
 21
33.66320948549696
 31
0.0
  0
LINE
  5
152
330
1F
100
AcDbEntity
  8
0
100
AcDbLine
 10
-7.032166913391634
 20
33.80180094394047
 30
0.0
 11
-6.948825648465407
 21
33.74997601505346
 31
0.0
  0
LINE
  5
153
330
1F
100
AcDbEntity
  8
0
100
AcDbLine
 10
5.449079105631149
 20
33.74997601505346
 30
0.0
 11
5.535631442886151
 21
33.70371282693223
 31
0.0
  0
LINE
  5
154
330
1F
100
AcDbEntity
  8
0
100
AcDbLine
 10
-7.259433327567638
 20
33.98831366988978
 30
0.0
 11
-7.187803983826731
 21
33.92122546839585
 31
0.0
  0
LINE
  5
155
330
1F
100
AcDbEntity
  8
0
100
AcDbLine
 10
-10.98502438857833
 20
35.58526826596306
 30
0.0
 11
-10.99702127620432
 21
35.38289969445164
 31
0.0
  0
LINE
  5
156
330
1F
100
AcDbEntity
  8
0
100
AcDbLine
 10
-7.326521529061584
 20
34.05994301373069
 30
0.0
 11
-7.259433327567638
 21
33.98831366988978
 31
0.0
  0
LINE
  5
157
330
1F
100
AcDbEntity
  8
0
100
AcDbLine
 10
-5.906366341088354
 20
36.51972395395178
 30
0.0
 11
-6.003196171547007
 21
36.53571062370459
 31
0.0
  0
LINE
  5
158
330
1F
100
AcDbEntity
  8
0
100
AcDbLine
 10
-7.695487847453778
 20
34.95070650350092
 30
0.0
 11
-7.68586838034372
 21
34.85303841490788
 31
0.0
  0
LINE
  5
159
330
1F
100
AcDbEntity
  8
0
100
AcDbLine
 10
-7.187803983826731
 20
33.92122546839585
 30
0.0
 11
-7.111940225601872
 21
33.85896569109821
 31
0.0
  0
LINE
  5
15A
330
1F
100
AcDbEntity
  8
0
100
AcDbLine
 10
-4.778797189075043
 20
34.56671689364499
 30
0.0
 11
-4.750308458470515
 21
34.66063165235075
 31
0.0
  0
LINE
  5
15B
330
1F
100
AcDbEntity
  8
0
100
AcDbLine
 10
4.81336724213608
 20
34.47486646576728
 30
0.0
 11
4.853870583571377
 21
34.38547368634701
 31
0.0
  0
LINE
  5
15C
330
1F
100
AcDbEntity
  8
0
100
AcDbLine
 10
-7.187803983826731
 20
36.17636377242247
 30
0.0
 11
-7.259433327567638
 21
36.10927557092851
 31
0.0
  0
LINE
  5
15D
330
1F
100
AcDbEntity
  8
0
100
AcDbLine
 10
-7.647596295726019
 20
35.43695758856753
 30
0.0
 11
-7.669881710590905
 21
35.34138065636907
 31
0.0
  0
LINE
  5
15E
330
1F
100
AcDbEntity
  8
0
100
AcDbLine
 10
-7.445946053616939
 20
35.88200915665253
 30
0.0
 11
-7.49777098240397
 21
35.79866789182628
 31
0.0
  0
LINE
  5
15F
330
1F
100
AcDbEntity
  8
0
100
AcDbLine
 10
5.071383225034969
 20
34.05994301373069
 30
0.0
 11
5.138471426528918
 21
33.98831366988978
 31
0.0
  0
LINE
  5
160
330
1F
100
AcDbEntity
  8
0
100
AcDbLine
 10
5.138471426528918
 20
33.98831366988978
 30
0.0
 11
5.210100770269825
 21
33.92122546839585
 31
0.0
  0
LINE
  5
161
330
1F
100
AcDbEntity
  8
0
100
AcDbLine
 10
-4.778797189075043
 20
35.53087234727332
 30
0.0
 11
-4.813367242236058
 21
35.622722775151
 31
0.0
  0
LINE
  5
162
330
1F
100
AcDbEntity
  8
0
100
AcDbLine
 10
4.699205834214017
 20
35.04879462040915
 30
0.0
 11
4.702416906642778
 21
34.95070650350092
 31
0.0
  0
LINE
  5
163
330
1F
100
AcDbEntity
  8
0
100
AcDbLine
 10
7.497770982403972
 20
35.79866789182628
 30
0.0
 11
7.445946053516957
 21
35.88200915665253
 31
0.0
  0
LINE
  5
164
330
1F
100
AcDbEntity
  8
0
100
AcDbLine
 10
-4.900133771692581
 20
34.29892134899202
 30
0.0
 11
-4.853870583571374
 21
34.38547368634701
 31
0.0
  0
LINE
  5
165
330
1F
100
AcDbEntity
  8
0
100
AcDbLine
 10
6.39470858254955
 20
33.5618786172137
 30
0.0
 11
6.491538413008201
 21
33.57786528686651
 31
0.0
  0
LINE
  5
166
330
1F
100
AcDbEntity
  8
0
100
AcDbLine
 10
-4.750308458470515
 20
35.43695758856753
 30
0.0
 11
-4.778797189075043
 21
35.53087234727332
 31
0.0
  0
LINE
  5
167
330
1F
100
AcDbEntity
  8
0
100
AcDbLine
 10
10.99702127610434
 20
35.38289969445164
 30
0.0
 11
10.53876641097654
 21
34.90004089988791
 31
0.0
  0
LINE
  5
168
330
1F
100
AcDbEntity
  8
0
100
AcDbLine
 10
7.111940225601872
 20
36.23862354972011
 30
0.0
 11
7.032166913291654
 21
36.29578829697781
 31
0.0
  0
LINE
  5
169
330
1F
100
AcDbEntity
  8
0
100
AcDbLine
 10
-4.9519587005796
 20
35.88200915665253
 30
0.0
 11
-5.009123447737329
 21
35.96178246896274
 31
0.0
  0
LINE
  5
16A
330
1F
100
AcDbEntity
  8
0
100
AcDbLine
 10
-7.259433327567638
 20
36.10927557092851
 30
0.0
 11
-7.326521529061584
 21
36.03764622718762
 31
0.0
  0
LINE
  5
16B
330
1F
100
AcDbEntity
  8
0
100
AcDbLine
 10
-7.695487847453778
 20
35.14688273741739
 30
0.0
 11
-7.698698919882538
 21
35.04879462040915
 31
0.0
  0
LINE
  5
16C
330
1F
100
AcDbEntity
  8
0
100
AcDbLine
 10
-5.535631442986134
 20
36.39387641388605
 30
0.0
 11
-5.625024222406411
 21
36.43437975532135
 31
0.0
  0
LINE
  5
16D
330
1F
100
AcDbEntity
  8
0
100
AcDbLine
 10
7.187803983726752
 20
33.92122546839585
 30
0.0
 11
7.259433327567641
 21
33.98831366988978
 31
0.0
  0
LINE
  5
16E
330
1F
100
AcDbEntity
  8
0
100
AcDbLine
 10
4.728023043505647
 20
34.75620858444923
 30
0.0
 11
4.750308458370537
 21
34.66063165235075
 31
0.0
  0
LINE
  5
16F
330
1F
100
AcDbEntity
  8
0
100
AcDbLine
 10
-5.285964528494683
 20
33.85896569109821
 30
0.0
 11
-5.210100770369804
 21
33.92122546839585
 31
0.0
  0
LINE
  5
170
330
1F
100
AcDbEntity
  8
0
100
AcDbLine
 10
-5.449079105631147
 20
36.34761322576485
 30
0.0
 11
-5.535631442986134
 21
36.39387641388605
 31
0.0
  0
LINE
  5
171
330
1F
100
AcDbEntity
  8
0
100
AcDbLine
 10
-5.210100770369804
 20
33.92122546839585
 30
0.0
 11
-5.138471426528915
 21
33.98831366988978
 31
0.0
  0
LINE
  5
172
330
1F
100
AcDbEntity
  8
0
100
AcDbLine
 10
-5.906366341088354
 20
33.57786528686651
 30
0.0
 11
-5.810789408989878
 21
33.60015070183141
 31
0.0
  0
LINE
  5
173
330
1F
100
AcDbEntity
  8
0
100
AcDbLine
 10
5.716874650184121
 20
36.46894980848237
 30
0.0
 11
5.625024222306429
 21
36.43437975532135
 31
0.0
  0
LINE
  5
174
330
1F
100
AcDbEntity
  8
0
100
AcDbLine
 10
6.681030103812456
 20
33.62863943243594
 30
0.0
 11
6.772880531690145
 21
33.66320948549696
 31
0.0
  0
LINE
  5
175
330
1F
100
AcDbEntity
  8
0
100
AcDbLine
 10
7.427725264130363
 20
29.82090164482202
 30
0.0
 11
7.205800499315617
 21
29.19328748331532
 31
0.0
  0
LINE
  5
176
330
1F
100
AcDbEntity
  8
0
100
AcDbLine
 10
-9.68496788512741
 20
33.87884095757817
 30
0.0
 11
-10.10115876196923
 21
34.39839392992583
 31
0.0
  0
LINE
  5
177
330
1F
100
AcDbEntity
  8
0
100
AcDbLine
 10
-5.210100770369804
 20
36.17636377242247
 30
0.0
 11
-5.285964528494683
 21
36.23862354972011
 31
0.0
  0
LINE
  5
178
330
1F
100
AcDbEntity
  8
0
100
AcDbLine
 10
-5.625024222406411
 20
36.43437975532135
 30
0.0
 11
-5.7168746502841
 21
36.46894980848237
 31
0.0
  0
LINE
  5
179
330
1F
100
AcDbEntity
  8
0
100
AcDbLine
 10
-7.032166913391634
 20
36.29578829697781
 30
0.0
 11
-7.111940225601872
 21
36.23862354972011
 31
0.0
  0
LINE
  5
17A
330
1F
100
AcDbEntity
  8
0
100
AcDbLine
 10
7.669881710590909
 20
34.75620858444923
 30
0.0
 11
7.68586838024374
 21
34.85303841490788
 31
0.0
  0
LINE
  5
17B
330
1F
100
AcDbEntity
  8
0
100
AcDbLine
 10
-4.699205834214017
 20
35.04879462040915
 30
0.0
 11
-4.702416906742758
 21
35.14688273741739
 31
0.0
  0
LINE
  5
17C
330
1F
100
AcDbEntity
  8
0
100
AcDbLine
 10
10.10115876186924
 20
34.39839392992583
 30
0.0
 11
9.684967885127413
 21
33.87884095757817
 31
0.0
  0
LINE
  5
17D
330
1F
100
AcDbEntity
  8
0
100
AcDbLine
 10
-7.68586838034372
 20
35.24455082591041
 30
0.0
 11
-7.695487847453778
 21
35.14688273741739
 31
0.0
  0
LINE
  5
17E
330
1F
100
AcDbEntity
  8
0
100
AcDbLine
 10
-4.900133771692581
 20
35.79866789182628
 30
0.0
 11
-4.9519587005796
 21
35.88200915665253
 31
0.0
  0
LINE
  5
17F
330
1F
100
AcDbEntity
  8
0
100
AcDbLine
 10
-5.071383225034967
 20
36.03764622718762
 30
0.0
 11
-5.138471426528915
 21
36.10927557092851
 31
0.0
  0
LINE
  5
180
330
1F
100
AcDbEntity
  8
0
100
AcDbLine
 10
-6.587115345206658
 20
36.49743853898691
 30
0.0
 11
-6.681030103912436
 21
36.46894980848237
 31
0.0
  0
LINE
  5
181
330
1F
100
AcDbEntity
  8
0
100
AcDbLine
 10
5.810789408889899
 20
33.60015070183141
 30
0.0
 11
5.906366341088357
 21
33.57786528686651
 31
0.0
  0
LINE
  5
182
330
1F
100
AcDbEntity
  8
0
100
AcDbLine
 10
-6.100864260140034
 20
33.55225915010363
 30
0.0
 11
-6.003196171547007
 21
33.5618786172137
 31
0.0
  0
LINE
  5
183
330
1F
100
AcDbEntity
  8
0
100
AcDbLine
 10
-6.8622733112104
 20
36.39387641388605
 30
0.0
 11
-6.948825648465407
 21
36.34761322576485
 31
0.0
  0
LINE
  5
184
330
1F
100
AcDbEntity
  8
0
100
AcDbLine
 10
-10.53876641097654
 20
34.90004089988791
 30
0.0
 11
-10.99702127620432
 21
35.38289969445164
 31
0.0
  0
LINE
  5
185
330
1F
100
AcDbEntity
  8
0
100
AcDbLine
 10
7.61910756502151
 20
34.56671689364499
 30
0.0
 11
7.647596295626038
 21
34.66063165235075
 31
0.0
  0
LINE
  5
186
330
1F
100
AcDbEntity
  8
0
100
AcDbLine
 10
8.572018860012658
 20
32.22203039136386
 30
0.0
 11
8.248418492074839
 21
31.64028049769589
 31
0.0
  0
LINE
  5
187
330
1F
100
AcDbEntity
  8
0
100
AcDbLine
 10
-5.810789408989878
 20
36.49743853898691
 30
0.0
 11
-5.906366341088354
 21
36.51972395395178
 31
0.0
  0
LINE
  5
188
330
1F
100
AcDbEntity
  8
0
100
AcDbLine
 10
6.198952377048278
 20
36.54854116324341
 30
0.0
 11
6.100864260040052
 21
36.54533009081465
 31
0.0
  0
LINE
  5
189
330
1F
100
AcDbEntity
  8
0
100
AcDbLine
 10
7.675768176078241
 20
30.43865956733312
 30
0.0
 11
7.427725264130363
 21
29.82090164482202
 31
0.0
  0
LINE
  5
18A
330
1F
100
AcDbEntity
  8
0
100
AcDbLine
 10
6.100864260040052
 20
36.54533009081465
 30
0.0
 11
6.003196171447025
 21
36.53571062370459
 31
0.0
  0
LINE
  5
18B
330
1F
100
AcDbEntity
  8
0
100
AcDbLine
 10
-8.919725074162463
 20
32.78970153354084
 30
0.0
 11
-9.290925674560993
 21
33.34229564433609
 31
0.0
  0
LINE
  5
18C
330
1F
100
AcDbEntity
  8
0
100
AcDbLine
 10
8.248418492074839
 20
31.64028049769589
 30
0.0
 11
7.949493038676464
 21
31.04547489064349
 31
0.0
  0
LINE
  5
18D
330
1F
100
AcDbEntity
  8
0
100
AcDbLine
 10
-5.365737840804901
 20
33.80180094394047
 30
0.0
 11
-5.285964528494683
 21
33.85896569109821
 31
0.0
  0
LINE
  5
18E
330
1F
100
AcDbEntity
  8
0
100
AcDbLine
 10
3.491916097479528
 20
-32.95203473922906
 30
0.0
 11
3.499408599946608
 21
-32.72316246634316
 31
0.0
  0
LINE
  5
18F
330
1F
100
AcDbEntity
  8
0
100
AcDbLine
 10
-9.290925674560993
 20
33.34229564433609
 30
0.0
 11
-9.68496788512741
 21
33.87884095757817
 31
0.0
  0
LINE
  5
190
330
1F
100
AcDbEntity
  8
0
100
AcDbLine
 10
-11.19662367739852
 20
35.59321884691488
 30
0.0
 11
-10.99702127620432
 21
35.38289969445164
 31
0.0
  0
LINE
  5
191
330
1F
100
AcDbEntity
  8
0
100
AcDbLine
 10
5.365737840704923
 20
33.80180094394047
 30
0.0
 11
5.449079105631149
 21
33.74997601505346
 31
0.0
  0
LINE
  5
192
330
1F
100
AcDbEntity
  8
0
100
AcDbLine
 10
-6.491538413008199
 20
36.51972395395178
 30
0.0
 11
-6.587115345206658
 21
36.49743853898691
 31
0.0
  0
LINE
  5
193
330
1F
100
AcDbEntity
  8
0
100
AcDbLine
 10
-7.54403417052518
 20
35.71211555447129
 30
0.0
 11
-7.584537511960473
 21
35.622722775151
 31
0.0
  0
LINE
  5
194
330
1F
100
AcDbEntity
  8
0
100
AcDbLine
 10
-5.009123447737329
 20
35.96178246896274
 30
0.0
 11
-5.071383225034967
 21
36.03764622718762
 31
0.0
  0
LINE
  5
195
330
1F
100
AcDbEntity
  8
0
100
AcDbLine
 10
-4.728023043505645
 20
34.75620858444923
 30
0.0
 11
-4.712036373852817
 21
34.85303841490788
 31
0.0
  0
LINE
  5
196
330
1F
100
AcDbEntity
  8
0
100
AcDbLine
 10
-7.669881710590905
 20
35.34138065636907
 30
0.0
 11
-7.68586838034372
 21
35.24455082591041
 31
0.0
  0
LINE
  5
197
330
1F
100
AcDbEntity
  8
0
100
AcDbLine
 10
7.326521529061589
 20
34.05994301373069
 30
0.0
 11
7.388781306359224
 21
34.13580677185555
 31
0.0
  0
LINE
  5
198
330
1F
100
AcDbEntity
  8
0
100
AcDbLine
 10
7.388781306359224
 20
35.96178246896274
 30
0.0
 11
7.326521529061589
 21
36.03764622718762
 31
0.0
  0
LINE
  5
199
330
1F
100
AcDbEntity
  8
0
100
AcDbLine
 10
-4.702416906742758
 20
34.95070650350092
 30
0.0
 11
-4.699205834214017
 21
35.04879462040915
 31
0.0
  0
LINE
  5
19A
330
1F
100
AcDbEntity
  8
0
100
AcDbLine
 10
-5.009123447737329
 20
34.13580677185555
 30
0.0
 11
-4.9519587005796
 21
34.21558008416579
 31
0.0
  0
LINE
  5
19B
330
1F
100
AcDbEntity
  8
0
100
AcDbLine
 10
-10.10115876196923
 20
34.39839392992583
 30
0.0
 11
-10.53876641097654
 21
34.90004089988791
 31
0.0
  0
LINE
  5
19C
330
1F
100
AcDbEntity
  8
0
100
AcDbLine
 10
-6.297040494056501
 20
36.54533009081465
 30
0.0
 11
-6.394708582649531
 21
36.53571062370459
 31
0.0
  0
LINE
  5
19D
330
1F
100
AcDbEntity
  8
0
100
AcDbLine
 10
-7.427725264130361
 20
29.82090164482202
 30
0.0
 11
-7.675768176178224
 21
30.43865956733312
 31
0.0
  0
LINE
  5
19E
330
1F
100
AcDbEntity
  8
0
100
AcDbLine
 10
9.684967885127413
 20
33.87884095757817
 30
0.0
 11
9.290925674461013
 21
33.34229564433609
 31
0.0
  0
LINE
  5
19F
330
1F
100
AcDbEntity
  8
0
100
AcDbLine
 10
5.906366341088357
 20
33.57786528686651
 30
0.0
 11
6.003196171447025
 21
33.5618786172137
 31
0.0
  0
LINE
  5
1A0
330
1F
100
AcDbEntity
  8
0
100
AcDbLine
 10
3.859647301206097
 20
47.73213601791301
 30
0.0
 11
3.380934518266413
 21
47.97529343250991
 31
0.0
  0
LINE
  5
1A1
330
1F
100
AcDbEntity
  8
0
100
AcDbLine
 10
10.94573097266562
 20
35.98002456814799
 30
0.0
 11
10.88043289844016
 21
36.37132071189968
 31
0.0
  0
LINE
  5
1A2
330
1F
100
AcDbEntity
  8
0
100
AcDbLine
 10
-0.9129878485535929
 20
44.97558037811613
 30
0.0
 11
-0.9888516067784527
 21
44.91332060081846
 31
0.0
  0
LINE
  5
1A3
330
1F
100
AcDbEntity
  8
0
100
AcDbLine
 10
0.7498732714171318
 20
42.48693284344944
 30
0.0
 11
0.8332145362433766
 21
42.53875777223649
 31
0.0
  0
LINE
  5
1A4
330
1F
100
AcDbEntity
  8
0
100
AcDbLine
 10
6.297040493956522
 20
36.54533009081465
 30
0.0
 11
6.198952377048278
 21
36.54854116324341
 31
0.0
  0
LINE
  5
1A5
330
1F
100
AcDbEntity
  8
0
100
AcDbLine
 10
6.297194716492914
 20
45.65822484010206
 30
0.0
 11
5.952127701818393
 21
46.06958868421238
 31
0.0
  0
LINE
  5
1A6
330
1F
100
AcDbEntity
  8
0
100
AcDbLine
 10
8.919725074162466
 20
32.78970153354084
 30
0.0
 11
8.572018860012658
 21
32.22203039136386
 31
0.0
  0
LINE
  5
1A7
330
1F
100
AcDbEntity
  8
0
100
AcDbLine
 10
6.297040493956522
 20
33.55225915010363
 30
0.0
 11
6.39470858254955
 21
33.5618786172137
 31
0.0
  0
LINE
  5
1A8
330
1F
100
AcDbEntity
  8
0
100
AcDbLine
 10
7.445946053516957
 20
35.88200915665253
 30
0.0
 11
7.388781306359224
 21
35.96178246896274
 31
0.0
  0
LINE
  5
1A9
330
1F
100
AcDbEntity
  8
0
100
AcDbLine
 10
-8.572018860112639
 20
32.22203039136386
 30
0.0
 11
-8.919725074162463
 21
32.78970153354084
 31
0.0
  0
LINE
  5
1AA
330
1F
100
AcDbEntity
  8
0
100
AcDbLine
 10
9.290925674461013
 20
33.34229564433609
 30
0.0
 11
8.919725074162466
 21
32.78970153354084
 31
0.0
  0
LINE
  5
1AB
330
1F
100
AcDbEntity
  8
0
100
AcDbLine
 10
-7.949493038676459
 20
31.04547489064349
 30
0.0
 11
-8.248418492174816
 21
31.64028049769589
 31
0.0
  0
LINE
  5
1AC
330
1F
100
AcDbEntity
  8
0
100
AcDbLine
 10
6.003196171447025
 20
33.5618786172137
 30
0.0
 11
6.100864260040052
 21
33.55225915010363
 31
0.0
  0
LINE
  5
1AD
330
1F
100
AcDbEntity
  8
0
100
AcDbLine
 10
-7.584537511960473
 20
35.622722775151
 30
0.0
 11
-7.619107565121491
 21
35.53087234727332
 31
0.0
  0
LINE
  5
1AE
330
1F
100
AcDbEntity
  8
0
100
AcDbLine
 10
7.949493038676464
 20
31.04547489064349
 30
0.0
 11
7.675768176078241
 21
30.43865956733312
 31
0.0
  0
LINE
  5
1AF
330
1F
100
AcDbEntity
  8
0
100
AcDbLine
 10
3.380934518266413
 20
47.97529343250991
 30
0.0
 11
2.886986985299485
 21
48.18578640479762
 31
0.0
  0
LINE
  5
1B0
330
1F
100
AcDbEntity
  8
0
100
AcDbLine
 10
6.491538413008201
 20
33.57786528686651
 30
0.0
 11
6.587115345106678
 21
33.60015070183141
 31
0.0
  0
LINE
  5
1B1
330
1F
100
AcDbEntity
  8
0
100
AcDbLine
 10
7.695487847353796
 20
34.95070650350092
 30
0.0
 11
7.698698919882538
 21
35.04879462040915
 31
0.0
  0
LINE
  5
1B2
330
1F
100
AcDbEntity
  8
0
100
AcDbLine
 10
6.003196171447025
 20
36.53571062370459
 30
0.0
 11
5.906366341088357
 21
36.51972395395178
 31
0.0
  0
LINE
  5
1B3
330
1F
100
AcDbEntity
  8
0
100
AcDbLine
 10
-6.003196171547007
 20
33.5618786172137
 30
0.0
 11
-5.906366341088354
 21
33.57786528686651
 31
0.0
  0
LINE
  5
1B4
330
1F
100
AcDbEntity
  8
0
100
AcDbLine
 10
-0.2684638974013376
 20
48.72045892324194
 30
0.0
 11
-0.8041819732465206
 21
48.68443670799636
 31
0.0
  0
LINE
  5
1B5
330
1F
100
AcDbEntity
  8
0
100
AcDbLine
 10
11.19662367729853
 20
35.59321884691488
 30
0.0
 11
10.99702127610434
 21
35.38289969445164
 31
0.0
  0
LINE
  5
1B6
330
1F
100
AcDbEntity
  8
0
100
AcDbLine
 10
6.862273311110422
 20
36.39387641388605
 30
0.0
 11
6.772880531690145
 21
36.43437975532135
 31
0.0
  0
LINE
  5
1B7
330
1F
100
AcDbEntity
  8
0
100
AcDbLine
 10
7.669881710590909
 20
35.34138065636907
 30
0.0
 11
7.647596295626038
 21
35.43695758856753
 31
0.0
  0
LINE
  5
1B8
330
1F
100
AcDbEntity
  8
0
100
AcDbLine
 10
-4.853870583571374
 20
35.71211555447129
 30
0.0
 11
-4.900133771692581
 21
35.79866789182628
 31
0.0
  0
LINE
  5
1B9
330
1F
100
AcDbEntity
  8
0
100
AcDbLine
 10
6.100864260040052
 20
33.55225915010363
 30
0.0
 11
6.198952377048278
 21
33.5490480775749
 31
0.0
  0
LINE
  5
1BA
330
1F
100
AcDbEntity
  8
0
100
AcDbLine
 10
10.67307745241054
 20
37.13671051222342
 30
0.0
 11
10.53192685576137
 21
37.50745708295299
 31
0.0
  0
LINE
  5
1BB
330
1F
100
AcDbEntity
  8
0
100
AcDbLine
 10
-7.205800499315615
 20
29.19328748331532
 30
0.0
 11
-7.427725264130361
 21
29.82090164482202
 31
0.0
  0
LINE
  5
1BC
330
1F
100
AcDbEntity
  8
0
100
AcDbLine
 10
-7.49777098240397
 20
35.79866789182628
 30
0.0
 11
-7.54403417052518
 21
35.71211555447129
 31
0.0
  0
LINE
  5
1BD
330
1F
100
AcDbEntity
  8
0
100
AcDbLine
 10
7.695487847353796
 20
35.14688273741739
 30
0.0
 11
7.68586838024374
 21
35.24455082591041
 31
0.0
  0
LINE
  5
1BE
330
1F
100
AcDbEntity
  8
0
100
AcDbLine
 10
-7.326521529061584
 20
36.03764622718762
 30
0.0
 11
-7.388781306459205
 21
35.96178246896274
 31
0.0
  0
LINE
  5
1BF
330
1F
100
AcDbEntity
  8
0
100
AcDbLine
 10
6.587115345106678
 20
33.60015070183141
 30
0.0
 11
6.681030103812456
 21
33.62863943243594
 31
0.0
  0
LINE
  5
1C0
330
1F
100
AcDbEntity
  8
0
100
AcDbLine
 10
10.53876641097654
 20
34.90004089988791
 30
0.0
 11
10.10115876186924
 21
34.39839392992583
 31
0.0
  0
LINE
  5
1C1
330
1F
100
AcDbEntity
  8
0
100
AcDbLine
 10
-7.675768176178224
 20
30.43865956733312
 30
0.0
 11
-7.949493038676459
 21
31.04547489064349
 31
0.0
  0
LINE
  5
1C2
330
1F
100
AcDbEntity
  8
0
100
AcDbLine
 10
5.285964528494683
 20
33.85896569109821
 30
0.0
 11
5.365737840704923
 21
33.80180094394047
 31
0.0
  0
LINE
  5
1C3
330
1F
100
AcDbEntity
  8
0
100
AcDbLine
 10
-5.071383225034967
 20
34.05994301373069
 30
0.0
 11
-5.009123447737329
 21
34.13580677185555
 31
0.0
  0
LINE
  5
1C4
330
1F
100
AcDbEntity
  8
0
100
AcDbLine
 10
5.535631442886151
 20
33.70371282693223
 30
0.0
 11
5.625024222306429
 21
33.66320948549696
 31
0.0
  0
LINE
  5
1C5
330
1F
100
AcDbEntity
  8
0
100
AcDbLine
 10
5.183207195883897
 20
46.81833965699797
 30
0.0
 11
4.762818519370225
 21
47.15235285646727
 31
0.0
  0
LINE
  5
1C6
330
1F
100
AcDbEntity
  8
0
100
AcDbLine
 10
-4.320968217371262
 20
47.45740984673594
 30
0.0
 11
-4.762818519370225
 21
47.15235285646727
 31
0.0
  0
LINE
  5
1C7
330
1F
100
AcDbEntity
  8
0
100
AcDbLine
 10
-7.01038414827894
 20
28.55692077558892
 30
0.0
 11
-7.205800499315615
 21
29.19328748331532
 31
0.0
  0
LINE
  5
1C8
330
1F
100
AcDbEntity
  8
0
100
AcDbLine
 10
5.625024222306429
 20
33.66320948549696
 30
0.0
 11
5.716874650184121
 21
33.62863943243594
 31
0.0
  0
LINE
  5
1C9
330
1F
100
AcDbEntity
  8
0
100
AcDbLine
 10
5.952127701818393
 20
46.06958868421238
 30
0.0
 11
5.580239943449556
 21
46.45687533766791
 31
0.0
  0
LINE
  5
1CA
330
1F
100
AcDbEntity
  8
0
100
AcDbLine
 10
2.380030467451
 20
48.36266643717215
 30
0.0
 11
1.862349349959859
 21
48.5051364947324
 31
0.0
  0
LINE
  5
1CB
330
1F
100
AcDbEntity
  8
0
100
AcDbLine
 10
4.95195870047962
 20
34.21558008416579
 30
0.0
 11
5.00912344763735
 21
34.13580677185555
 31
0.0
  0
LINE
  5
1CC
330
1F
100
AcDbEntity
  8
0
100
AcDbLine
 10
7.205800499315617
 20
29.19328748331532
 30
0.0
 11
7.010384148178958
 21
28.55692077558892
 31
0.0
  0
LINE
  5
1CD
330
1F
100
AcDbEntity
  8
0
100
AcDbLine
 10
6.772880531690145
 20
36.43437975532135
 30
0.0
 11
6.681030103812456
 21
36.46894980848237
 31
0.0
  0
LINE
  5
1CE
330
1F
100
AcDbEntity
  8
0
100
AcDbLine
 10
-6.100864260140034
 20
36.54533009081465
 30
0.0
 11
-6.198952377048278
 21
36.54854116324341
 31
0.0
  0
LINE
  5
1CF
330
1F
100
AcDbEntity
  8
0
100
AcDbLine
 10
10.98502438847834
 20
35.58526826596306
 30
0.0
 11
10.94573097266562
 21
35.98002456814799
 31
0.0
  0
LINE
  5
1D0
330
1F
100
AcDbEntity
  8
0
100
AcDbLine
 10
6.900774783261626
 20
44.77078026913455
 30
0.0
 11
6.613886088750998
 21
45.22463744247224
 31
0.0
  0
LINE
  5
1D1
330
1F
100
AcDbEntity
  8
0
100
AcDbLine
 10
-0.8041819732465206
 20
48.68443670799636
 30
0.0
 11
-1.336276343397965
 21
48.61255459637322
 31
0.0
  0
LINE
  5
1D2
330
1F
100
AcDbEntity
  8
0
100
AcDbLine
 10
-8.248418492174816
 20
31.64028049769589
 30
0.0
 11
-8.572018860112639
 21
32.22203039136386
 31
0.0
  0
LINE
  5
1D3
330
1F
100
AcDbEntity
  8
0
100
AcDbLine
 10
5.535631442886151
 20
36.39387641388605
 30
0.0
 11
5.449079105631149
 21
36.34761322576485
 31
0.0
  0
LINE
  5
1D4
330
1F
100
AcDbEntity
  8
0
100
AcDbLine
 10
4.712036373752837
 20
34.85303841490788
 30
0.0
 11
4.728023043505647
 21
34.75620858444923
 31
0.0
  0
LINE
  5
1D5
330
1F
100
AcDbEntity
  8
0
100
AcDbLine
 10
-7.619107565121491
 20
35.53087234727332
 30
0.0
 11
-7.647596295726019
 21
35.43695758856753
 31
0.0
  0
LINE
  5
1D6
330
1F
100
AcDbEntity
  8
0
100
AcDbLine
 10
6.862273311110422
 20
33.70371282693223
 30
0.0
 11
6.948825648465407
 21
33.74997601505346
 31
0.0
  0
LINE
  5
1D7
330
1F
100
AcDbEntity
  8
0
100
AcDbLine
 10
7.647596295626038
 20
35.43695758856753
 30
0.0
 11
7.61910756502151
 21
35.53087234727332
 31
0.0
  0
LINE
  5
1D8
330
1F
100
AcDbEntity
  8
0
100
AcDbLine
 10
1.862349349959859
 20
48.5051364947324
 30
0.0
 11
1.336276343397967
 21
48.61255459637322
 31
0.0
  0
LINE
  5
1D9
330
1F
100
AcDbEntity
  8
0
100
AcDbLine
 10
10.88043289844016
 20
36.37132071189968
 30
0.0
 11
10.78941571754373
 21
36.75744554060364
 31
0.0
  0
LINE
  5
1DA
330
1F
100
AcDbEntity
  8
0
100
AcDbLine
 10
-6.297194716492911
 20
45.65822484010206
 30
0.0
 11
-6.613886088850983
 21
45.22463744247224
 31
0.0
  0
LINE
  5
1DB
330
1F
100
AcDbEntity
  8
0
100
AcDbLine
 10
-1.944167251334522
 20
-35.63281437817007
 30
0.0
 11
-1.749704299973303
 21
-35.75373921207315
 31
0.0
  0
LINE
  5
1DC
330
1F
100
AcDbEntity
  8
0
100
AcDbLine
 10
0.2288722728858843
 20
-36.21507856382271
 30
0.0
 11
0.4567644795029671
 21
-36.19263314059923
 31
0.0
  0
LINE
  5
1DD
330
1F
100
AcDbEntity
  8
0
100
AcDbLine
 10
3.432168444932806
 20
-33.40586321691633
 30
0.0
 11
3.46947067425605
 21
-33.17992694584615
 31
0.0
  0
LINE
  5
1DE
330
1F
100
AcDbEntity
  8
0
100
AcDbLine
 10
0.9057135922029171
 20
-36.10333160975793
 30
0.0
 11
1.124848029183068
 21
-36.03685790501404
 31
0.0
  0
LINE
  5
1DF
330
1F
100
AcDbEntity
  8
0
100
AcDbLine
 10
-1.547748846244983
 20
-35.86168665105596
 30
0.0
 11
-1.339165694297664
 21
-35.95619444773831
 31
0.0
  0
LINE
  5
1E0
330
1F
100
AcDbEntity
  8
0
100
AcDbLine
 10
-1.749704299973303
 20
-35.75373921207315
 30
0.0
 11
-1.547748846244983
 21
-35.86168665105596
 31
0.0
  0
LINE
  5
1E1
330
1F
100
AcDbEntity
  8
0
100
AcDbLine
 10
-3.38016914341476
 20
-33.62887605854609
 30
0.0
 11
-3.313695438770847
 21
-33.84801049552623
 31
0.0
  0
LINE
  5
1E2
330
1F
100
AcDbEntity
  8
0
100
AcDbLine
 10
-3.499408599946607
 20
-32.72316246634316
 30
0.0
 11
-3.491916097579507
 21
-32.95203473922906
 31
0.0
  0
LINE
  5
1E3
330
1F
100
AcDbEntity
  8
0
100
AcDbLine
 10
-2.776267501792194
 20
-34.85346744630156
 30
0.0
 11
-2.630994688097709
 21
-35.03048288199293
 31
0.0
  0
LINE
  5
1E4
330
1F
100
AcDbEntity
  8
0
100
AcDbLine
 10
2.776267501792197
 20
-30.5928574862848
 30
0.0
 11
2.630994688097712
 21
-30.41584205059343
 31
0.0
  0
LINE
  5
1E5
330
1F
100
AcDbEntity
  8
0
100
AcDbLine
 10
2.630994688097712
 20
-35.03048288199293
 30
0.0
 11
2.776267501792197
 21
-34.85346744630156
 31
0.0
  0
LINE
  5
1E6
330
1F
100
AcDbEntity
  8
0
100
AcDbLine
 10
0.4567644795029671
 20
-36.19263314059923
 30
0.0
 11
0.6827007505731532
 21
-36.15533091127597
 31
0.0
  0
LINE
  5
1E7
330
1F
100
AcDbEntity
  8
0
100
AcDbLine
 10
2.474455551111862
 20
-30.24870691513133
 30
0.0
 11
2.414764431311109
 21
-30.19280008048638
 31
0.0
  0
LINE
  5
1E8
330
1F
100
AcDbEntity
  8
0
100
AcDbLine
 10
12.05937740501855
 20
-23.88874405415484
 30
0.0
 11
11.81857841274824
 21
-23.53852472272184
 31
0.0
  0
LINE
  5
1E9
330
1F
100
AcDbEntity
  8
0
100
AcDbLine
 10
1.124848029183068
 20
-36.03685790501404
 30
0.0
 11
1.339165694297666
 21
-35.95619444773831
 31
0.0
  0
LINE
  5
1EA
330
1F
100
AcDbEntity
  8
0
100
AcDbLine
 10
-0.4567644796029462
 20
-36.19263314059923
 30
0.0
 11
-0.2288722728858787
 21
-36.21507856382271
 31
0.0
  0
LINE
  5
1EB
330
1F
100
AcDbEntity
  8
0
100
AcDbLine
 10
-2.307320415749735
 20
-35.35415715434091
 30
0.0
 11
-2.130304980058369
 21
-35.49942996813537
 31
0.0
  0
LINE
  5
1EC
330
1F
100
AcDbEntity
  8
0
100
AcDbLine
 10
12.27477536586317
 20
-24.25513381028605
 30
0.0
 11
12.05937740501855
 21
-23.88874405415484
 31
0.0
  0
LINE
  5
1ED
330
1F
100
AcDbEntity
  8
0
100
AcDbLine
 10
-3.138524184812765
 20
-31.17541362009818
 30
0.0
 11
-3.233031981395143
 21
-31.38399677204552
 31
0.0
  0
LINE
  5
1EE
330
1F
100
AcDbEntity
  8
0
100
AcDbLine
 10
-3.030576745829953
 20
-34.47286676631646
 30
0.0
 11
-2.909651911926884
 21
-34.66732971757772
 31
0.0
  0
LINE
  5
1EF
330
1F
100
AcDbEntity
  8
0
100
AcDbLine
 10
-2.909651911926884
 20
-34.66732971757772
 30
0.0
 11
-2.776267501792194
 21
-34.85346744630156
 31
0.0
  0
LINE
  5
1F0
330
1F
100
AcDbEntity
  8
0
100
AcDbLine
 10
-3.469470674256049
 20
-33.17992694584615
 30
0.0
 11
-3.432168444932805
 21
-33.40586321691633
 31
0.0
  0
LINE
  5
1F1
330
1F
100
AcDbEntity
  8
0
100
AcDbLine
 10
3.491916097479528
 20
-32.4942901934573
 30
0.0
 11
3.46947067425605
 21
-32.26639798674023
 31
0.0
  0
LINE
  5
1F2
330
1F
100
AcDbEntity
  8
0
100
AcDbLine
 10
3.233031981395143
 20
-34.06232816054086
 30
0.0
 11
3.313695438670865
 21
-33.84801049552623
 31
0.0
  0
LINE
  5
1F3
330
1F
100
AcDbEntity
  8
0
100
AcDbLine
 10
2.909651911826902
 20
-30.77899521500864
 30
0.0
 11
2.776267501792197
 21
-30.5928574862848
 31
0.0
  0
LINE
  5
1F4
330
1F
100
AcDbEntity
  8
0
100
AcDbLine
 10
1.339165694297666
 20
-35.95619444773831
 30
0.0
 11
1.547748846145002
 21
-35.86168665105596
 31
0.0
  0
LINE
  5
1F5
330
1F
100
AcDbEntity
  8
0
100
AcDbLine
 10
-1.124848029283049
 20
-36.03685790501404
 30
0.0
 11
-0.905713592302899
 21
-36.10333160975793
 31
0.0
  0
LINE
  5
1F6
330
1F
100
AcDbEntity
  8
0
100
AcDbLine
 10
3.46947067425605
 20
-33.17992694584615
 30
0.0
 11
3.491916097479528
 21
-32.95203473922906
 31
0.0
  0
LINE
  5
1F7
330
1F
100
AcDbEntity
  8
0
100
AcDbLine
 10
3.380169143414764
 20
-31.81744887404028
 30
0.0
 11
3.313695438670865
 21
-31.59831443706013
 31
0.0
  0
LINE
  5
1F8
330
1F
100
AcDbEntity
  8
0
100
AcDbLine
 10
-2.630994688097709
 20
-35.03048288199293
 30
0.0
 11
-2.530362385756806
 21
-35.13792689765429
 31
0.0
  0
LINE
  5
1F9
330
1F
100
AcDbEntity
  8
0
100
AcDbLine
 10
2.307320415649756
 20
-35.35415715434091
 30
0.0
 11
2.474455551111862
 21
-35.19761801745504
 31
0.0
  0
LINE
  5
1FA
330
1F
100
AcDbEntity
  8
0
100
AcDbLine
 10
11.81857841274824
 20
-23.53852472272184
 30
0.0
 11
11.5535870579872
 21
-23.20623371050291
 31
0.0
  0
LINE
  5
1FB
330
1F
100
AcDbEntity
  8
0
100
AcDbLine
 10
-0.905713592302899
 20
-36.10333160975793
 30
0.0
 11
-0.6827007506731351
 21
-36.15533091127597
 31
0.0
  0
LINE
  5
1FC
330
1F
100
AcDbEntity
  8
0
100
AcDbLine
 10
12.46369112439997
 20
-24.63585493011679
 30
0.0
 11
12.27477536586317
 21
-24.25513381028605
 31
0.0
  0
LINE
  5
1FD
330
1F
100
AcDbEntity
  8
0
100
AcDbLine
 10
3.138524184712783
 20
-34.27091131248817
 30
0.0
 11
3.233031981395143
 21
-34.06232816054086
 31
0.0
  0
LINE
  5
1FE
330
1F
100
AcDbEntity
  8
0
100
AcDbLine
 10
3.313695438670865
 20
-33.84801049552623
 30
0.0
 11
3.380169143414764
 21
-33.62887605854609
 31
0.0
  0
LINE
  5
1FF
330
1F
100
AcDbEntity
  8
0
100
AcDbLine
 10
3.138524184712783
 20
-31.17541362009818
 30
0.0
 11
3.030576745729971
 21
-30.97345816636986
 31
0.0
  0
LINE
  5
200
330
1F
100
AcDbEntity
  8
0
100
AcDbLine
 10
3.432168444932806
 20
-32.04046171567003
 30
0.0
 11
3.380169143414764
 21
-31.81744887404028
 31
0.0
  0
LINE
  5
201
330
1F
100
AcDbEntity
  8
0
100
AcDbLine
 10
0.0
 20
-36.22257106628977
 30
0.0
 11
0.2288722728858843
 21
-36.21507856382271
 31
0.0
  0
LINE
  5
202
330
1F
100
AcDbEntity
  8
0
100
AcDbLine
 10
-1.944167251334522
 20
-29.81351055441629
 30
0.0
 11
-2.130304980058369
 21
-29.94689496445099
 31
0.0
  0
LINE
  5
203
330
1F
100
AcDbEntity
  8
0
100
AcDbLine
 10
-3.233031981395143
 20
-34.06232816054086
 30
0.0
 11
-3.138524184812765
 21
-34.27091131248817
 31
0.0
  0
LINE
  5
204
330
1F
100
AcDbEntity
  8
0
100
AcDbLine
 10
3.233031981395143
 20
-31.38399677204552
 30
0.0
 11
3.138524184712783
 21
-31.17541362009818
 31
0.0
  0
LINE
  5
205
330
1F
100
AcDbEntity
  8
0
100
AcDbLine
 10
-2.307320415749735
 20
-30.09216777824547
 30
0.0
 11
-2.474455551211844
 21
-30.24870691513133
 31
0.0
  0
LINE
  5
206
330
1F
100
AcDbEntity
  8
0
100
AcDbLine
 10
2.909651911826902
 20
-34.66732971757772
 30
0.0
 11
3.030576745729971
 21
-34.47286676631646
 31
0.0
  0
LINE
  5
207
330
1F
100
AcDbEntity
  8
0
100
AcDbLine
 10
3.313695438670865
 20
-31.59831443706013
 30
0.0
 11
3.233031981395143
 21
-31.38399677204552
 31
0.0
  0
LINE
  5
208
330
1F
100
AcDbEntity
  8
0
100
AcDbLine
 10
-0.2288722728858787
 20
-36.21507856382271
 30
0.0
 11
0.0
 21
-36.22257106628977
 31
0.0
  0
LINE
  5
209
330
1F
100
AcDbEntity
  8
0
100
AcDbLine
 10
5.192872493048675
 20
-48.39364258500311
 30
0.0
 11
5.564485901882583
 21
-48.25174129372133
 31
0.0
  0
LINE
  5
20A
330
1F
100
AcDbEntity
  8
0
100
AcDbLine
 10
3.030576745729971
 20
-30.97345816636986
 30
0.0
 11
2.909651911826902
 21
-30.77899521500864
 31
0.0
  0
LINE
  5
20B
330
1F
100
AcDbEntity
  8
0
100
AcDbLine
 10
-2.474455551211844
 20
-35.19761801745504
 30
0.0
 11
-2.307320415749735
 21
-35.35415715434091
 31
0.0
  0
LINE
  5
20C
330
1F
100
AcDbEntity
  8
0
100
AcDbLine
 10
12.62517643458255
 20
-25.02899641790535
 30
0.0
 11
12.46369112439997
 21
-24.63585493011679
 31
0.0
  0
LINE
  5
20D
330
1F
100
AcDbEntity
  8
0
100
AcDbLine
 10
3.380169143414764
 20
-33.62887605854609
 30
0.0
 11
3.432168444932806
 21
-33.40586321691633
 31
0.0
  0
LINE
  5
20E
330
1F
100
AcDbEntity
  8
0
100
AcDbLine
 10
-3.138524184812765
 20
-34.27091131248817
 30
0.0
 11
-3.030576745829953
 21
-34.47286676631646
 31
0.0
  0
LINE
  5
20F
330
1F
100
AcDbEntity
  8
0
100
AcDbLine
 10
-3.313695438770847
 20
-33.84801049552623
 30
0.0
 11
-3.233031981395143
 21
-34.06232816054086
 31
0.0
  0
LINE
  5
210
330
1F
100
AcDbEntity
  8
0
100
AcDbLine
 10
-1.339165694297664
 20
-35.95619444773831
 30
0.0
 11
-1.124848029283049
 21
-36.03685790501404
 31
0.0
  0
LINE
  5
211
330
1F
100
AcDbEntity
  8
0
100
AcDbLine
 10
3.499408599946608
 20
-32.72316246634316
 30
0.0
 11
3.491916097479528
 21
-32.4942901934573
 31
0.0
  0
LINE
  5
212
330
1F
100
AcDbEntity
  8
0
100
AcDbLine
 10
-3.491916097579507
 20
-32.95203473922906
 30
0.0
 11
-3.469470674256049
 21
-33.17992694584615
 31
0.0
  0
LINE
  5
213
330
1F
100
AcDbEntity
  8
0
100
AcDbLine
 10
-0.6827007506731351
 20
-36.15533091127597
 30
0.0
 11
-0.4567644796029462
 21
-36.19263314059923
 31
0.0
  0
LINE
  5
214
330
1F
100
AcDbEntity
  8
0
100
AcDbLine
 10
-3.432168444932805
 20
-33.40586321691633
 30
0.0
 11
-3.38016914341476
 21
-33.62887605854609
 31
0.0
  0
LINE
  5
215
330
1F
100
AcDbEntity
  8
0
100
AcDbLine
 10
1.749704299973307
 20
-29.69258572051323
 30
0.0
 11
1.547748846145002
 21
-29.58463828153041
 31
0.0
  0
LINE
  5
216
330
1F
100
AcDbEntity
  8
0
100
AcDbLine
 10
3.46947067425605
 20
-32.26639798674023
 30
0.0
 11
3.432168444932806
 21
-32.04046171567003
 31
0.0
  0
LINE
  5
217
330
1F
100
AcDbEntity
  8
0
100
AcDbLine
 10
2.13030497995839
 20
-35.49942996813537
 30
0.0
 11
2.307320415649756
 21
-35.35415715434091
 31
0.0
  0
LINE
  5
218
330
1F
100
AcDbEntity
  8
0
100
AcDbLine
 10
10.99702127610434
 20
35.38289969445164
 30
0.0
 11
10.98502438847834
 21
35.58526826596306
 31
0.0
  0
LINE
  5
219
330
1F
100
AcDbEntity
  8
0
100
AcDbLine
 10
1.944167251234543
 20
-35.63281437817007
 30
0.0
 11
2.13030497995839
 21
-35.49942996813537
 31
0.0
  0
LINE
  5
21A
330
1F
100
AcDbEntity
  8
0
100
AcDbLine
 10
2.776267501792197
 20
-34.85346744630156
 30
0.0
 11
2.909651911826902
 21
-34.66732971757772
 31
0.0
  0
LINE
  5
21B
330
1F
100
AcDbEntity
  8
0
100
AcDbLine
 10
-3.432168444932805
 20
-32.04046171567003
 30
0.0
 11
-3.469470674256049
 21
-32.26639798674023
 31
0.0
  0
LINE
  5
21C
330
1F
100
AcDbEntity
  8
0
100
AcDbLine
 10
-12.98274768274162
 20
-26.68557392760623
 30
0.0
 11
-12.99780337123026
 21
-27.1103221602549
 31
0.0
  0
LINE
  5
21D
330
1F
100
AcDbEntity
  8
0
100
AcDbLine
 10
-3.030576745829953
 20
-30.97345816636986
 30
0.0
 11
-3.138524184812765
 21
-31.17541362009818
 31
0.0
  0
LINE
  5
21E
330
1F
100
AcDbEntity
  8
0
100
AcDbLine
 10
-2.474455551211844
 20
-30.24870691513133
 30
0.0
 11
-2.630994688097709
 21
-30.41584205059343
 31
0.0
  0
LINE
  5
21F
330
1F
100
AcDbEntity
  8
0
100
AcDbLine
 10
-5.925878243676816
 20
-48.08552433508736
 30
0.0
 11
-5.564485901882581
 21
-48.25174129372133
 31
0.0
  0
LINE
  5
220
330
1F
100
AcDbEntity
  8
0
100
AcDbLine
 10
2.307320415649756
 20
-30.09216777824547
 30
0.0
 11
2.13030497995839
 21
-29.94689496445099
 31
0.0
  0
LINE
  5
221
330
1F
100
AcDbEntity
  8
0
100
AcDbLine
 10
-4.425555919249645
 20
-48.60211215544571
 30
0.0
 11
-4.033226517018623
 21
-48.66776382871293
 31
0.0
  0
LINE
  5
222
330
1F
100
AcDbEntity
  8
0
100
AcDbLine
 10
-12.27477536596315
 20
-24.25513381028605
 30
0.0
 11
-12.46369112439997
 21
-24.63585493011679
 31
0.0
  0
LINE
  5
223
330
1F
100
AcDbEntity
  8
0
100
AcDbLine
 10
-5.192872493148654
 20
-48.39364258500311
 30
0.0
 11
-4.812671939442232
 21
-48.51060429267452
 31
0.0
  0
LINE
  5
224
330
1F
100
AcDbEntity
  8
0
100
AcDbLine
 10
-6.933105441380403
 20
-47.44880256036728
 30
0.0
 11
-6.611695725922316
 21
-47.68317042689782
 31
0.0
  0
LINE
  5
225
330
1F
100
AcDbEntity
  8
0
100
AcDbLine
 10
-11.99797234267409
 20
-39.50247230568032
 30
0.0
 11
-11.98291665418544
 21
-39.92722053822903
 31
0.0
  0
LINE
  5
226
330
1F
100
AcDbEntity
  8
0
100
AcDbLine
 10
-3.491916097579507
 20
-32.4942901934573
 30
0.0
 11
-3.499408599946607
 21
-32.72316246634316
 31
0.0
  0
LINE
  5
227
330
1F
100
AcDbEntity
  8
0
100
AcDbLine
 10
-11.5535870579872
 20
-23.20623371050291
 30
0.0
 11
-11.81857841274824
 21
-23.53852472272184
 31
0.0
  0
LINE
  5
228
330
1F
100
AcDbEntity
  8
0
100
AcDbLine
 10
2.13030497995839
 20
-29.94689496445099
 30
0.0
 11
1.944167251234543
 21
-29.81351055441629
 31
0.0
  0
LINE
  5
229
330
1F
100
AcDbEntity
  8
0
100
AcDbLine
 10
-3.469470674256049
 20
-32.26639798674023
 30
0.0
 11
-3.491916097579507
 21
-32.4942901934573
 31
0.0
  0
LINE
  5
22A
330
1F
100
AcDbEntity
  8
0
100
AcDbLine
 10
-11.62534540612636
 20
-41.58379804802987
 30
0.0
 11
-11.4638600958438
 21
-41.97693953581842
 31
0.0
  0
LINE
  5
22B
330
1F
100
AcDbEntity
  8
0
100
AcDbLine
 10
-7.794612789838511
 20
-46.6255612016569
 30
0.0
 11
-7.525867110358345
 21
-46.9188328536477
 31
0.0
  0
LINE
  5
22C
330
1F
100
AcDbEntity
  8
0
100
AcDbLine
 10
-11.27494433740697
 20
-42.35766065564918
 30
0.0
 11
-11.05954637656236
 21
-42.72405041178039
 31
0.0
  0
LINE
  5
22D
330
1F
100
AcDbEntity
  8
0
100
AcDbLine
 10
-3.313695438770847
 20
-31.59831443706013
 30
0.0
 11
-3.38016914341476
 21
-31.81744887404028
 31
0.0
  0
LINE
  5
22E
330
1F
100
AcDbEntity
  8
0
100
AcDbLine
 10
-1.749704299973303
 20
-29.69258572051323
 30
0.0
 11
-1.944167251334522
 21
-29.81351055441629
 31
0.0
  0
LINE
  5
22F
330
1F
100
AcDbEntity
  8
0
100
AcDbLine
 10
-10.55375602943102
 20
-43.40656075543231
 30
0.0
 11
-7.794612789838511
 21
-46.6255612016569
 31
0.0
  0
LINE
  5
230
330
1F
100
AcDbEntity
  8
0
100
AcDbLine
 10
-6.611695725922316
 20
-47.68317042689782
 30
0.0
 11
-6.2754605366693
 21
-47.89572253719119
 31
0.0
  0
LINE
  5
231
330
1F
100
AcDbEntity
  8
0
100
AcDbLine
 10
-3.38016914341476
 20
-31.81744887404028
 30
0.0
 11
-3.432168444932805
 21
-32.04046171567003
 31
0.0
  0
LINE
  5
232
330
1F
100
AcDbEntity
  8
0
100
AcDbLine
 10
1.547748846145002
 20
-29.58463828153041
 30
0.0
 11
1.339165694297666
 21
-29.49013048494802
 31
0.0
  0
LINE
  5
233
330
1F
100
AcDbEntity
  8
0
100
AcDbLine
 10
-0.905713592302899
 20
-29.34299332292841
 30
0.0
 11
-1.124848029283049
 21
-29.40946702757233
 31
0.0
  0
LINE
  5
234
330
1F
100
AcDbEntity
  8
0
100
AcDbLine
 10
-2.909651911926884
 20
-30.77899521500864
 30
0.0
 11
-3.030576745829953
 21
-30.97345816636986
 31
0.0
  0
LINE
  5
235
330
1F
100
AcDbEntity
  8
0
100
AcDbLine
 10
-1.124848029283049
 20
-29.40946702757233
 30
0.0
 11
-1.339165694297664
 21
-29.49013048494802
 31
0.0
  0
LINE
  5
236
330
1F
100
AcDbEntity
  8
0
100
AcDbLine
 10
0.9057135922029171
 20
-29.34299332292841
 30
0.0
 11
0.6827007505731532
 21
-29.29099402141037
 31
0.0
  0
LINE
  5
237
330
1F
100
AcDbEntity
  8
0
100
AcDbLine
 10
0.2288722728858843
 20
-29.23124636876366
 30
0.0
 11
0.0
 21
-29.22375386639656
 31
0.0
  0
LINE
  5
238
330
1F
100
AcDbEntity
  8
0
100
AcDbLine
 10
0.4567644795029671
 20
-29.25369179208713
 30
0.0
 11
0.2288722728858843
 21
-29.23124636876366
 31
0.0
  0
LINE
  5
239
330
1F
100
AcDbEntity
  8
0
100
AcDbLine
 10
-6.2754605366693
 20
-47.89572253719119
 30
0.0
 11
-5.925878243676816
 21
-48.08552433508736
 31
0.0
  0
LINE
  5
23A
330
1F
100
AcDbEntity
  8
0
100
AcDbLine
 10
-11.05954637656236
 20
-42.72405041178039
 30
0.0
 11
-10.81874738419207
 21
-43.07426974321337
 31
0.0
  0
LINE
  5
23B
330
1F
100
AcDbEntity
  8
0
100
AcDbLine
 10
0.0
 20
-29.22375386639656
 30
0.0
 11
-0.2288722728858787
 21
-29.23124636876366
 31
0.0
  0
LINE
  5
23C
330
1F
100
AcDbEntity
  8
0
100
AcDbLine
 10
-11.81857841274824
 20
-23.53852472272184
 30
0.0
 11
-12.05937740511853
 21
-23.88874405415484
 31
0.0
  0
LINE
  5
23D
330
1F
100
AcDbEntity
  8
0
100
AcDbLine
 10
-1.547748846244983
 20
-29.58463828153041
 30
0.0
 11
-1.749704299973303
 21
-29.69258572051323
 31
0.0
  0
LINE
  5
23E
330
1F
100
AcDbEntity
  8
0
100
AcDbLine
 10
0.6827007505731532
 20
-29.29099402141037
 30
0.0
 11
0.4567644795029671
 21
-29.25369179208713
 31
0.0
  0
LINE
  5
23F
330
1F
100
AcDbEntity
  8
0
100
AcDbLine
 10
-2.130304980058369
 20
-29.94689496445099
 30
0.0
 11
-2.307320415749735
 21
-30.09216777824547
 31
0.0
  0
LINE
  5
240
330
1F
100
AcDbEntity
  8
0
100
AcDbLine
 10
-0.4567644796029462
 20
-29.25369179208713
 30
0.0
 11
-0.6827007506731351
 21
-29.29099402141037
 31
0.0
  0
LINE
  5
241
330
1F
100
AcDbEntity
  8
0
100
AcDbLine
 10
-0.6827007506731351
 20
-29.29099402141037
 30
0.0
 11
-0.905713592302899
 21
-29.34299332292841
 31
0.0
  0
LINE
  5
242
330
1F
100
AcDbEntity
  8
0
100
AcDbLine
 10
-2.130304980058369
 20
-35.49942996813537
 30
0.0
 11
-1.944167251334522
 21
-35.63281437817007
 31
0.0
  0
LINE
  5
243
330
1F
100
AcDbEntity
  8
0
100
AcDbLine
 10
-11.75858970693953
 20
-41.18020953088925
 30
0.0
 11
-11.62534540612636
 21
-41.58379804802987
 31
0.0
  0
LINE
  5
244
330
1F
100
AcDbEntity
  8
0
100
AcDbLine
 10
1.944167251234543
 20
-29.81351055441629
 30
0.0
 11
1.749704299973307
 21
-29.69258572051323
 31
0.0
  0
LINE
  5
245
330
1F
100
AcDbEntity
  8
0
100
AcDbLine
 10
-2.776267501792194
 20
-30.5928574862848
 30
0.0
 11
-2.909651911926884
 21
-30.77899521500864
 31
0.0
  0
LINE
  5
246
330
1F
100
AcDbEntity
  8
0
100
AcDbLine
 10
-1.339165694297664
 20
-29.49013048494802
 30
0.0
 11
-1.547748846244983
 21
-29.58463828153041
 31
0.0
  0
LINE
  5
247
330
1F
100
AcDbEntity
  8
0
100
AcDbLine
 10
-3.233031981395143
 20
-31.38399677204552
 30
0.0
 11
-3.313695438770847
 21
-31.59831443706013
 31
0.0
  0
LINE
  5
248
330
1F
100
AcDbEntity
  8
0
100
AcDbLine
 10
2.630994688097712
 20
-30.41584205059343
 30
0.0
 11
2.474455551111862
 21
-30.24870691513133
 31
0.0
  0
LINE
  5
249
330
1F
100
AcDbEntity
  8
0
100
AcDbLine
 10
1.339165694297666
 20
-29.49013048494802
 30
0.0
 11
1.124848029183068
 21
-29.40946702757233
 31
0.0
  0
LINE
  5
24A
330
1F
100
AcDbEntity
  8
0
100
AcDbLine
 10
0.6827007505731532
 20
-36.15533091127597
 30
0.0
 11
0.9057135922029171
 21
-36.10333160975793
 31
0.0
  0
LINE
  5
24B
330
1F
100
AcDbEntity
  8
0
100
AcDbLine
 10
-0.2288722728858787
 20
-29.23124636876366
 30
0.0
 11
-0.4567644796029462
 21
-29.25369179208713
 31
0.0
  0
LINE
  5
24C
330
1F
100
AcDbEntity
  8
0
100
AcDbLine
 10
3.239842931744536
 20
-48.72045892324194
 30
0.0
 11
0.0
 21
-48.72045892324194
 31
0.0
  0
LINE
  5
24D
330
1F
100
AcDbEntity
  8
0
100
AcDbLine
 10
-11.98291665418544
 20
-39.92722053822903
 30
0.0
 11
-11.9378251591481
 21
-40.34983678498332
 31
0.0
  0
LINE
  5
24E
330
1F
100
AcDbEntity
  8
0
100
AcDbLine
 10
-7.238276498271788
 20
-47.19364941404901
 30
0.0
 11
-6.933105441380403
 21
-47.44880256036728
 31
0.0
  0
LINE
  5
24F
330
1F
100
AcDbEntity
  8
0
100
AcDbLine
 10
-12.93765618770427
 20
-26.2629576809519
 30
0.0
 11
-12.98274768274162
 21
-26.68557392760623
 31
0.0
  0
LINE
  5
250
330
1F
100
AcDbEntity
  8
0
100
AcDbLine
 10
-11.5535870579872
 20
-23.20623371050291
 30
0.0
 11
-9.44545685459157
 21
-20.74674847310804
 31
0.0
  0
LINE
  5
251
330
1F
100
AcDbEntity
  8
0
100
AcDbLine
 10
-11.9378251591481
 20
-40.34983678498332
 30
0.0
 11
-11.8629241905118
 21
-40.76819976104037
 31
0.0
  0
LINE
  5
252
330
1F
100
AcDbEntity
  8
0
100
AcDbLine
 10
2.474455551111862
 20
-35.19761801745504
 30
0.0
 11
2.630994688097712
 21
-35.03048288199293
 31
0.0
  0
LINE
  5
253
330
1F
100
AcDbEntity
  8
0
100
AcDbLine
 10
-2.630994688097709
 20
-30.41584205059343
 30
0.0
 11
-2.776267501792194
 21
-30.5928574862848
 31
0.0
  0
LINE
  5
254
330
1F
100
AcDbEntity
  8
0
100
AcDbLine
 10
-12.05937740511853
 20
-23.88874405415484
 30
0.0
 11
-12.27477536596315
 21
-24.25513381028605
 31
0.0
  0
LINE
  5
255
330
1F
100
AcDbEntity
  8
0
100
AcDbLine
 10
-11.4638600958438
 20
-41.97693953581842
 30
0.0
 11
-11.27494433740697
 21
-42.35766065564918
 31
0.0
  0
LINE
  5
256
330
1F
100
AcDbEntity
  8
0
100
AcDbLine
 10
-12.99780337123026
 20
-27.1103221602549
 30
0.0
 11
-11.99797234267409
 21
-39.50247230568032
 31
0.0
  0
LINE
  5
257
330
1F
100
AcDbEntity
  8
0
100
AcDbLine
 10
1.749704299973307
 20
-35.75373921207315
 30
0.0
 11
1.944167251234543
 21
-35.63281437817007
 31
0.0
  0
LINE
  5
258
330
1F
100
AcDbEntity
  8
0
100
AcDbLine
 10
1.547748846145002
 20
-35.86168665105596
 30
0.0
 11
1.749704299973307
 21
-35.75373921207315
 31
0.0
  0
LINE
  5
259
330
1F
100
AcDbEntity
  8
0
100
AcDbLine
 10
1.124848029183068
 20
-29.40946702757233
 30
0.0
 11
0.9057135922029171
 21
-29.34299332292841
 31
0.0
  0
LINE
  5
25A
330
1F
100
AcDbEntity
  8
0
100
AcDbLine
 10
3.030576745729971
 20
-34.47286676631646
 30
0.0
 11
3.138524184712783
 21
-34.27091131248817
 31
0.0
  0
LINE
  5
25B
330
1F
100
AcDbEntity
  8
0
100
AcDbLine
 10
6.933105441380407
 20
-47.44880256036728
 30
0.0
 11
7.238276498271791
 21
-47.19364941404901
 31
0.0
  0
LINE
  5
25C
330
1F
100
AcDbEntity
  8
0
100
AcDbLine
 10
3.239842931744536
 20
-48.72045892324194
 30
0.0
 11
3.637408739523022
 21
-48.70727065295964
 31
0.0
  0
LINE
  5
25D
330
1F
100
AcDbEntity
  8
0
100
AcDbLine
 10
7.073616571099484
 20
-16.92792055652593
 30
0.0
 11
7.164509467200042
 21
-17.33601040244197
 31
0.0
  0
LINE
  5
25E
330
1F
100
AcDbEntity
  8
0
100
AcDbLine
 10
7.010384148178958
 20
-16.51464038327521
 30
0.0
 11
7.073616571099484
 21
-16.92792055652593
 31
0.0
  0
LINE
  5
25F
330
1F
100
AcDbEntity
  8
0
100
AcDbLine
 10
4.812671939442235
 20
-48.51060429267452
 30
0.0
 11
5.192872493048675
 21
-48.39364258500311
 31
0.0
  0
LINE
  5
260
330
1F
100
AcDbEntity
  8
0
100
AcDbLine
 10
8.259181506625382
 20
-19.57469040182207
 30
0.0
 11
8.525451822841939
 21
-19.89702401724107
 31
0.0
  0
LINE
  5
261
330
1F
100
AcDbEntity
  8
0
100
AcDbLine
 10
11.9378251591481
 20
-40.34983678498332
 30
0.0
 11
11.98291665408546
 21
-39.92722053822903
 31
0.0
  0
LINE
  5
262
330
1F
100
AcDbEntity
  8
0
100
AcDbLine
 10
11.5535870579872
 20
-23.20623371050291
 30
0.0
 11
9.445456854491592
 21
-20.74674847310804
 31
0.0
  0
LINE
  5
263
330
1F
100
AcDbEntity
  8
0
100
AcDbLine
 10
-7.598417580028971
 20
-18.51081449625013
 30
0.0
 11
-7.794611865894661
 21
-18.88001179190716
 31
0.0
  0
LINE
  5
264
330
1F
100
AcDbEntity
  8
0
100
AcDbLine
 10
-7.525867110358345
 20
-46.9188328536477
 30
0.0
 11
-7.238276498271788
 21
-47.19364941404901
 31
0.0
  0
LINE
  5
265
330
1F
100
AcDbEntity
  8
0
100
AcDbLine
 10
11.62534540602638
 20
-41.58379804802987
 30
0.0
 11
11.75858970693953
 21
-41.18020953088925
 31
0.0
  0
LINE
  5
266
330
1F
100
AcDbEntity
  8
0
100
AcDbLine
 10
7.794611865894663
 20
-18.88001179190716
 30
0.0
 11
8.015199680853934
 21
-19.23517352517423
 31
0.0
  0
LINE
  5
267
330
1F
100
AcDbEntity
  8
0
100
AcDbLine
 10
-4.812671939442232
 20
-48.51060429267452
 30
0.0
 11
-4.425555919249645
 21
-48.60211215544571
 31
0.0
  0
LINE
  5
268
330
1F
100
AcDbEntity
  8
0
100
AcDbLine
 10
-11.8629241905118
 20
-40.76819976104037
 30
0.0
 11
-11.75858970693953
 21
-41.18020953088925
 31
0.0
  0
LINE
  5
269
330
1F
100
AcDbEntity
  8
0
100
AcDbLine
 10
-8.015199680953918
 20
-19.23517352517423
 30
0.0
 11
-8.25918150672536
 21
-19.57469040182207
 31
0.0
  0
LINE
  5
26A
330
1F
100
AcDbEntity
  8
0
100
AcDbLine
 10
7.164509467200042
 20
-17.33601040244197
 30
0.0
 11
7.282650986383302
 21
-17.73706080122457
 31
0.0
  0
LINE
  5
26B
330
1F
100
AcDbEntity
  8
0
100
AcDbLine
 10
8.812804116504312
 20
-20.20071382646331
 30
0.0
 11
9.119936348657076
 21
-20.48438376294405
 31
0.0
  0
LINE
  5
26C
330
1F
100
AcDbEntity
  8
0
100
AcDbLine
 10
-7.164509467300024
 20
-17.33601040244197
 30
0.0
 11
-7.282650986483283
 21
-17.73706080122457
 31
0.0
  0
LINE
  5
26D
330
1F
100
AcDbEntity
  8
0
100
AcDbLine
 10
11.75858970693953
 20
-41.18020953088925
 30
0.0
 11
11.8629241905118
 21
-40.76819976104037
 31
0.0
  0
LINE
  5
26E
330
1F
100
AcDbEntity
  8
0
100
AcDbLine
 10
12.99780337123026
 20
-27.1103221602549
 30
0.0
 11
12.98274768264163
 21
-26.68557392760623
 31
0.0
  0
LINE
  5
26F
330
1F
100
AcDbEntity
  8
0
100
AcDbLine
 10
3.637408739523022
 20
-48.70727065295964
 30
0.0
 11
4.033226516918641
 21
-48.66776382871293
 31
0.0
  0
LINE
  5
270
330
1F
100
AcDbEntity
  8
0
100
AcDbLine
 10
7.282650986383302
 20
-17.73706080122457
 30
0.0
 11
7.427505810717985
 21
-18.12925452978445
 31
0.0
  0
LINE
  5
271
330
1F
100
AcDbEntity
  8
0
100
AcDbLine
 10
7.525867110358348
 20
-46.9188328536477
 30
0.0
 11
7.794612789738533
 21
-46.6255612016569
 31
0.0
  0
LINE
  5
272
330
1F
100
AcDbEntity
  8
0
100
AcDbLine
 10
12.99780337123026
 20
-27.1103221602549
 30
0.0
 11
11.99797234267409
 21
-39.50247230568032
 31
0.0
  0
LINE
  5
273
330
1F
100
AcDbEntity
  8
0
100
AcDbLine
 10
12.93765618770428
 20
-26.2629576809519
 30
0.0
 11
12.86275521906797
 21
-25.84459470489486
 31
0.0
  0
LINE
  5
274
330
1F
100
AcDbEntity
  8
0
100
AcDbLine
 10
4.033226516918641
 20
-48.66776382871293
 30
0.0
 11
4.425555919149663
 21
-48.60211215544571
 31
0.0
  0
LINE
  5
275
330
1F
100
AcDbEntity
  8
0
100
AcDbLine
 10
11.4638600958438
 20
-41.97693953581842
 30
0.0
 11
11.62534540602638
 21
-41.58379804802987
 31
0.0
  0
LINE
  5
276
330
1F
100
AcDbEntity
  8
0
100
AcDbLine
 10
5.564485901882583
 20
-48.25174129372133
 30
0.0
 11
5.925878243676818
 21
-48.08552433508736
 31
0.0
  0
LINE
  5
277
330
1F
100
AcDbEntity
  8
0
100
AcDbLine
 10
-12.86275521906797
 20
-25.84459470489486
 30
0.0
 11
-12.93765618770427
 21
-26.2629576809519
 31
0.0
  0
LINE
  5
278
330
1F
100
AcDbEntity
  8
0
100
AcDbLine
 10
-7.282650986483283
 20
-17.73706080122457
 30
0.0
 11
-7.427505810817968
 21
-18.12925452978445
 31
0.0
  0
LINE
  5
279
330
1F
100
AcDbEntity
  8
0
100
AcDbLine
 10
-8.014192354692055
 20
-26.75473766753417
 30
0.0
 11
-7.775993211947177
 21
-27.0654515815827
 31
0.0
  0
LINE
  5
27A
330
1F
100
AcDbEntity
  8
0
100
AcDbLine
 10
11.8629241905118
 20
-40.76819976104037
 30
0.0
 11
11.9378251591481
 21
-40.34983678498332
 31
0.0
  0
LINE
  5
27B
330
1F
100
AcDbEntity
  8
0
100
AcDbLine
 10
7.114312373308913
 20
-24.56793180102561
 30
0.0
 11
6.726149405150528
 21
-24.51682917686909
 31
0.0
  0
LINE
  5
27C
330
1F
100
AcDbEntity
  8
0
100
AcDbLine
 10
4.425555919149663
 20
-48.60211215544571
 30
0.0
 11
4.812671939442235
 21
-48.51060429267452
 31
0.0
  0
LINE
  5
27D
330
1F
100
AcDbEntity
  8
0
100
AcDbLine
 10
-10.81874738419207
 20
-43.07426974321337
 30
0.0
 11
-10.55375602943102
 21
-43.40656075543231
 31
0.0
  0
LINE
  5
27E
330
1F
100
AcDbEntity
  8
0
100
AcDbLine
 10
-3.637408739623004
 20
-48.70727065295964
 30
0.0
 11
-3.239842931744533
 21
-48.72045892324194
 31
0.0
  0
LINE
  5
27F
330
1F
100
AcDbEntity
  8
0
100
AcDbLine
 10
0.0
 20
-48.72045892324194
 30
0.0
 11
-3.239842931744533
 21
-48.72045892324194
 31
0.0
  0
LINE
  5
280
330
1F
100
AcDbEntity
  8
0
100
AcDbLine
 10
7.427505810717985
 20
-18.12925452978445
 30
0.0
 11
7.598417580028975
 21
-18.51081449625013
 31
0.0
  0
LINE
  5
281
330
1F
100
AcDbEntity
  8
0
100
AcDbLine
 10
-8.25918150672536
 20
-19.57469040182207
 30
0.0
 11
-8.525451822941921
 21
-19.89702401724107
 31
0.0
  0
LINE
  5
282
330
1F
100
AcDbEntity
  8
0
100
AcDbLine
 10
-9.119936348657072
 20
-20.48438376294405
 30
0.0
 11
-9.44545685459157
 21
-20.74674847310804
 31
0.0
  0
LINE
  5
283
330
1F
100
AcDbEntity
  8
0
100
AcDbLine
 10
11.05954637646238
 20
-42.72405041178039
 30
0.0
 11
11.27494433730699
 21
-42.35766065564918
 31
0.0
  0
LINE
  5
284
330
1F
100
AcDbEntity
  8
0
100
AcDbLine
 10
-7.01038414827894
 20
-16.51464038327521
 30
0.0
 11
-7.073616571099481
 21
-16.92792055652593
 31
0.0
  0
LINE
  5
285
330
1F
100
AcDbEntity
  8
0
100
AcDbLine
 10
10.55375602943102
 20
-43.40656075543231
 30
0.0
 11
10.81874738419207
 21
-43.07426974321337
 31
0.0
  0
LINE
  5
286
330
1F
100
AcDbEntity
  8
0
100
AcDbLine
 10
11.98291665408546
 20
-39.92722053822903
 30
0.0
 11
11.99797234267409
 21
-39.50247230568032
 31
0.0
  0
LINE
  5
287
330
1F
100
AcDbEntity
  8
0
100
AcDbLine
 10
5.925878243676818
 20
-48.08552433508736
 30
0.0
 11
6.275460536669303
 21
-47.89572253719119
 31
0.0
  0
LINE
  5
288
330
1F
100
AcDbEntity
  8
0
100
AcDbLine
 10
-7.794611865894661
 20
-18.88001179190716
 30
0.0
 11
-8.015199680953918
 21
-19.23517352517423
 31
0.0
  0
LINE
  5
289
330
1F
100
AcDbEntity
  8
0
100
AcDbLine
 10
8.015199680853934
 20
-19.23517352517423
 30
0.0
 11
8.259181506625382
 21
-19.57469040182207
 31
0.0
  0
LINE
  5
28A
330
1F
100
AcDbEntity
  8
0
100
AcDbLine
 10
9.119936348657076
 20
-20.48438376294405
 30
0.0
 11
9.445456854491592
 21
-20.74674847310804
 31
0.0
  0
LINE
  5
28B
330
1F
100
AcDbEntity
  8
0
100
AcDbLine
 10
-7.427505810817968
 20
-18.12925452978445
 30
0.0
 11
-7.598417580028971
 21
-18.51081449625013
 31
0.0
  0
LINE
  5
28C
330
1F
100
AcDbEntity
  8
0
100
AcDbLine
 10
12.7584207354957
 20
-25.43258493504596
 30
0.0
 11
12.62517643458255
 21
-25.02899641790535
 31
0.0
  0
LINE
  5
28D
330
1F
100
AcDbEntity
  8
0
100
AcDbLine
 10
12.86275521906797
 20
-25.84459470489486
 30
0.0
 11
12.7584207354957
 21
-25.43258493504596
 31
0.0
  0
LINE
  5
28E
330
1F
100
AcDbEntity
  8
0
100
AcDbLine
 10
6.611695725822334
 20
-47.68317042689782
 30
0.0
 11
6.933105441380407
 21
-47.44880256036728
 31
0.0
  0
LINE
  5
28F
330
1F
100
AcDbEntity
  8
0
100
AcDbLine
 10
8.17479332372829
 20
-25.62841275154497
 30
0.0
 11
8.024968010506221
 21
-25.26670244828623
 31
0.0
  0
LINE
  5
290
330
1F
100
AcDbEntity
  8
0
100
AcDbLine
 10
-12.46369112439997
 20
-24.63585493011679
 30
0.0
 11
-12.62517643468254
 21
-25.02899641790535
 31
0.0
  0
LINE
  5
291
330
1F
100
AcDbEntity
  8
0
100
AcDbLine
 10
10.81874738419207
 20
-43.07426974321337
 30
0.0
 11
11.05954637646238
 21
-42.72405041178039
 31
0.0
  0
LINE
  5
292
330
1F
100
AcDbEntity
  8
0
100
AcDbLine
 10
-4.033226517018623
 20
-48.66776382871293
 30
0.0
 11
-3.637408739623004
 21
-48.70727065295964
 31
0.0
  0
LINE
  5
293
330
1F
100
AcDbEntity
  8
0
100
AcDbLine
 10
-12.62517643468254
 20
-25.02899641790535
 30
0.0
 11
-12.7584207354957
 21
-25.43258493504596
 31
0.0
  0
LINE
  5
294
330
1F
100
AcDbEntity
  8
0
100
AcDbLine
 10
8.525451822841939
 20
-19.89702401724107
 30
0.0
 11
8.812804116504312
 21
-20.20071382646331
 31
0.0
  0
LINE
  5
295
330
1F
100
AcDbEntity
  8
0
100
AcDbLine
 10
7.598417580028975
 20
-18.51081449625013
 30
0.0
 11
7.794611865894663
 21
-18.88001179190716
 31
0.0
  0
LINE
  5
296
330
1F
100
AcDbEntity
  8
0
100
AcDbLine
 10
-12.7584207354957
 20
-25.43258493504596
 30
0.0
 11
-12.86275521906797
 21
-25.84459470489486
 31
0.0
  0
LINE
  5
297
330
1F
100
AcDbEntity
  8
0
100
AcDbLine
 10
-8.525451822941921
 20
-19.89702401724107
 30
0.0
 11
-8.812804116504308
 21
-20.20071382646331
 31
0.0
  0
LINE
  5
298
330
1F
100
AcDbEntity
  8
0
100
AcDbLine
 10
-5.564485901882581
 20
-48.25174129372133
 30
0.0
 11
-5.192872493148654
 21
-48.39364258500311
 31
0.0
  0
LINE
  5
299
330
1F
100
AcDbEntity
  8
0
100
AcDbLine
 10
-7.073616571099481
 20
-16.92792055652593
 30
0.0
 11
-7.164509467300024
 21
-17.33601040244197
 31
0.0
  0
LINE
  5
29A
330
1F
100
AcDbEntity
  8
0
100
AcDbLine
 10
-8.812804116504308
 20
-20.20071382646331
 30
0.0
 11
-9.119936348657072
 21
-20.48438376294405
 31
0.0
  0
LINE
  5
29B
330
1F
100
AcDbEntity
  8
0
100
AcDbLine
 10
-6.331577389721136
 20
-40.88482206827045
 30
0.0
 11
-5.969867086462382
 21
-40.7349967549484
 31
0.0
  0
LINE
  5
29C
330
1F
100
AcDbEntity
  8
0
100
AcDbLine
 10
8.17479332372829
 20
-26.40473868776175
 30
0.0
 11
8.22589594798479
 21
-26.01657571970336
 31
0.0
  0
LINE
  5
29D
330
1F
100
AcDbEntity
  8
0
100
AcDbLine
 10
8.024968010506221
 20
-26.76644899112049
 30
0.0
 11
8.17479332372829
 21
-26.40473868776175
 31
0.0
  0
LINE
  5
29E
330
1F
100
AcDbEntity
  8
0
100
AcDbLine
 10
-8.219486900713777
 20
-39.43617814969268
 30
0.0
 11
-8.168384276457274
 21
-39.82434111775108
 31
0.0
  0
LINE
  5
29F
330
1F
100
AcDbEntity
  8
0
100
AcDbLine
 10
6.716379353089329
 20
-40.93928836226677
 30
0.0
 11
7.104542321247711
 21
-40.88818573811024
 31
0.0
  0
LINE
  5
2A0
330
1F
100
AcDbEntity
  8
0
100
AcDbLine
 10
5.976276133733398
 20
-24.71775711434766
 30
0.0
 11
5.665668454631168
 21
-24.95609476918399
 31
0.0
  0
LINE
  5
2A1
330
1F
100
AcDbEntity
  8
0
100
AcDbLine
 10
8.21612589592359
 20
-39.43954181943249
 30
0.0
 11
8.16502327176707
 21
-39.0513788513741
 31
0.0
  0
LINE
  5
2A2
330
1F
100
AcDbEntity
  8
0
100
AcDbLine
 10
7.776860303608686
 20
-40.50002276995185
 30
0.0
 11
8.015197958445023
 21
-40.18941509084964
 31
0.0
  0
LINE
  5
2A3
330
1F
100
AcDbEntity
  8
0
100
AcDbLine
 10
8.015197958445023
 20
-40.18941509084964
 30
0.0
 11
8.16502327176707
 21
-39.82770478759087
 31
0.0
  0
LINE
  5
2A4
330
1F
100
AcDbEntity
  8
0
100
AcDbLine
 10
7.104542321247711
 20
-40.88818573811024
 30
0.0
 11
7.466252624506458
 21
-40.73836042478819
 31
0.0
  0
LINE
  5
2A5
330
1F
100
AcDbEntity
  8
0
100
AcDbLine
 10
-7.469613629296646
 20
-40.7349967549484
 30
0.0
 11
-7.107903325937913
 21
-40.88482206827045
 31
0.0
  0
LINE
  5
2A6
330
1F
100
AcDbEntity
  8
0
100
AcDbLine
 10
3.752406220348762
 20
-26.86055380710659
 30
0.0
 11
3.514068565512431
 21
-27.17116148620881
 31
0.0
  0
LINE
  5
2A7
330
1F
100
AcDbEntity
  8
0
100
AcDbLine
 10
-3.309619639180977
 20
-37.5322843123512
 30
0.0
 11
-3.359827073724537
 21
-37.14400454003271
 31
0.0
  0
LINE
  5
2A8
330
1F
100
AcDbEntity
  8
0
100
AcDbLine
 10
10.55375602943102
 20
-43.40656075543231
 30
0.0
 11
7.794612789738533
 21
-46.6255612016569
 31
0.0
  0
LINE
  5
2A9
330
1F
100
AcDbEntity
  8
0
100
AcDbLine
 10
-8.163856380071763
 20
-26.3929605987588
 30
0.0
 11
-8.014192354692055
 21
-26.75473766753417
 31
0.0
  0
LINE
  5
2AA
330
1F
100
AcDbEntity
  8
0
100
AcDbLine
 10
-8.01855896323521
 20
-38.68630487827556
 30
0.0
 11
-8.168384276457274
 21
-39.0480151815343
 31
0.0
  0
LINE
  5
2AB
330
1F
100
AcDbEntity
  8
0
100
AcDbLine
 10
-8.168384276457274
 20
-39.0480151815343
 30
0.0
 11
-8.219486900713777
 21
-39.43617814969268
 31
0.0
  0
LINE
  5
2AC
330
1F
100
AcDbEntity
  8
0
100
AcDbLine
 10
-3.627125232035783
 20
-28.8409848277641
 30
0.0
 11
-3.427665240474358
 21
-28.50409066067833
 31
0.0
  0
LINE
  5
2AD
330
1F
100
AcDbEntity
  8
0
100
AcDbLine
 10
-3.322196309923621
 20
-28.12705183943912
 30
0.0
 11
-3.317905973690445
 21
-27.7355629366637
 31
0.0
  0
LINE
  5
2AE
330
1F
100
AcDbEntity
  8
0
100
AcDbLine
 10
-3.512276153530051
 20
-38.2816922762053
 30
0.0
 11
-3.361617181296356
 21
-37.92032841239828
 31
0.0
  0
LINE
  5
2AF
330
1F
100
AcDbEntity
  8
0
100
AcDbLine
 10
-4.056496008774514
 20
-36.23174004883172
 30
0.0
 11
-4.417859872581531
 21
-36.08108107659804
 31
0.0
  0
LINE
  5
2B0
330
1F
100
AcDbEntity
  8
0
100
AcDbLine
 10
8.015197958445023
 20
-38.68966854801536
 30
0.0
 11
7.776860303608686
 21
-38.37906086901311
 31
0.0
  0
LINE
  5
2B1
330
1F
100
AcDbEntity
  8
0
100
AcDbLine
 10
-5.395955305753325
 20
-29.29422584183271
 30
0.0
 11
-5.018916484514113
 21
-29.39969477238345
 31
0.0
  0
LINE
  5
2B2
330
1F
100
AcDbEntity
  8
0
100
AcDbLine
 10
7.786630355669892
 20
-24.95609476918399
 30
0.0
 11
7.476022676567659
 21
-24.71775711434766
 31
0.0
  0
LINE
  5
2B3
330
1F
100
AcDbEntity
  8
0
100
AcDbLine
 10
6.275460536669303
 20
-47.89572253719119
 30
0.0
 11
6.611695725822334
 21
-47.68317042689782
 31
0.0
  0
LINE
  5
2B4
330
1F
100
AcDbEntity
  8
0
100
AcDbLine
 10
-8.01855896323521
 20
-40.18605142110981
 30
0.0
 11
-7.780221308398876
 21
-40.49665910011207
 31
0.0
  0
LINE
  5
2B5
330
1F
100
AcDbEntity
  8
0
100
AcDbLine
 10
-7.780221308398876
 20
-38.37569719917332
 30
0.0
 11
-8.01855896323521
 21
-38.68630487827556
 31
0.0
  0
LINE
  5
2B6
330
1F
100
AcDbEntity
  8
0
100
AcDbLine
 10
3.36424325219038
 20
-27.53287178956755
 30
0.0
 11
3.313140628033862
 21
-27.92103475762594
 31
0.0
  0
LINE
  5
2B7
330
1F
100
AcDbEntity
  8
0
100
AcDbLine
 10
5.665668454631168
 20
-24.95609476918399
 30
0.0
 11
3.752406220348762
 21
-26.86055380710659
 31
0.0
  0
LINE
  5
2B8
330
1F
100
AcDbEntity
  8
0
100
AcDbLine
 10
12.98274768264163
 20
-26.68557392760623
 30
0.0
 11
12.93765618770428
 21
-26.2629576809519
 31
0.0
  0
LINE
  5
2B9
330
1F
100
AcDbEntity
  8
0
100
AcDbLine
 10
-7.464333640414766
 20
-24.70629074856347
 30
0.0
 11
-7.775047554463291
 21
-24.94448989140833
 31
0.0
  0
LINE
  5
2BA
330
1F
100
AcDbEntity
  8
0
100
AcDbLine
 10
11.27494433730699
 20
-42.35766065564918
 30
0.0
 11
11.4638600958438
 21
-41.97693953581842
 31
0.0
  0
LINE
  5
2BB
330
1F
100
AcDbEntity
  8
0
100
AcDbLine
 10
-8.168384276457274
 20
-39.82434111775108
 30
0.0
 11
-8.01855896323521
 21
-40.18605142110981
 31
0.0
  0
LINE
  5
2BC
330
1F
100
AcDbEntity
  8
0
100
AcDbLine
 10
7.466252624506458
 20
-40.73836042478819
 30
0.0
 11
7.776860303608686
 21
-40.50002276995185
 31
0.0
  0
LINE
  5
2BD
330
1F
100
AcDbEntity
  8
0
100
AcDbLine
 10
7.476022676567659
 20
-24.71775711434766
 30
0.0
 11
7.114312373308913
 21
-24.56793180102561
 31
0.0
  0
LINE
  5
2BE
330
1F
100
AcDbEntity
  8
0
100
AcDbLine
 10
8.024968010506221
 20
-25.26670244828623
 30
0.0
 11
7.786630355669892
 21
-24.95609476918399
 31
0.0
  0
LINE
  5
2BF
330
1F
100
AcDbEntity
  8
0
100
AcDbLine
 10
-6.719740357879516
 20
-40.93592469252695
 30
0.0
 11
-6.331577389721136
 21
-40.88482206827045
 31
0.0
  0
LINE
  5
2C0
330
1F
100
AcDbEntity
  8
0
100
AcDbLine
 10
-8.21478593187751
 20
-26.00477488444452
 30
0.0
 11
-8.163856380071763
 21
-26.3929605987588
 31
0.0
  0
LINE
  5
2C1
330
1F
100
AcDbEntity
  8
0
100
AcDbLine
 10
6.726149405150528
 20
-24.51682917686909
 30
0.0
 11
6.337986437092133
 21
-24.56793180102561
 31
0.0
  0
LINE
  5
2C2
330
1F
100
AcDbEntity
  8
0
100
AcDbLine
 10
-7.780221308398876
 20
-40.49665910011207
 30
0.0
 11
-7.469613629296646
 21
-40.7349967549484
 31
0.0
  0
LINE
  5
2C3
330
1F
100
AcDbEntity
  8
0
100
AcDbLine
 10
6.337986437092133
 20
-24.56793180102561
 30
0.0
 11
5.976276133733398
 21
-24.71775711434766
 31
0.0
  0
LINE
  5
2C4
330
1F
100
AcDbEntity
  8
0
100
AcDbLine
 10
8.16502327176707
 20
-39.0513788513741
 30
0.0
 11
8.015197958445023
 21
-38.68966854801536
 31
0.0
  0
LINE
  5
2C5
330
1F
100
AcDbEntity
  8
0
100
AcDbLine
 10
-6.714370857225126
 20
-24.505697171478
 30
0.0
 11
-7.102556571539406
 21
-24.55662672328375
 31
0.0
  0
LINE
  5
2C6
330
1F
100
AcDbEntity
  8
0
100
AcDbLine
 10
-7.107903325937913
 20
-40.88482206827045
 30
0.0
 11
-6.719740357879516
 21
-40.93592469252695
 31
0.0
  0
LINE
  5
2C7
330
1F
100
AcDbEntity
  8
0
100
AcDbLine
 10
5.201050138926521
 20
-29.3696786762037
 30
0.0
 11
5.562760442285254
 21
-29.21985336298163
 31
0.0
  0
LINE
  5
2C8
330
1F
100
AcDbEntity
  8
0
100
AcDbLine
 10
-7.102556571539406
 20
-24.55662672328375
 30
0.0
 11
-7.464333640414766
 21
-24.70629074856347
 31
0.0
  0
LINE
  5
2C9
330
1F
100
AcDbEntity
  8
0
100
AcDbLine
 10
-8.01352367389911
 20
-25.25499127377472
 30
0.0
 11
-8.16351024536853
 21
-25.61663473962899
 31
0.0
  0
LINE
  5
2CA
330
1F
100
AcDbEntity
  8
0
100
AcDbLine
 10
4.812887170868125
 20
-29.4207813004602
 30
0.0
 11
5.201050138926521
 21
-29.3696786762037
 31
0.0
  0
LINE
  5
2CB
330
1F
100
AcDbEntity
  8
0
100
AcDbLine
 10
8.16502327176707
 20
-39.82770478759087
 30
0.0
 11
8.21612589592359
 21
-39.43954181943249
 31
0.0
  0
LINE
  5
2CC
330
1F
100
AcDbEntity
  8
0
100
AcDbLine
 10
-5.969867086462382
 20
-40.7349967549484
 30
0.0
 11
-5.659259407360155
 21
-40.49665910011207
 31
0.0
  0
LINE
  5
2CD
330
1F
100
AcDbEntity
  8
0
100
AcDbLine
 10
5.966506081672197
 20
-40.73836042478819
 30
0.0
 11
6.328216385030929
 21
-40.88818573811024
 31
0.0
  0
LINE
  5
2CE
330
1F
100
AcDbEntity
  8
0
100
AcDbLine
 10
4.424724202709744
 20
-29.3696786762037
 30
0.0
 11
4.812887170868125
 21
-29.4207813004602
 31
0.0
  0
LINE
  5
2CF
330
1F
100
AcDbEntity
  8
0
100
AcDbLine
 10
2.414764431311109
 20
-30.19280008048638
 30
0.0
 11
2.307320415649756
 21
-30.09216777824547
 31
0.0
  0
LINE
  5
2D0
330
1F
100
AcDbEntity
  8
0
100
AcDbLine
 10
-7.775047554463291
 20
-24.94448989140833
 30
0.0
 11
-8.01352367389911
 21
-25.25499127377472
 31
0.0
  0
LINE
  5
2D1
330
1F
100
AcDbEntity
  8
0
100
AcDbLine
 10
8.22589594798479
 20
-26.01657571970336
 30
0.0
 11
8.17479332372829
 21
-25.62841275154497
 31
0.0
  0
LINE
  5
2D2
330
1F
100
AcDbEntity
  8
0
100
AcDbLine
 10
7.786630355669892
 20
-27.07705667022271
 30
0.0
 11
8.024968010506221
 21
-26.76644899112049
 31
0.0
  0
LINE
  5
2D3
330
1F
100
AcDbEntity
  8
0
100
AcDbLine
 10
-2.530362385756806
 20
-35.13792689765429
 30
0.0
 11
-2.474455551211844
 21
-35.19761801745504
 31
0.0
  0
LINE
  5
2D4
330
1F
100
AcDbEntity
  8
0
100
AcDbLine
 10
6.328216385030929
 20
-40.88818573811024
 30
0.0
 11
6.716379353089329
 21
-40.93928836226677
 31
0.0
  0
LINE
  5
2D5
330
1F
100
AcDbEntity
  8
0
100
AcDbLine
 10
-5.964587246655313
 20
-24.7069594294564
 30
0.0
 11
-6.326230712509583
 21
-24.55697285798698
 31
0.0
  0
LINE
  5
2D6
330
1F
100
AcDbEntity
  8
0
100
AcDbLine
 10
5.655898402669951
 20
-40.50002276995185
 30
0.0
 11
5.966506081672197
 21
-40.73836042478819
 31
0.0
  0
LINE
  5
2D7
330
1F
100
AcDbEntity
  8
0
100
AcDbLine
 10
-6.326230712509583
 20
-24.55697285798698
 30
0.0
 11
-6.714370857225126
 21
-24.505697171478
 31
0.0
  0
LINE
  5
2D8
330
1F
100
AcDbEntity
  8
0
100
AcDbLine
 10
7.238276498271791
 20
-47.19364941404901
 30
0.0
 11
7.525867110358348
 21
-46.9188328536477
 31
0.0
  0
LINE
  5
2D9
330
1F
100
AcDbEntity
  8
0
100
AcDbLine
 10
-8.16351024536853
 20
-25.61663473962899
 30
0.0
 11
-8.21478593187751
 21
-26.00477488444452
 31
0.0
  0
LINE
  5
2DA
330
1F
100
AcDbEntity
  8
0
100
AcDbLine
 10
-5.654085864288932
 20
-24.94543554889222
 30
0.0
 11
-5.964587246655313
 21
-24.7069594294564
 31
0.0
  0
LINE
  5
2DB
330
1F
100
AcDbEntity
  8
0
100
AcDbLine
 10
4.063013899450993
 20
-29.21985336298163
 30
0.0
 11
4.424724202709744
 21
-29.3696786762037
 31
0.0
  0
LINE
  5
2DC
330
1F
100
AcDbEntity
  8
0
100
AcDbLine
 10
5.870437105729133
 20
-36.47264330968065
 30
0.0
 11
5.560379828309018
 21
-36.23359006727862
 31
0.0
  0
LINE
  5
2DD
330
1F
100
AcDbEntity
  8
0
100
AcDbLine
 10
3.36424325219038
 20
-28.30919772578433
 30
0.0
 11
3.514068565512431
 21
-28.67090802904307
 31
0.0
  0
LINE
  5
2DE
330
1F
100
AcDbEntity
  8
0
100
AcDbLine
 10
7.786630355669892
 20
-27.07705667022271
 30
0.0
 11
5.873368121387485
 21
-28.98151570814531
 31
0.0
  0
LINE
  5
2DF
330
1F
100
AcDbEntity
  8
0
100
AcDbLine
 10
-3.906983415802728
 20
-29.11477555983038
 30
0.0
 11
-3.746685903482309
 21
-28.97578308065935
 31
0.0
  0
LINE
  5
2E0
330
1F
100
AcDbEntity
  8
0
100
AcDbLine
 10
-6.006640204905368
 20
-28.81490766650434
 30
0.0
 11
-5.732849472739106
 21
-29.09476585027129
 31
0.0
  0
LINE
  5
2E1
330
1F
100
AcDbEntity
  8
0
100
AcDbLine
 10
-4.248167919021683
 20
-29.30680447114437
 30
0.0
 11
-3.906983415802728
 21
-29.11477555983038
 31
0.0
  0
LINE
  5
2E2
330
1F
100
AcDbEntity
  8
0
100
AcDbLine
 10
-3.508817931369595
 20
-36.78194972049722
 30
0.0
 11
-3.748040993172151
 21
-36.46918605715631
 31
0.0
  0
LINE
  5
2E3
330
1F
100
AcDbEntity
  8
0
100
AcDbLine
 10
-3.751329396032069
 20
-38.59174955372541
 30
0.0
 11
-3.512276153530051
 21
-38.2816922762053
 31
0.0
  0
LINE
  5
2E4
330
1F
100
AcDbEntity
  8
0
100
AcDbLine
 10
-3.361617181296356
 20
-37.92032841239828
 30
0.0
 11
-3.309619639180977
 21
-37.5322843123512
 31
0.0
  0
LINE
  5
2E5
330
1F
100
AcDbEntity
  8
0
100
AcDbLine
 10
3.510427600935441
 20
-36.77780992252307
 30
0.0
 11
3.359768628601767
 21
-37.1391737863301
 31
0.0
  0
LINE
  5
2E6
330
1F
100
AcDbEntity
  8
0
100
AcDbLine
 10
-4.417859872581531
 20
-36.08108107659804
 30
0.0
 11
-4.805903972728607
 21
-36.02908353448266
 31
0.0
  0
LINE
  5
2E7
330
1F
100
AcDbEntity
  8
0
100
AcDbLine
 10
5.199015964501998
 20
-36.08293109494493
 30
0.0
 11
4.810971864354926
 21
-36.03093355282956
 31
0.0
  0
LINE
  5
2E8
330
1F
100
AcDbEntity
  8
0
100
AcDbLine
 10
5.560379828309018
 20
-36.23359006727862
 30
0.0
 11
5.199015964501998
 21
-36.08293109494493
 31
0.0
  0
LINE
  5
2E9
330
1F
100
AcDbEntity
  8
0
100
AcDbLine
 10
3.74996370733346
 20
-28.97906755648293
 30
0.0
 11
4.063013899450993
 21
-29.21985336298163
 31
0.0
  0
LINE
  5
2EA
330
1F
100
AcDbEntity
  8
0
100
AcDbLine
 10
-3.317905973690445
 20
-27.7355629366637
 30
0.0
 11
-3.415086611162712
 21
-27.35630327404667
 31
0.0
  0
LINE
  5
2EB
330
1F
100
AcDbEntity
  8
0
100
AcDbLine
 10
4.422692092136429
 20
-36.08114098747311
 30
0.0
 11
4.060637272600932
 21
-36.23013184511815
 31
0.0
  0
LINE
  5
2EC
330
1F
100
AcDbEntity
  8
0
100
AcDbLine
 10
-7.780221308398876
 20
-38.37569719917332
 30
0.0
 11
-5.867394993746056
 21
-36.46590262665608
 31
0.0
  0
LINE
  5
2ED
330
1F
100
AcDbEntity
  8
0
100
AcDbLine
 10
-4.627427581738684
 20
-29.40398510861662
 30
0.0
 11
-4.248167919021683
 21
-29.30680447114437
 31
0.0
  0
LINE
  5
2EE
330
1F
100
AcDbEntity
  8
0
100
AcDbLine
 10
-7.775993211947177
 20
-27.0654515815827
 30
0.0
 11
-6.006640204905368
 21
-28.81490766650434
 31
0.0
  0
LINE
  5
2EF
330
1F
100
AcDbEntity
  8
0
100
AcDbLine
 10
4.060637272600932
 20
-36.23013184511815
 30
0.0
 11
3.74703269177509
 21
-36.47019515811827
 31
0.0
  0
LINE
  5
2F0
330
1F
100
AcDbEntity
  8
0
100
AcDbLine
 10
-5.732849472739106
 20
-29.09476585027129
 30
0.0
 11
-5.395955305753325
 21
-29.29422584183271
 31
0.0
  0
LINE
  5
2F1
330
1F
100
AcDbEntity
  8
0
100
AcDbLine
 10
3.506969378774988
 20
-38.27755247823115
 30
0.0
 11
3.744590178759791
 21
-38.58870890739463
 31
0.0
  0
LINE
  5
2F2
330
1F
100
AcDbEntity
  8
0
100
AcDbLine
 10
7.776860303608686
 20
-38.37906086901311
 30
0.0
 11
5.870437105729133
 21
-36.47264330968065
 31
0.0
  0
LINE
  5
2F3
330
1F
100
AcDbEntity
  8
0
100
AcDbLine
 10
5.655898402669951
 20
-40.50002276995185
 30
0.0
 11
3.744590178759791
 21
-38.58870890739463
 31
0.0
  0
LINE
  5
2F4
330
1F
100
AcDbEntity
  8
0
100
AcDbLine
 10
3.514068565512431
 20
-27.17116148620881
 30
0.0
 11
3.36424325219038
 21
-27.53287178956755
 31
0.0
  0
LINE
  5
2F5
330
1F
100
AcDbEntity
  8
0
100
AcDbLine
 10
-3.415086611162712
 20
-27.35630327404667
 30
0.0
 11
-3.607115522476699
 21
-27.01511877072772
 31
0.0
  0
LINE
  5
2F6
330
1F
100
AcDbEntity
  8
0
100
AcDbLine
 10
-5.5562385644826
 20
-36.22828182667127
 30
0.0
 11
-5.867394993746056
 21
-36.46590262665608
 31
0.0
  0
LINE
  5
2F7
330
1F
100
AcDbEntity
  8
0
100
AcDbLine
 10
3.357978521129929
 20
-37.91549765869566
 30
0.0
 11
3.506969378774988
 21
-38.27755247823115
 31
0.0
  0
LINE
  5
2F8
330
1F
100
AcDbEntity
  8
0
100
AcDbLine
 10
-3.359827073724537
 20
-37.14400454003271
 30
0.0
 11
-3.508817931369595
 21
-36.78194972049722
 31
0.0
  0
LINE
  5
2F9
330
1F
100
AcDbEntity
  8
0
100
AcDbLine
 10
5.562760442285254
 20
-29.21985336298163
 30
0.0
 11
5.873368121387485
 21
-28.98151570814531
 31
0.0
  0
LINE
  5
2FA
330
1F
100
AcDbEntity
  8
0
100
AcDbLine
 10
-3.748040993172151
 20
-36.46918605715631
 30
0.0
 11
-4.056496008774514
 21
-36.23174004883172
 31
0.0
  0
LINE
  5
2FB
330
1F
100
AcDbEntity
  8
0
100
AcDbLine
 10
-5.659259407360155
 20
-40.49665910011207
 30
0.0
 11
-3.751329396032069
 21
-38.59174955372541
 31
0.0
  0
LINE
  5
2FC
330
1F
100
AcDbEntity
  8
0
100
AcDbLine
 10
3.514068565512431
 20
-28.67090802904307
 30
0.0
 11
3.74996370733346
 21
-28.97906755648293
 31
0.0
  0
LINE
  5
2FD
330
1F
100
AcDbEntity
  8
0
100
AcDbLine
 10
3.307771086486383
 20
-37.52721788647717
 30
0.0
 11
3.357978521129929
 21
-37.91549765869566
 31
0.0
  0
LINE
  5
2FE
330
1F
100
AcDbEntity
  8
0
100
AcDbLine
 10
-4.805903972728607
 20
-36.02908353448266
 30
0.0
 11
-5.194183744947103
 21
-36.07929096902622
 31
0.0
  0
LINE
  5
2FF
330
1F
100
AcDbEntity
  8
0
100
AcDbLine
 10
-5.194183744947103
 20
-36.07929096902622
 30
0.0
 11
-5.5562385644826
 21
-36.22828182667127
 31
0.0
  0
LINE
  5
300
330
1F
100
AcDbEntity
  8
0
100
AcDbLine
 10
-5.654085864288932
 20
-24.94543554889222
 30
0.0
 11
-3.880906254542982
 21
-26.73526058696078
 31
0.0
  0
LINE
  5
301
330
1F
100
AcDbEntity
  8
0
100
AcDbLine
 10
3.313140628033862
 20
-27.92103475762594
 30
0.0
 11
3.36424325219038
 21
-28.30919772578433
 31
0.0
  0
LINE
  5
302
330
1F
100
AcDbEntity
  8
0
100
AcDbLine
 10
-3.746685903482309
 20
-28.97578308065935
 30
0.0
 11
-3.627125232035783
 21
-28.8409848277641
 31
0.0
  0
LINE
  5
303
330
1F
100
AcDbEntity
  8
0
100
AcDbLine
 10
-5.018916484514113
 20
-29.39969477238345
 30
0.0
 11
-4.627427581738684
 21
-29.40398510861662
 31
0.0
  0
LINE
  5
304
330
1F
100
AcDbEntity
  8
0
100
AcDbLine
 10
-3.607115522476699
 20
-27.01511877072772
 30
0.0
 11
-3.880906254542982
 21
-26.73526058696078
 31
0.0
  0
LINE
  5
305
330
1F
100
AcDbEntity
  8
0
100
AcDbLine
 10
4.810971864354926
 20
-36.03093355282956
 30
0.0
 11
4.422692092136429
 21
-36.08114098747311
 31
0.0
  0
LINE
  5
306
330
1F
100
AcDbEntity
  8
0
100
AcDbLine
 10
3.359768628601767
 20
-37.1391737863301
 30
0.0
 11
3.307771086486383
 21
-37.52721788647717
 31
0.0
  0
LINE
  5
307
330
1F
100
AcDbEntity
  8
0
100
AcDbLine
 10
3.74703269177509
 20
-36.47019515811827
 30
0.0
 11
3.510427600935441
 21
-36.77780992252307
 31
0.0
  0
LINE
  5
308
330
1F
100
AcDbEntity
  8
0
100
AcDbLine
 10
-3.427665240474358
 20
-28.50409066067833
 30
0.0
 11
-3.322196309923621
 21
-28.12705183943912
 31
0.0
  0
ENDSEC
  0
SECTION
  2
OBJECTS
  0
DICTIONARY
  5
C
330
0
100
AcDbDictionary
281
     1
  3
ACAD_DETAILVIEWSTYLE
350
30D
  3
ACAD_GROUP
350
D
  3
ACAD_LAYOUT
350
1A
  3
ACAD_MATERIAL
350
43
  3
ACAD_MLEADERSTYLE
350
30C
  3
ACAD_MLINESTYLE
350
17
  3
ACAD_PLOTSETTINGS
350
19
  3
ACAD_PLOTSTYLENAME
350
E
  3
ACAD_SCALELIST
350
47
  3
ACAD_SECTIONVIEWSTYLE
350
30E
  3
ACAD_TABLESTYLE
350
30B
  3
ACAD_VISUALSTYLE
350
2A
  3
AcDbVariableDictionary
350
309
  0
SUN
  5
69
330
29
100
AcDbSun
 90
        1
290
     0
 63
     7
421
 16777215
 40
1.0
291
     1
 91
  2455826
 92
 54000000
292
     0
 70
     2
 71
   256
280
     1
  0
DICTIONARY
  5
30D
102
{ACAD_REACTORS
330
C
102
}
330
C
100
AcDbDictionary
281
     1
  0
DICTIONARY
  5
D
102
{ACAD_REACTORS
330
C
102
}
330
C
100
AcDbDictionary
281
     1
  0
DICTIONARY
  5
1A
102
{ACAD_REACTORS
330
C
102
}
330
C
100
AcDbDictionary
281
     1
  3
Layout1
350
1E
  3
Layout2
350
26
  3
Model
350
22
  0
DICTIONARY
  5
43
102
{ACAD_REACTORS
330
C
102
}
330
C
100
AcDbDictionary
281
     1
  3
ByBlock
350
45
  3
ByLayer
350
44
  3
Global
350
46
  0
DICTIONARY
  5
30C
102
{ACAD_REACTORS
330
C
102
}
330
C
100
AcDbDictionary
281
     1
  0
DICTIONARY
  5
17
102
{ACAD_REACTORS
330
C
102
}
330
C
100
AcDbDictionary
281
     1
  3
Standard
350
18
  0
DICTIONARY
  5
19
102
{ACAD_REACTORS
330
C
102
}
330
C
100
AcDbDictionary
281
     1
  0
ACDBDICTIONARYWDFLT
  5
E
102
{ACAD_REACTORS
330
C
102
}
330
C
100
AcDbDictionary
281
     1
  3
Normal
350
F
100
AcDbDictionaryWithDefault
340
F
  0
DICTIONARY
  5
47
102
{ACAD_REACTORS
330
C
102
}
330
C
100
AcDbDictionary
281
     1
  3
A0
350
48
  3
A1
350
49
  3
A2
350
4A
  3
A3
350
4B
  3
A4
350
4C
  3
A5
350
4D
  3
A6
350
4E
  3
A7
350
4F
  3
A8
350
50
  3
A9
350
51
  3
B0
350
52
  3
B1
350
53
  3
B2
350
54
  3
B3
350
55
  3
B4
350
56
  3
B5
350
57
  3
B6
350
58
  3
B7
350
59
  3
B8
350
5A
  3
B9
350
5B
  3
C0
350
5C
  3
C1
350
5D
  3
C2
350
5E
  3
C3
350
5F
  3
C4
350
60
  3
C5
350
61
  3
C6
350
62
  3
C7
350
63
  3
C8
350
64
  3
C9
350
65
  3
D0
350
66
  3
D1
350
67
  3
D2
350
68
  0
DICTIONARY
  5
30E
102
{ACAD_REACTORS
330
C
102
}
330
C
100
AcDbDictionary
281
     1
  0
DICTIONARY
  5
30B
102
{ACAD_REACTORS
330
C
102
}
330
C
100
AcDbDictionary
281
     1
  0
DICTIONARY
  5
2A
102
{ACAD_REACTORS
330
C
102
}
330
C
100
AcDbDictionary
281
     1
  3
2dWireframe
350
2F
  3
Basic
350
32
  3
Brighten
350
36
  3
ColorChange
350
3A
  3
Conceptual
350
34
  3
Dim
350
35
  3
EdgeColorOff
350
3D
  3
Facepattern
350
39
  3
Flat
350
2B
  3
FlatWithEdges
350
2C
  3
Gouraud
350
2D
  3
GouraudWithEdges
350
2E
  3
Hidden
350
31
  3
JitterOff
350
3B
  3
Linepattern
350
38
  3
OverhangOff
350
3C
  3
Realistic
350
33
  3
Shaded
350
42
  3
Shaded with edges
350
41
  3
Shades of Gray
350
3E
  3
Sketchy
350
3F
  3
Thicken
350
37
  3
Wireframe
350
30
  3
X-Ray
350
40
  0
DICTIONARY
  5
309
102
{ACAD_REACTORS
330
C
102
}
330
C
100
AcDbDictionary
281
     1
  3
CANNOSCALE
350
30A
  0
LAYOUT
  5
1E
102
{ACAD_REACTORS
330
1A
102
}
330
1A
100
AcDbPlotSettings
  1

  2
none_device
  4

  6

 40
0.0
 41
0.0
 42
0.0
 43
0.0
 44
0.0
 45
0.0
 46
0.0
 47
0.0
 48
0.0
 49
0.0
140
0.0
141
0.0
142
1.0
143
1.0
 70
   688
 72
     0
 73
     0
 74
     5
  7

 75
    16
 76
     0
 77
     2
 78
   300
147
1.0
148
0.0
149
0.0
100
AcDbLayout
  1
Layout1
 70
     1
 71
     1
 10
0.0
 20
0.0
 11
12.0
 21
9.0
 12
0.0
 22
0.0
 32
0.0
 14
1.000000000000000E+20
 24
1.000000000000000E+20
 34
1.000000000000000E+20
 15
-1.000000000000000E+20
 25
-1.000000000000000E+20
 35
-1.000000000000000E+20
146
0.0
 13
0.0
 23
0.0
 33
0.0
 16
1.0
 26
0.0
 36
0.0
 17
0.0
 27
1.0
 37
0.0
 76
     0
330
1B
  0
LAYOUT
  5
26
102
{ACAD_REACTORS
330
1A
102
}
330
1A
100
AcDbPlotSettings
  1

  2
none_device
  4

  6

 40
0.0
 41
0.0
 42
0.0
 43
0.0
 44
0.0
 45
0.0
 46
0.0
 47
0.0
 48
0.0
 49
0.0
140
0.0
141
0.0
142
1.0
143
1.0
 70
   688
 72
     0
 73
     0
 74
     5
  7

 75
    16
 76
     0
 77
     2
 78
   300
147
1.0
148
0.0
149
0.0
100
AcDbLayout
  1
Layout2
 70
     1
 71
     2
 10
0.0
 20
0.0
 11
0.0
 21
0.0
 12
0.0
 22
0.0
 32
0.0
 14
0.0
 24
0.0
 34
0.0
 15
0.0
 25
0.0
 35
0.0
146
0.0
 13
0.0
 23
0.0
 33
0.0
 16
1.0
 26
0.0
 36
0.0
 17
0.0
 27
1.0
 37
0.0
 76
     0
330
23
  0
LAYOUT
  5
22
102
{ACAD_REACTORS
330
1A
102
}
330
1A
100
AcDbPlotSettings
  1

  2
none_device
  4
Letter_(8.50_x_11.00_Inches)
  6

 40
6.35
 41
6.35
 42
6.35000508
 43
6.35000508
 44
215.9
 45
279.4
 46
0.0
 47
0.0
 48
0.0
 49
0.0
140
0.0
141
0.0
142
1.0
143
1.0
 70
  1712
 72
     0
 73
     0
 74
     0
  7

 75
     0
 76
     0
 77
     2
 78
   300
147
1.0
148
0.0
149
0.0
100
AcDbLayout
  1
Model
 70
     1
 71
     0
 10
0.0
 20
0.0
 11
12.0
 21
9.0
 12
0.0
 22
0.0
 32
0.0
 14
1.000000000000000E+20
 24
1.000000000000000E+20
 34
1.000000000000000E+20
 15
-1.000000000000000E+20
 25
-1.000000000000000E+20
 35
-1.000000000000000E+20
146
0.0
 13
0.0
 23
0.0
 33
0.0
 16
1.0
 26
0.0
 36
0.0
 17
0.0
 27
1.0
 37
0.0
 76
     0
330
1F
331
29
  0
MATERIAL
  5
45
102
{ACAD_REACTORS
330
43
102
}
330
43
100
AcDbMaterial
  1
ByBlock
 72
     1
 94
      127
  0
MATERIAL
  5
44
102
{ACAD_REACTORS
330
43
102
}
330
43
100
AcDbMaterial
  1
ByLayer
 72
     1
 94
      127
  0
MATERIAL
  5
46
102
{ACAD_REACTORS
330
43
102
}
330
43
100
AcDbMaterial
  1
Global
 72
     1
 94
      127
  0
MLINESTYLE
  5
18
102
{ACAD_REACTORS
330
17
102
}
330
17
100
AcDbMlineStyle
  2
Standard
 70
     0
  3

 62
   256
 51
90.0
 52
90.0
 71
     2
 49
0.5
 62
   256
  6
BYLAYER
 49
-0.5
 62
   256
  6
BYLAYER
  0
ACDBPLACEHOLDER
  5
F
102
{ACAD_REACTORS
330
E
102
}
330
E
  0
SCALE
  5
48
102
{ACAD_REACTORS
330
47
102
}
330
47
100
AcDbScale
 70
     0
300
1:1
140
1.0
141
1.0
290
     1
  0
SCALE
  5
49
102
{ACAD_REACTORS
330
47
102
}
330
47
100
AcDbScale
 70
     0
300
1:2
140
1.0
141
2.0
290
     0
  0
SCALE
  5
4A
102
{ACAD_REACTORS
330
47
102
}
330
47
100
AcDbScale
 70
     0
300
1:4
140
1.0
141
4.0
290
     0
  0
SCALE
  5
4B
102
{ACAD_REACTORS
330
47
102
}
330
47
100
AcDbScale
 70
     0
300
1:5
140
1.0
141
5.0
290
     0
  0
SCALE
  5
4C
102
{ACAD_REACTORS
330
47
102
}
330
47
100
AcDbScale
 70
     0
300
1:8
140
1.0
141
8.0
290
     0
  0
SCALE
  5
4D
102
{ACAD_REACTORS
330
47
102
}
330
47
100
AcDbScale
 70
     0
300
1:10
140
1.0
141
10.0
290
     0
  0
SCALE
  5
4E
102
{ACAD_REACTORS
330
47
102
}
330
47
100
AcDbScale
 70
     0
300
1:16
140
1.0
141
16.0
290
     0
  0
SCALE
  5
4F
102
{ACAD_REACTORS
330
47
102
}
330
47
100
AcDbScale
 70
     0
300
1:20
140
1.0
141
20.0
290
     0
  0
SCALE
  5
50
102
{ACAD_REACTORS
330
47
102
}
330
47
100
AcDbScale
 70
     0
300
1:30
140
1.0
141
30.0
290
     0
  0
SCALE
  5
51
102
{ACAD_REACTORS
330
47
102
}
330
47
100
AcDbScale
 70
     0
300
1:40
140
1.0
141
40.0
290
     0
  0
SCALE
  5
52
102
{ACAD_REACTORS
330
47
102
}
330
47
100
AcDbScale
 70
     0
300
1:50
140
1.0
141
50.0
290
     0
  0
SCALE
  5
53
102
{ACAD_REACTORS
330
47
102
}
330
47
100
AcDbScale
 70
     0
300
1:100
140
1.0
141
100.0
290
     0
  0
SCALE
  5
54
102
{ACAD_REACTORS
330
47
102
}
330
47
100
AcDbScale
 70
     0
300
2:1
140
2.0
141
1.0
290
     0
  0
SCALE
  5
55
102
{ACAD_REACTORS
330
47
102
}
330
47
100
AcDbScale
 70
     0
300
4:1
140
4.0
141
1.0
290
     0
  0
SCALE
  5
56
102
{ACAD_REACTORS
330
47
102
}
330
47
100
AcDbScale
 70
     0
300
8:1
140
8.0
141
1.0
290
     0
  0
SCALE
  5
57
102
{ACAD_REACTORS
330
47
102
}
330
47
100
AcDbScale
 70
     0
300
10:1
140
10.0
141
1.0
290
     0
  0
SCALE
  5
58
102
{ACAD_REACTORS
330
47
102
}
330
47
100
AcDbScale
 70
     0
300
100:1
140
100.0
141
1.0
290
     0
  0
SCALE
  5
59
102
{ACAD_REACTORS
330
47
102
}
330
47
100
AcDbScale
 70
     0
300
1/128" = 1'-0"
140
0.0078125
141
12.0
290
     0
  0
SCALE
  5
5A
102
{ACAD_REACTORS
330
47
102
}
330
47
100
AcDbScale
 70
     0
300
1/64" = 1'-0"
140
0.015625
141
12.0
290
     0
  0
SCALE
  5
5B
102
{ACAD_REACTORS
330
47
102
}
330
47
100
AcDbScale
 70
     0
300
1/32" = 1'-0"
140
0.03125
141
12.0
290
     0
  0
SCALE
  5
5C
102
{ACAD_REACTORS
330
47
102
}
330
47
100
AcDbScale
 70
     0
300
1/16" = 1'-0"
140
0.0625
141
12.0
290
     0
  0
SCALE
  5
5D
102
{ACAD_REACTORS
330
47
102
}
330
47
100
AcDbScale
 70
     0
300
3/32" = 1'-0"
140
0.09375
141
12.0
290
     0
  0
SCALE
  5
5E
102
{ACAD_REACTORS
330
47
102
}
330
47
100
AcDbScale
 70
     0
300
1/8" = 1'-0"
140
0.125
141
12.0
290
     0
  0
SCALE
  5
5F
102
{ACAD_REACTORS
330
47
102
}
330
47
100
AcDbScale
 70
     0
300
3/16" = 1'-0"
140
0.1875
141
12.0
290
     0
  0
SCALE
  5
60
102
{ACAD_REACTORS
330
47
102
}
330
47
100
AcDbScale
 70
     0
300
1/4" = 1'-0"
140
0.25
141
12.0
290
     0
  0
SCALE
  5
61
102
{ACAD_REACTORS
330
47
102
}
330
47
100
AcDbScale
 70
     0
300
3/8" = 1'-0"
140
0.375
141
12.0
290
     0
  0
SCALE
  5
62
102
{ACAD_REACTORS
330
47
102
}
330
47
100
AcDbScale
 70
     0
300
1/2" = 1'-0"
140
0.5
141
12.0
290
     0
  0
SCALE
  5
63
102
{ACAD_REACTORS
330
47
102
}
330
47
100
AcDbScale
 70
     0
300
3/4" = 1'-0"
140
0.75
141
12.0
290
     0
  0
SCALE
  5
64
102
{ACAD_REACTORS
330
47
102
}
330
47
100
AcDbScale
 70
     0
300
1" = 1'-0"
140
1.0
141
12.0
290
     0
  0
SCALE
  5
65
102
{ACAD_REACTORS
330
47
102
}
330
47
100
AcDbScale
 70
     0
300
1-1/2" = 1'-0"
140
1.5
141
12.0
290
     0
  0
SCALE
  5
66
102
{ACAD_REACTORS
330
47
102
}
330
47
100
AcDbScale
 70
     0
300
3" = 1'-0"
140
3.0
141
12.0
290
     0
  0
SCALE
  5
67
102
{ACAD_REACTORS
330
47
102
}
330
47
100
AcDbScale
 70
     0
300
6" = 1'-0"
140
6.0
141
12.0
290
     0
  0
SCALE
  5
68
102
{ACAD_REACTORS
330
47
102
}
330
47
100
AcDbScale
 70
     0
300
1'-0" = 1'-0"
140
12.0
141
12.0
290
     0
  0
VISUALSTYLE
  5
2F
102
{ACAD_REACTORS
330
2A
102
}
330
2A
100
AcDbVisualStyle
  2
2dWireframe
 70
     4
177
     3
291
     0
 70
    58
 90
        0
176
     1
 90
        2
176
     1
 90
        0
176
     1
 90
        0
176
     1
 40
0.6
176
     1
 40
30.0
176
     1
 62
     7
420
 16777215
176
     1
 90
        1
176
     1
 90
        4
176
     1
 62
     7
176
     1
 62
   257
176
     1
 90
        1
176
     1
 90
        1
176
     1
 40
1.0
176
     1
 90
        0
176
     1
 62
   257
176
     1
 40
1.0
176
     1
 90
        1
176
     1
 90
        6
176
     1
 90
        2
176
     1
 62
     7
176
     1
 90
        5
176
     1
 90
        0
176
     1
 90
        0
176
     1
290
     0
176
     1
 90
        1
176
     1
 40
0.0
176
     1
 90
        0
176
     1
290
     1
176
     1
290
     1
176
     1
290
     0
176
     1
290
     0
176
     1
290
     0
176
     1
290
     0
176
     1
290
     0
176
     1
290
     0
176
     1
290
     0
176
     1
 90
       50
176
     1
 40
0.0
176
     1
 40
1.0
176
     1
 90
        0
176
     1
 62
    18
420
        0
176
     1
 90
       50
176
     1
 90
        3
176
     1
 62
     5
420
      255
176
     1
290
     0
176
     1
 90
       50
176
     1
 90
       50
176
     1
 90
       50
176
     1
290
     0
176
     1
 90
       50
176
     1
 62
   256
176
     0
 40
1.0
176
     0
 90
        2
176
     1
  1
strokes_ogs.tif
176
     1
290
     0
176
     1
 40
1.0
176
     1
 40
1.0
176
     1
  0
VISUALSTYLE
  5
32
102
{ACAD_REACTORS
330
2A
102
}
330
2A
100
AcDbVisualStyle
  2
Basic
 70
     7
177
     3
291
     1
 70
    58
 90
        1
176
     1
 90
        0
176
     1
 90
        1
176
     1
 90
        0
176
     1
 40
0.6
176
     1
 40
30.0
176
     1
 62
     7
420
 16777215
176
     1
 90
        0
176
     1
 90
        4
176
     1
 62
     7
176
     1
 62
   257
176
     1
 90
        1
176
     1
 90
        1
176
     1
 40
1.0
176
     1
 90
        8
176
     1
 62
     7
176
     1
 40
1.0
176
     1
 90
        1
176
     1
 90
        6
176
     1
 90
        2
176
     1
 62
     7
176
     1
 90
        5
176
     1
 90
        0
176
     1
 90
        0
176
     1
290
     0
176
     1
 90
        1
176
     1
 40
0.0
176
     1
 90
        0
176
     1
290
     0
176
     1
290
     1
176
     1
290
     1
176
     1
290
     0
176
     1
290
     0
176
     1
290
     0
176
     1
290
     0
176
     1
290
     0
176
     1
290
     0
176
     1
 90
       50
176
     1
 40
0.0
176
     1
 40
1.0
176
     1
 90
        0
176
     1
 62
    18
420
        0
176
     1
 90
       50
176
     1
 90
        3
176
     1
 62
     5
420
      255
176
     1
290
     0
176
     1
 90
       50
176
     1
 90
       50
176
     1
 90
       50
176
     1
290
     0
176
     1
 90
       50
176
     1
 62
   256
176
     0
 40
1.0
176
     0
 90
        2
176
     1
  1
strokes_ogs.tif
176
     1
290
     0
176
     1
 40
1.0
176
     1
 40
1.0
176
     1
  0
VISUALSTYLE
  5
36
102
{ACAD_REACTORS
330
2A
102
}
330
2A
100
AcDbVisualStyle
  2
Brighten
 70
    12
177
     3
291
     1
 70
    58
 90
        2
176
     1
 90
        2
176
     1
 90
        0
176
     1
 90
        0
176
     1
 40
0.6
176
     1
 40
30.0
176
     1
 62
     7
420
 16777215
176
     1
 90
        1
176
     1
 90
        4
176
     1
 62
     7
176
     1
 62
   257
176
     1
 90
        1
176
     1
 90
        1
176
     1
 40
1.0
176
     1
 90
        8
176
     1
 62
     7
176
     1
 40
1.0
176
     1
 90
        1
176
     1
 90
        6
176
     1
 90
        2
176
     1
 62
     7
176
     1
 90
        5
176
     1
 90
        0
176
     1
 90
        0
176
     1
290
     0
176
     1
 90
        1
176
     1
 40
50.0
176
     1
 90
        0
176
     1
290
     0
176
     1
290
     1
176
     1
290
     1
176
     1
290
     0
176
     1
290
     0
176
     1
290
     0
176
     1
290
     0
176
     1
290
     0
176
     1
290
     0
176
     1
 90
       50
176
     1
 40
0.0
176
     1
 40
1.0
176
     1
 90
        0
176
     1
 62
    18
420
        0
176
     1
 90
       50
176
     1
 90
        3
176
     1
 62
     5
420
      255
176
     1
290
     0
176
     1
 90
       50
176
     1
 90
       50
176
     1
 90
       50
176
     1
290
     0
176
     1
 90
       50
176
     1
 62
   256
176
     0
 40
1.0
176
     0
 90
        2
176
     1
  1
strokes_ogs.tif
176
     1
290
     0
176
     1
 40
1.0
176
     1
 40
1.0
176
     1
  0
VISUALSTYLE
  5
3A
102
{ACAD_REACTORS
330
2A
102
}
330
2A
100
AcDbVisualStyle
  2
ColorChange
 70
    16
177
     3
291
     1
 70
    58
 90
        2
176
     1
 90
        2
176
     1
 90
        3
176
     1
 90
        0
176
     1
 40
0.6
176
     1
 40
30.0
176
     1
 62
     8
420
  8421504
176
     1
 90
        1
176
     1
 90
        4
176
     1
 62
     7
176
     1
 62
   257
176
     1
 90
        1
176
     1
 90
        1
176
     1
 40
1.0
176
     1
 90
        8
176
     1
 62
     8
420
  8421504
176
     1
 40
1.0
176
     1
 90
        1
176
     1
 90
        6
176
     1
 90
        2
176
     1
 62
     7
176
     1
 90
        5
176
     1
 90
        0
176
     1
 90
        0
176
     1
290
     0
176
     1
 90
        1
176
     1
 40
0.0
176
     1
 90
        0
176
     1
290
     0
176
     1
290
     1
176
     1
290
     1
176
     1
290
     0
176
     1
290
     0
176
     1
290
     0
176
     1
290
     0
176
     1
290
     0
176
     1
290
     0
176
     1
 90
       50
176
     1
 40
0.0
176
     1
 40
1.0
176
     1
 90
        0
176
     1
 62
    18
420
        0
176
     1
 90
       50
176
     1
 90
        3
176
     1
 62
     5
420
      255
176
     1
290
     0
176
     1
 90
       50
176
     1
 90
       50
176
     1
 90
       50
176
     1
290
     0
176
     1
 90
       50
176
     1
 62
   256
176
     0
 40
1.0
176
     0
 90
        2
176
     1
  1
strokes_ogs.tif
176
     1
290
     0
176
     1
 40
1.0
176
     1
 40
1.0
176
     1
  0
VISUALSTYLE
  5
34
102
{ACAD_REACTORS
330
2A
102
}
330
2A
100
AcDbVisualStyle
  2
Conceptual
 70
     9
177
     3
291
     0
 70
    58
 90
        3
176
     1
 90
        2
176
     1
 90
        0
176
     1
 90
        0
176
     1
 40
0.6
176
     1
 40
30.0
176
     1
 62
     7
420
 16777215
176
     1
 90
        2
176
     1
 90
        2
176
     1
 62
     7
176
     1
 62
   257
176
     1
 90
        1
176
     1
 90
        1
176
     1
 40
179.0
176
     1
 90
        8
176
     1
 62
     7
176
     1
 40
1.0
176
     1
 90
        1
176
     1
 90
        6
176
     1
 90
        2
176
     1
 62
     7
176
     1
 90
        3
176
     1
 90
        0
176
     1
 90
        0
176
     1
290
     0
176
     1
 90
        1
176
     1
 40
0.0
176
     1
 90
        0
176
     1
290
     0
176
     1
290
     1
176
     1
290
     1
176
     1
290
     0
176
     1
290
     0
176
     1
290
     0
176
     1
290
     0
176
     1
290
     0
176
     1
290
     0
176
     1
 90
       50
176
     1
 40
0.0
176
     1
 40
1.0
176
     1
 90
        0
176
     1
 62
    18
420
        0
176
     1
 90
       50
176
     1
 90
        3
176
     1
 62
     5
420
      255
176
     1
290
     0
176
     1
 90
       50
176
     1
 90
       50
176
     1
 90
       50
176
     1
290
     0
176
     1
 90
       50
176
     1
 62
   256
176
     0
 40
1.0
176
     0
 90
        2
176
     1
  1
strokes_ogs.tif
176
     1
290
     0
176
     1
 40
1.0
176
     1
 40
1.0
176
     1
  0
VISUALSTYLE
  5
35
102
{ACAD_REACTORS
330
2A
102
}
330
2A
100
AcDbVisualStyle
  2
Dim
 70
    11
177
     3
291
     1
 70
    58
 90
        2
176
     1
 90
        2
176
     1
 90
        0
176
     1
 90
        0
176
     1
 40
0.6
176
     1
 40
30.0
176
     1
 62
     7
420
 16777215
176
     1
 90
        1
176
     1
 90
        4
176
     1
 62
     7
176
     1
 62
   257
176
     1
 90
        1
176
     1
 90
        1
176
     1
 40
1.0
176
     1
 90
        8
176
     1
 62
     7
176
     1
 40
1.0
176
     1
 90
        1
176
     1
 90
        6
176
     1
 90
        2
176
     1
 62
     7
176
     1
 90
        5
176
     1
 90
        0
176
     1
 90
        0
176
     1
290
     0
176
     1
 90
        1
176
     1
 40
-50.0
176
     1
 90
        0
176
     1
290
     0
176
     1
290
     1
176
     1
290
     1
176
     1
290
     0
176
     1
290
     0
176
     1
290
     0
176
     1
290
     0
176
     1
290
     0
176
     1
290
     0
176
     1
 90
       50
176
     1
 40
0.0
176
     1
 40
1.0
176
     1
 90
        0
176
     1
 62
    18
420
        0
176
     1
 90
       50
176
     1
 90
        3
176
     1
 62
     5
420
      255
176
     1
290
     0
176
     1
 90
       50
176
     1
 90
       50
176
     1
 90
       50
176
     1
290
     0
176
     1
 90
       50
176
     1
 62
   256
176
     0
 40
1.0
176
     0
 90
        2
176
     1
  1
strokes_ogs.tif
176
     1
290
     0
176
     1
 40
1.0
176
     1
 40
1.0
176
     1
  0
VISUALSTYLE
  5
3D
102
{ACAD_REACTORS
330
2A
102
}
330
2A
100
AcDbVisualStyle
  2
EdgeColorOff
 70
    22
177
     3
291
     1
 70
    58
 90
        2
176
     0
 90
        2
176
     0
 90
        0
176
     0
 90
        0
176
     0
 40
0.6
176
     0
 40
30.0
176
     0
 62
     7
420
 16777215
176
     0
 90
        1
176
     0
 90
        4
176
     0
 62
     7
176
     0
 62
   257
176
     0
 90
        1
176
     0
 90
        1
176
     0
 40
1.0
176
     0
 90
        8
176
     2
 62
     7
176
     0
 40
1.0
176
     0
 90
        1
176
     0
 90
        6
176
     0
 90
        2
176
     0
 62
     7
176
     0
 90
        5
176
     0
 90
        0
176
     0
 90
        0
176
     0
290
     0
176
     0
 90
        1
176
     0
 40
0.0
176
     0
 90
        0
176
     0
290
     0
176
     0
290
     1
176
     0
290
     1
176
     0
290
     0
176
     0
290
     0
176
     0
290
     0
176
     0
290
     0
176
     0
290
     0
176
     0
290
     0
176
     0
 90
       50
176
     0
 40
0.0
176
     0
 40
1.0
176
     0
 90
        0
176
     0
 62
    18
420
        0
176
     0
 90
       50
176
     0
 90
        3
176
     0
 62
     5
420
      255
176
     0
290
     0
176
     0
 90
       50
176
     0
 90
       50
176
     0
 90
       50
176
     0
290
     0
176
     0
 90
       50
176
     0
 62
   256
176
     0
 40
1.0
176
     0
 90
        2
176
     0
  1
strokes_ogs.tif
176
     0
290
     0
176
     0
 40
1.0
176
     0
 40
1.0
176
     0
  0
VISUALSTYLE
  5
39
102
{ACAD_REACTORS
330
2A
102
}
330
2A
100
AcDbVisualStyle
  2
Facepattern
 70
    15
177
     3
291
     1
 70
    58
 90
        2
176
     1
 90
        2
176
     1
 90
        0
176
     1
 90
        0
176
     1
 40
0.6
176
     1
 40
30.0
176
     1
 62
     7
420
 16777215
176
     1
 90
        1
176
     1
 90
        4
176
     1
 62
     7
176
     1
 62
   257
176
     1
 90
        1
176
     1
 90
        1
176
     1
 40
1.0
176
     1
 90
        8
176
     1
 62
     7
176
     1
 40
1.0
176
     1
 90
        1
176
     1
 90
        6
176
     1
 90
        2
176
     1
 62
     7
176
     1
 90
        5
176
     1
 90
        0
176
     1
 90
        0
176
     1
290
     0
176
     1
 90
        1
176
     1
 40
0.0
176
     1
 90
        0
176
     1
290
     0
176
     1
290
     1
176
     1
290
     1
176
     1
290
     0
176
     1
290
     0
176
     1
290
     0
176
     1
290
     0
176
     1
290
     0
176
     1
290
     0
176
     1
 90
       50
176
     1
 40
0.0
176
     1
 40
1.0
176
     1
 90
        0
176
     1
 62
    18
420
        0
176
     1
 90
       50
176
     1
 90
        3
176
     1
 62
     5
420
      255
176
     1
290
     0
176
     1
 90
       50
176
     1
 90
       50
176
     1
 90
       50
176
     1
290
     0
176
     1
 90
       50
176
     1
 62
   256
176
     0
 40
1.0
176
     0
 90
        2
176
     1
  1
strokes_ogs.tif
176
     1
290
     0
176
     1
 40
1.0
176
     1
 40
1.0
176
     1
  0
VISUALSTYLE
  5
2B
102
{ACAD_REACTORS
330
2A
102
}
330
2A
100
AcDbVisualStyle
  2
Flat
 70
     0
177
     3
291
     1
 70
    58
 90
        2
176
     1
 90
        1
176
     1
 90
        1
176
     1
 90
        2
176
     1
 40
0.6
176
     1
 40
30.0
176
     1
 62
     7
420
 16777215
176
     1
 90
        0
176
     1
 90
        0
176
     1
 62
     7
176
     1
 62
   257
176
     1
 90
        1
176
     1
 90
        1
176
     1
 40
1.0
176
     1
 90
        8
176
     1
 62
     7
176
     1
 40
1.0
176
     1
 90
        1
176
     1
 90
        6
176
     1
 90
        2
176
     1
 62
     7
176
     1
 90
        5
176
     1
 90
        0
176
     1
 90
        0
176
     1
290
     0
176
     1
 90
       13
176
     1
 40
0.0
176
     1
 90
        0
176
     1
290
     0
176
     1
290
     1
176
     1
290
     1
176
     1
290
     0
176
     1
290
     0
176
     1
290
     0
176
     1
290
     0
176
     1
290
     0
176
     1
290
     0
176
     1
 90
       50
176
     1
 40
0.0
176
     1
 40
1.0
176
     1
 90
        0
176
     1
 62
    18
420
        0
176
     1
 90
       50
176
     1
 90
        3
176
     1
 62
     5
420
      255
176
     1
290
     0
176
     1
 90
       50
176
     1
 90
       50
176
     1
 90
       50
176
     1
290
     0
176
     1
 90
       50
176
     1
 62
   256
176
     0
 40
1.0
176
     0
 90
        2
176
     1
  1
strokes_ogs.tif
176
     1
290
     0
176
     1
 40
1.0
176
     1
 40
1.0
176
     1
  0
VISUALSTYLE
  5
2C
102
{ACAD_REACTORS
330
2A
102
}
330
2A
100
AcDbVisualStyle
  2
FlatWithEdges
 70
     1
177
     3
291
     1
 70
    58
 90
        2
176
     1
 90
        1
176
     1
 90
        1
176
     1
 90
        2
176
     1
 40
0.6
176
     1
 40
30.0
176
     1
 62
     7
420
 16777215
176
     1
 90
        1
176
     1
 90
        0
176
     1
 62
     7
176
     1
 62
   257
176
     1
 90
        1
176
     1
 90
        1
176
     1
 40
1.0
176
     1
 90
        0
176
     1
 62
   257
176
     1
 40
1.0
176
     1
 90
        1
176
     1
 90
        6
176
     1
 90
        2
176
     1
 62
     7
176
     1
 90
        5
176
     1
 90
        0
176
     1
 90
        0
176
     1
290
     0
176
     1
 90
       13
176
     1
 40
0.0
176
     1
 90
        0
176
     1
290
     0
176
     1
290
     1
176
     1
290
     1
176
     1
290
     0
176
     1
290
     0
176
     1
290
     0
176
     1
290
     0
176
     1
290
     0
176
     1
290
     0
176
     1
 90
       50
176
     1
 40
0.0
176
     1
 40
1.0
176
     1
 90
        0
176
     1
 62
    18
420
        0
176
     1
 90
       50
176
     1
 90
        3
176
     1
 62
     5
420
      255
176
     1
290
     0
176
     1
 90
       50
176
     1
 90
       50
176
     1
 90
       50
176
     1
290
     0
176
     1
 90
       50
176
     1
 62
   256
176
     0
 40
1.0
176
     0
 90
        2
176
     1
  1
strokes_ogs.tif
176
     1
290
     0
176
     1
 40
1.0
176
     1
 40
1.0
176
     1
  0
VISUALSTYLE
  5
2D
102
{ACAD_REACTORS
330
2A
102
}
330
2A
100
AcDbVisualStyle
  2
Gouraud
 70
     2
177
     3
291
     1
 70
    58
 90
        2
176
     1
 90
        2
176
     1
 90
        1
176
     1
 90
        2
176
     1
 40
0.6
176
     1
 40
30.0
176
     1
 62
     7
420
 16777215
176
     1
 90
        0
176
     1
 90
        0
176
     1
 62
     7
176
     1
 62
   257
176
     1
 90
        1
176
     1
 90
        1
176
     1
 40
1.0
176
     1
 90
        0
176
     1
 62
     7
176
     1
 40
1.0
176
     1
 90
        1
176
     1
 90
        6
176
     1
 90
        2
176
     1
 62
     7
176
     1
 90
        5
176
     1
 90
        0
176
     1
 90
        0
176
     1
290
     0
176
     1
 90
       13
176
     1
 40
0.0
176
     1
 90
        0
176
     1
290
     0
176
     1
290
     1
176
     1
290
     1
176
     1
290
     0
176
     1
290
     0
176
     1
290
     0
176
     1
290
     0
176
     1
290
     0
176
     1
290
     0
176
     1
 90
       50
176
     1
 40
0.0
176
     1
 40
1.0
176
     1
 90
        0
176
     1
 62
    18
420
        0
176
     1
 90
       50
176
     1
 90
        3
176
     1
 62
     5
420
      255
176
     1
290
     0
176
     1
 90
       50
176
     1
 90
       50
176
     1
 90
       50
176
     1
290
     0
176
     1
 90
       50
176
     1
 62
   256
176
     0
 40
1.0
176
     0
 90
        2
176
     1
  1
strokes_ogs.tif
176
     1
290
     0
176
     1
 40
1.0
176
     1
 40
1.0
176
     1
  0
VISUALSTYLE
  5
2E
102
{ACAD_REACTORS
330
2A
102
}
330
2A
100
AcDbVisualStyle
  2
GouraudWithEdges
 70
     3
177
     3
291
     1
 70
    58
 90
        2
176
     1
 90
        2
176
     1
 90
        1
176
     1
 90
        2
176
     1
 40
0.6
176
     1
 40
30.0
176
     1
 62
     7
420
 16777215
176
     1
 90
        1
176
     1
 90
        0
176
     1
 62
     7
176
     1
 62
   257
176
     1
 90
        1
176
     1
 90
        1
176
     1
 40
1.0
176
     1
 90
        0
176
     1
 62
   257
176
     1
 40
1.0
176
     1
 90
        1
176
     1
 90
        6
176
     1
 90
        2
176
     1
 62
     7
176
     1
 90
        5
176
     1
 90
        0
176
     1
 90
        0
176
     1
290
     0
176
     1
 90
       13
176
     1
 40
0.0
176
     1
 90
        0
176
     1
290
     0
176
     1
290
     1
176
     1
290
     1
176
     1
290
     0
176
     1
290
     0
176
     1
290
     0
176
     1
290
     0
176
     1
290
     0
176
     1
290
     0
176
     1
 90
       50
176
     1
 40
0.0
176
     1
 40
1.0
176
     1
 90
        0
176
     1
 62
    18
420
        0
176
     1
 90
       50
176
     1
 90
        3
176
     1
 62
     5
420
      255
176
     1
290
     0
176
     1
 90
       50
176
     1
 90
       50
176
     1
 90
       50
176
     1
290
     0
176
     1
 90
       50
176
     1
 62
   256
176
     0
 40
1.0
176
     0
 90
        2
176
     1
  1
strokes_ogs.tif
176
     1
290
     0
176
     1
 40
1.0
176
     1
 40
1.0
176
     1
  0
VISUALSTYLE
  5
31
102
{ACAD_REACTORS
330
2A
102
}
330
2A
100
AcDbVisualStyle
  2
Hidden
 70
     6
177
     3
291
     0
 70
    58
 90
        1
176
     1
 90
        2
176
     1
 90
        2
176
     1
 90
        0
176
     1
 40
0.6
176
     1
 40
30.0
176
     1
 62
     7
420
 16777215
176
     1
 90
        2
176
     1
 90
        2
176
     1
 62
     7
176
     1
 62
   257
176
     1
 90
        2
176
     1
 90
        1
176
     1
 40
40.0
176
     1
 90
        0
176
     1
 62
   257
176
     1
 40
1.0
176
     1
 90
        1
176
     1
 90
        6
176
     1
 90
        2
176
     1
 62
     7
176
     1
 90
        3
176
     1
 90
        0
176
     1
 90
        0
176
     1
290
     0
176
     1
 90
        1
176
     1
 40
0.0
176
     1
 90
        0
176
     1
290
     0
176
     1
290
     1
176
     1
290
     1
176
     1
290
     0
176
     1
290
     0
176
     1
290
     0
176
     1
290
     0
176
     1
290
     0
176
     1
290
     0
176
     1
 90
       50
176
     1
 40
0.0
176
     1
 40
1.0
176
     1
 90
        0
176
     1
 62
    18
420
        0
176
     1
 90
       50
176
     1
 90
        3
176
     1
 62
     5
420
      255
176
     1
290
     0
176
     1
 90
       50
176
     1
 90
       50
176
     1
 90
       50
176
     1
290
     0
176
     1
 90
       50
176
     1
 62
   256
176
     0
 40
1.0
176
     0
 90
        2
176
     1
  1
strokes_ogs.tif
176
     1
290
     0
176
     1
 40
1.0
176
     1
 40
1.0
176
     1
  0
VISUALSTYLE
  5
3B
102
{ACAD_REACTORS
330
2A
102
}
330
2A
100
AcDbVisualStyle
  2
JitterOff
 70
    20
177
     3
291
     1
 70
    58
 90
        2
176
     0
 90
        2
176
     0
 90
        0
176
     0
 90
        0
176
     0
 40
0.6
176
     0
 40
30.0
176
     0
 62
     7
420
 16777215
176
     0
 90
        1
176
     0
 90
        4
176
     0
 62
     7
176
     0
 62
   257
176
     0
 90
        1
176
     0
 90
        1
176
     0
 40
1.0
176
     0
 90
       10
176
     2
 62
     7
176
     0
 40
1.0
176
     0
 90
        1
176
     0
 90
        6
176
     0
 90
        2
176
     0
 62
     7
176
     0
 90
        5
176
     0
 90
        0
176
     0
 90
        0
176
     0
290
     0
176
     0
 90
        1
176
     0
 40
0.0
176
     0
 90
        0
176
     0
290
     0
176
     0
290
     1
176
     0
290
     1
176
     0
290
     0
176
     0
290
     0
176
     0
290
     0
176
     0
290
     0
176
     0
290
     0
176
     0
290
     0
176
     0
 90
       50
176
     0
 40
0.0
176
     0
 40
1.0
176
     0
 90
        0
176
     0
 62
    18
420
        0
176
     0
 90
       50
176
     0
 90
        3
176
     0
 62
     5
420
      255
176
     0
290
     0
176
     0
 90
       50
176
     0
 90
       50
176
     0
 90
       50
176
     0
290
     0
176
     0
 90
       50
176
     0
 62
   256
176
     0
 40
1.0
176
     0
 90
        2
176
     0
  1
strokes_ogs.tif
176
     0
290
     0
176
     0
 40
1.0
176
     0
 40
1.0
176
     0
  0
VISUALSTYLE
  5
38
102
{ACAD_REACTORS
330
2A
102
}
330
2A
100
AcDbVisualStyle
  2
Linepattern
 70
    14
177
     3
291
     1
 70
    58
 90
        2
176
     1
 90
        2
176
     1
 90
        0
176
     1
 90
        0
176
     1
 40
0.6
176
     1
 40
30.0
176
     1
 62
     7
420
 16777215
176
     1
 90
        1
176
     1
 90
        4
176
     1
 62
     7
176
     1
 62
   257
176
     1
 90
        7
176
     1
 90
        7
176
     1
 40
1.0
176
     1
 90
        8
176
     1
 62
     7
176
     1
 40
1.0
176
     1
 90
        1
176
     1
 90
        6
176
     1
 90
        2
176
     1
 62
     7
176
     1
 90
        5
176
     1
 90
        0
176
     1
 90
        0
176
     1
290
     0
176
     1
 90
        1
176
     1
 40
0.0
176
     1
 90
        0
176
     1
290
     0
176
     1
290
     1
176
     1
290
     1
176
     1
290
     0
176
     1
290
     0
176
     1
290
     0
176
     1
290
     0
176
     1
290
     0
176
     1
290
     0
176
     1
 90
       50
176
     1
 40
0.0
176
     1
 40
1.0
176
     1
 90
        0
176
     1
 62
    18
420
        0
176
     1
 90
       50
176
     1
 90
        3
176
     1
 62
     5
420
      255
176
     1
290
     0
176
     1
 90
       50
176
     1
 90
       50
176
     1
 90
       50
176
     1
290
     0
176
     1
 90
       50
176
     1
 62
   256
176
     0
 40
1.0
176
     0
 90
        2
176
     1
  1
strokes_ogs.tif
176
     1
290
     0
176
     1
 40
1.0
176
     1
 40
1.0
176
     1
  0
VISUALSTYLE
  5
3C
102
{ACAD_REACTORS
330
2A
102
}
330
2A
100
AcDbVisualStyle
  2
OverhangOff
 70
    21
177
     3
291
     1
 70
    58
 90
        2
176
     0
 90
        2
176
     0
 90
        0
176
     0
 90
        0
176
     0
 40
0.6
176
     0
 40
30.0
176
     0
 62
     7
420
 16777215
176
     0
 90
        1
176
     0
 90
        4
176
     0
 62
     7
176
     0
 62
   257
176
     0
 90
        1
176
     0
 90
        1
176
     0
 40
1.0
176
     0
 90
        9
176
     2
 62
     7
176
     0
 40
1.0
176
     0
 90
        1
176
     0
 90
        6
176
     0
 90
        2
176
     0
 62
     7
176
     0
 90
        5
176
     0
 90
        0
176
     0
 90
        0
176
     0
290
     0
176
     0
 90
        1
176
     0
 40
0.0
176
     0
 90
        0
176
     0
290
     0
176
     0
290
     1
176
     0
290
     1
176
     0
290
     0
176
     0
290
     0
176
     0
290
     0
176
     0
290
     0
176
     0
290
     0
176
     0
290
     0
176
     0
 90
       50
176
     0
 40
0.0
176
     0
 40
1.0
176
     0
 90
        0
176
     0
 62
    18
420
        0
176
     0
 90
       50
176
     0
 90
        3
176
     0
 62
     5
420
      255
176
     0
290
     0
176
     0
 90
       50
176
     0
 90
       50
176
     0
 90
       50
176
     0
290
     0
176
     0
 90
       50
176
     0
 62
   256
176
     0
 40
1.0
176
     0
 90
        2
176
     0
  1
strokes_ogs.tif
176
     0
290
     0
176
     0
 40
1.0
176
     0
 40
1.0
176
     0
  0
VISUALSTYLE
  5
33
102
{ACAD_REACTORS
330
2A
102
}
330
2A
100
AcDbVisualStyle
  2
Realistic
 70
     8
177
     3
291
     0
 70
    58
 90
        2
176
     1
 90
        3
176
     1
 90
        0
176
     1
 90
        2
176
     1
 40
0.6
176
     1
 40
30.0
176
     1
 62
     7
420
 16777215
176
     1
 90
        0
176
     1
 90
        0
176
     1
 62
     7
176
     1
 62
   257
176
     1
 90
        1
176
     1
 90
        1
176
     1
 40
1.0
176
     1
 90
        8
176
     1
 62
   257
176
     1
 40
1.0
176
     1
 90
        1
176
     1
 90
        6
176
     1
 90
        2
176
     1
 62
     7
176
     1
 90
        3
176
     1
 90
        0
176
     1
 90
        0
176
     1
290
     0
176
     1
 90
       13
176
     1
 40
0.0
176
     1
 90
        0
176
     1
290
     0
176
     1
290
     1
176
     1
290
     1
176
     1
290
     0
176
     1
290
     0
176
     1
290
     0
176
     1
290
     0
176
     1
290
     0
176
     1
290
     0
176
     1
 90
       50
176
     1
 40
0.0
176
     1
 40
1.0
176
     1
 90
        0
176
     1
 62
    18
420
        0
176
     1
 90
       50
176
     1
 90
        3
176
     1
 62
     5
420
      255
176
     1
290
     0
176
     1
 90
       50
176
     1
 90
       50
176
     1
 90
       50
176
     1
290
     0
176
     1
 90
       50
176
     1
 62
   256
176
     0
 40
1.0
176
     0
 90
        2
176
     1
  1
strokes_ogs.tif
176
     1
290
     0
176
     1
 40
1.0
176
     1
 40
1.0
176
     1
  0
VISUALSTYLE
  5
42
102
{ACAD_REACTORS
330
2A
102
}
330
2A
100
AcDbVisualStyle
  2
Shaded
 70
    27
177
     3
291
     0
 70
    58
 90
        2
176
     1
 90
        2
176
     1
 90
        1
176
     1
 90
        2
176
     1
 40
0.6
176
     1
 40
30.0
176
     1
 62
     7
420
 16777215
176
     1
 90
        0
176
     1
 90
        4
176
     1
 62
     7
176
     1
 62
   257
176
     1
 90
        1
176
     1
 90
        1
176
     1
 40
1.0
176
     1
 90
        8
176
     1
 62
   257
176
     1
 40
1.0
176
     1
 90
        1
176
     1
 90
        6
176
     1
 90
        2
176
     1
 62
     8
420
  7895160
176
     1
 90
        3
176
     1
 90
        0
176
     1
 90
        0
176
     1
290
     0
176
     1
 90
        5
176
     1
 40
0.0
176
     1
 90
        0
176
     1
290
     0
176
     1
290
     1
176
     1
290
     1
176
     1
290
     0
176
     1
290
     0
176
     1
290
     0
176
     1
290
     0
176
     1
290
     0
176
     1
290
     0
176
     1
 90
       50
176
     1
 40
0.0
176
     1
 40
1.0
176
     1
 90
        0
176
     1
 62
    18
420
        0
176
     1
 90
       50
176
     1
 90
        3
176
     1
 62
     5
420
      255
176
     1
290
     0
176
     1
 90
       50
176
     1
 90
       50
176
     1
 90
       50
176
     1
290
     0
176
     1
 90
       50
176
     1
 62
   256
176
     0
 40
1.0
176
     0
 90
        2
176
     1
  1
strokes_ogs.tif
176
     1
290
     0
176
     1
 40
1.0
176
     1
 40
1.0
176
     1
  0
VISUALSTYLE
  5
41
102
{ACAD_REACTORS
330
2A
102
}
330
2A
100
AcDbVisualStyle
  2
Shaded with edges
 70
    26
177
     3
291
     0
 70
    58
 90
        2
176
     1
 90
        2
176
     1
 90
        1
176
     1
 90
        2
176
     1
 40
0.6
176
     1
 40
30.0
176
     1
 62
     7
420
 16777215
176
     1
 90
        1
176
     1
 90
       10
176
     1
 62
     7
176
     1
 62
   257
176
     1
 90
        2
176
     1
 90
        1
176
     1
 40
1.0
176
     1
 90
        8
176
     1
 62
   257
176
     1
 40
1.0
176
     1
 90
        1
176
     1
 90
        6
176
     1
 90
        2
176
     1
 62
     7
176
     1
 90
        3
176
     1
 90
        0
176
     1
 90
        0
176
     1
290
     0
176
     1
 90
        5
176
     1
 40
0.0
176
     1
 90
        0
176
     1
290
     0
176
     1
290
     1
176
     1
290
     1
176
     1
290
     0
176
     1
290
     0
176
     1
290
     0
176
     1
290
     0
176
     1
290
     0
176
     1
290
     0
176
     1
 90
       50
176
     1
 40
0.0
176
     1
 40
1.0
176
     1
 90
        0
176
     1
 62
    18
420
        0
176
     1
 90
       50
176
     1
 90
        3
176
     1
 62
     5
420
      255
176
     1
290
     0
176
     1
 90
       50
176
     1
 90
       50
176
     1
 90
       50
176
     1
290
     0
176
     1
 90
       50
176
     1
 62
   256
176
     0
 40
1.0
176
     0
 90
        2
176
     1
  1
strokes_ogs.tif
176
     1
290
     0
176
     1
 40
1.0
176
     1
 40
1.0
176
     1
  0
VISUALSTYLE
  5
3E
102
{ACAD_REACTORS
330
2A
102
}
330
2A
100
AcDbVisualStyle
  2
Shades of Gray
 70
    23
177
     3
291
     0
 70
    58
 90
        2
176
     1
 90
        2
176
     1
 90
        3
176
     1
 90
        0
176
     1
 40
0.6
176
     1
 40
30.0
176
     1
 62
     7
420
 16777215
176
     1
 90
        2
176
     1
 90
        2
176
     1
 62
     7
176
     1
 62
     7
176
     1
 90
        1
176
     1
 90
        1
176
     1
 40
40.0
176
     1
 90
        8
176
     1
 62
     7
176
     1
 40
1.0
176
     1
 90
        1
176
     1
 90
        6
176
     1
 90
        2
176
     1
 62
     7
176
     1
 90
        3
176
     1
 90
        0
176
     1
 90
        0
176
     1
290
     0
176
     1
 90
        1
176
     1
 40
0.0
176
     1
 90
        0
176
     1
290
     0
176
     1
290
     1
176
     1
290
     1
176
     1
290
     0
176
     1
290
     0
176
     1
290
     0
176
     1
290
     0
176
     1
290
     0
176
     1
290
     0
176
     1
 90
       50
176
     1
 40
0.0
176
     1
 40
1.0
176
     1
 90
        0
176
     1
 62
    18
420
        0
176
     1
 90
       50
176
     1
 90
        3
176
     1
 62
     5
420
      255
176
     1
290
     0
176
     1
 90
       50
176
     1
 90
       50
176
     1
 90
       50
176
     1
290
     0
176
     1
 90
       50
176
     1
 62
   256
176
     0
 40
1.0
176
     0
 90
        2
176
     1
  1
strokes_ogs.tif
176
     1
290
     0
176
     1
 40
1.0
176
     1
 40
1.0
176
     1
  0
VISUALSTYLE
  5
3F
102
{ACAD_REACTORS
330
2A
102
}
330
2A
100
AcDbVisualStyle
  2
Sketchy
 70
    24
177
     3
291
     0
 70
    58
 90
        1
176
     1
 90
        2
176
     1
 90
        2
176
     1
 90
        0
176
     1
 40
0.6
176
     1
 40
30.0
176
     1
 62
     7
420
 16777215
176
     1
 90
        2
176
     1
 90
        2
176
     1
 62
     7
176
     1
 62
     7
176
     1
 90
        1
176
     1
 90
        1
176
     1
 40
40.0
176
     1
 90
       11
176
     1
 62
     7
176
     1
 40
1.0
176
     1
 90
        1
176
     1
 90
        6
176
     1
 90
        2
176
     1
 62
     7
176
     1
 90
        6
176
     1
 90
        0
176
     1
 90
        0
176
     1
290
     0
176
     1
 90
        1
176
     1
 40
0.0
176
     1
 90
        0
176
     1
290
     0
176
     1
290
     1
176
     1
290
     1
176
     1
290
     0
176
     1
290
     0
176
     1
290
     0
176
     1
290
     0
176
     1
290
     0
176
     1
290
     0
176
     1
 90
       50
176
     1
 40
0.0
176
     1
 40
1.0
176
     1
 90
        0
176
     1
 62
    18
420
        0
176
     1
 90
       50
176
     1
 90
        3
176
     1
 62
     5
420
      255
176
     1
290
     0
176
     1
 90
       50
176
     1
 90
       50
176
     1
 90
       50
176
     1
290
     0
176
     1
 90
       50
176
     1
 62
   256
176
     0
 40
1.0
176
     0
 90
        2
176
     1
  1
strokes_ogs.tif
176
     1
290
     0
176
     1
 40
1.0
176
     1
 40
1.0
176
     1
  0
VISUALSTYLE
  5
37
102
{ACAD_REACTORS
330
2A
102
}
330
2A
100
AcDbVisualStyle
  2
Thicken
 70
    13
177
     3
291
     1
 70
    58
 90
        2
176
     1
 90
        2
176
     1
 90
        0
176
     1
 90
        0
176
     1
 40
0.6
176
     1
 40
30.0
176
     1
 62
     7
420
 16777215
176
     1
 90
        1
176
     1
 90
        4
176
     1
 62
     7
176
     1
 62
   257
176
     1
 90
        1
176
     1
 90
        1
176
     1
 40
1.0
176
     1
 90
       12
176
     1
 62
     7
176
     1
 40
1.0
176
     1
 90
        1
176
     1
 90
        6
176
     1
 90
        2
176
     1
 62
     7
176
     1
 90
        5
176
     1
 90
        0
176
     1
 90
        0
176
     1
290
     0
176
     1
 90
        1
176
     1
 40
0.0
176
     1
 90
        0
176
     1
290
     0
176
     1
290
     1
176
     1
290
     1
176
     1
290
     0
176
     1
290
     0
176
     1
290
     0
176
     1
290
     0
176
     1
290
     0
176
     1
290
     0
176
     1
 90
       50
176
     1
 40
0.0
176
     1
 40
1.0
176
     1
 90
        0
176
     1
 62
    18
420
        0
176
     1
 90
       50
176
     1
 90
        3
176
     1
 62
     5
420
      255
176
     1
290
     0
176
     1
 90
       50
176
     1
 90
       50
176
     1
 90
       50
176
     1
290
     0
176
     1
 90
       50
176
     1
 62
   256
176
     0
 40
1.0
176
     0
 90
        2
176
     1
  1
strokes_ogs.tif
176
     1
290
     0
176
     1
 40
1.0
176
     1
 40
1.0
176
     1
  0
VISUALSTYLE
  5
30
102
{ACAD_REACTORS
330
2A
102
}
330
2A
100
AcDbVisualStyle
  2
Wireframe
 70
     5
177
     3
291
     0
 70
    58
 90
        0
176
     1
 90
        2
176
     1
 90
        0
176
     1
 90
        0
176
     1
 40
0.6
176
     1
 40
30.0
176
     1
 62
     7
420
 16777215
176
     1
 90
        1
176
     1
 90
        4
176
     1
 62
     7
176
     1
 62
   257
176
     1
 90
        1
176
     1
 90
        1
176
     1
 40
1.0
176
     1
 90
        0
176
     1
 62
   257
176
     1
 40
1.0
176
     1
 90
        1
176
     1
 90
        6
176
     1
 90
        2
176
     1
 62
     7
176
     1
 90
        3
176
     1
 90
        0
176
     1
 90
        0
176
     1
290
     0
176
     1
 90
        1
176
     1
 40
0.0
176
     1
 90
        0
176
     1
290
     0
176
     1
290
     1
176
     1
290
     1
176
     1
290
     0
176
     1
290
     0
176
     1
290
     0
176
     1
290
     0
176
     1
290
     0
176
     1
290
     0
176
     1
 90
       50
176
     1
 40
0.0
176
     1
 40
1.0
176
     1
 90
        0
176
     1
 62
    18
420
        0
176
     1
 90
       50
176
     1
 90
        3
176
     1
 62
     5
420
      255
176
     1
290
     0
176
     1
 90
       50
176
     1
 90
       50
176
     1
 90
       50
176
     1
290
     0
176
     1
 90
       50
176
     1
 62
   256
176
     0
 40
1.0
176
     0
 90
        2
176
     1
  1
strokes_ogs.tif
176
     1
290
     0
176
     1
 40
1.0
176
     1
 40
1.0
176
     1
  0
VISUALSTYLE
  5
40
102
{ACAD_REACTORS
330
2A
102
}
330
2A
100
AcDbVisualStyle
  2
X-Ray
 70
    25
177
     3
291
     0
 70
    58
 90
        2
176
     1
 90
        2
176
     1
 90
        1
176
     1
 90
        1
176
     1
 40
0.5
176
     1
 40
30.0
176
     1
 62
     7
420
 16777215
176
     1
 90
        1
176
     1
 90
        0
176
     1
 62
     7
176
     1
 62
   257
176
     1
 90
        1
176
     1
 90
        1
176
     1
 40
1.0
176
     1
 90
        8
176
     1
 62
     7
176
     1
 40
1.0
176
     1
 90
        1
176
     1
 90
        6
176
     1
 90
        2
176
     1
 62
     7
176
     1
 90
        3
176
     1
 90
        0
176
     1
 90
        0
176
     1
290
     0
176
     1
 90
       13
176
     1
 40
0.0
176
     1
 90
        0
176
     1
290
     0
176
     1
290
     1
176
     1
290
     1
176
     1
290
     0
176
     1
290
     0
176
     1
290
     0
176
     1
290
     0
176
     1
290
     0
176
     1
290
     0
176
     1
 90
       50
176
     1
 40
0.0
176
     1
 40
1.0
176
     1
 90
        0
176
     1
 62
    18
420
        0
176
     1
 90
       50
176
     1
 90
        3
176
     1
 62
     5
420
      255
176
     1
290
     0
176
     1
 90
       50
176
     1
 90
       50
176
     1
 90
       50
176
     1
290
     0
176
     1
 90
       50
176
     1
 62
   256
176
     0
 40
1.0
176
     0
 90
        2
176
     1
  1
strokes_ogs.tif
176
     1
290
     0
176
     1
 40
1.0
176
     1
 40
1.0
176
     1
  0
DICTIONARYVAR
  5
30A
102
{ACAD_REACTORS
330
309
102
}
330
309
100
DictionaryVariables
280
     0
  1
1:1
  0
ENDSEC
  0
EOF
