0
SECTION
2
HEADER
9
$INSUNITS
70
4
9
$ACADVER
1
AC1014
9
$HANDSEED
5
FFFF
0
ENDSEC
0
SECTION
2
TABLES
0
TABLE
2
VPORT
5
8
100
AcDbSymbolTable
0
ENDTAB
0
TABLE
2
LTYPE
5
5
100
AcDbSymbolTable
0
LTYPE
5
14
100
AcDbSymbolTableRecord
100
AcDbLinetypeTableRecord
2
BYBLOCK
70
0
0
LTYPE
5
15
100
AcDbSymbolTableRecord
100
AcDbLinetypeTableRecord
2
BYLAYER
70
0
0
ENDTAB
0
TABLE
2
LAYER
5
2
100
AcDbSymbolTable
70
2
0
LAYER
5
50
100
AcDbSymbolTableRecord
100
AcDbLayerTableRecord
2
0
70
0
6
CONTINUOUS
0
ENDTAB
0
TABLE
2
STYLE
5
3
100
AcDbSymbolTable
70
1
0
STYLE
5
11
100
AcDbSymbolTableRecord
100
AcDbTextStyleTableRecord
2
STANDARD
70
0
0
ENDTAB
0
TABLE
2
VIEW
5
6
100
AcDbSymbolTable
70
0
0
ENDTAB
0
TABLE
2
UCS
5
7
100
AcDbSymbolTable
70
0
0
ENDTAB
0
TABLE
2
APPID
5
9
100
AcDbSymbolTable
70
2
0
APPID
5
12
100
AcDbSymbolTableRecord
100
AcDbRegAppTableRecord
2
ACAD
70
0
0
ENDTAB
0
TABLE
2
DIMSTYLE
5
A
100
AcDbSymbolTable
70
1
0
ENDTAB
0
TABLE
2
BLOCK_RECORD
5
1
100
AcDbSymbolTable
70
1
0
BLOCK_RECORD
5
1F
100
AcDbSymbolTableRecord
100
AcDbBlockTableRecord
2
*MODEL_SPACE
0
BLOCK_RECORD
5
1B
100
AcDbSymbolTableRecord
100
AcDbBlockTableRecord
2
*PAPER_SPACE
0
ENDTAB
0
ENDSEC
0
SECTION
2
BLOCKS
0
BLOCK
5
20
100
AcDbEntity
100
AcDbBlockBegin
2
*MODEL_SPACE
0
ENDBLK
5
21
100
AcDbEntity
100
AcDbBlockEnd
0
BLOCK
5
1C
100
AcDbEntity
100
AcDbBlockBegin
2
*PAPER_SPACE
0
ENDBLK
5
1D
100
AcDbEntity
100
AcDbBlockEnd
0
ENDSEC
0
SECTION
2
ENTITIES
0
LWPOLYLINE
5
100
100
AcDbEntity
8
0
100
AcDbPolyline
90
4
70
1
43
0.0
10
14.500000000000002
20
-0.99999999999999978
10
14.500000000000002
20
-4
42
0.99999999999999989
10
16.5
20
-4
10
16.5
20
-0.99999999999999989
42
0.99999999999999989
0
LWPOLYLINE
5
101
100
AcDbEntity
8
0
100
AcDbPolyline
90
4
70
1
43
0.0
10
-16.5
20
-0.99999999999999978
10
-16.5
20
-4
42
0.99999999999999989
10
-14.5
20
-4
10
-14.500000000000002
20
-0.99999999999999989
42
0.99999999999999989
0
LWPOLYLINE
5
102
100
AcDbEntity
8
0
100
AcDbPolyline
90
4
70
1
43
0.0
10
1.9999999999999993
20
24.000000327825546
10
-1.9999999999999998
20
24.000000327825546
42
0.99999999999999989
10
-2.0000000000000009
20
20.000000327825546
10
1.9999999999999993
20
20.000000327825546
42
0.99999999999999989
0
CIRCLE
5
103
100
AcDbEntity
8
0
100
AcDbCircle
10
-12.000000178813934
20
22.000000327825546
30
0
40
1.0000000000000009
0
CIRCLE
5
104
100
AcDbEntity
8
0
100
AcDbCircle
10
12.000000178813934
20
22.000000327825546
30
0
40
1.0000000000000009
0
LWPOLYLINE
5
105
100
AcDbEntity
8
0
100
AcDbPolyline
90
8
70
1
43
0.0
10
-4.0000000149011612
20
2.0000000298023219
10
-9.5000001788139343
20
2.0000000298023215
42
0.41421356237309509
10
-11.500000178813934
20
2.9802320611338473e-08
10
-11.500000178813934
20
-14.000000238418579
42
0.41421356237309503
10
-9.5000001788139343
20
-16.000000238418579
10
-4.0000000149011621
20
-16.000000238418579
42
0.41421356237309481
10
-2.0000000149011612
20
-14.000000238418583
10
-2.0000000149011616
20
2.9802321492945337e-08
42
0.41421356237309509
0
LWPOLYLINE
5
106
100
AcDbEntity
8
0
100
AcDbPolyline
90
6
70
1
43
0.0
10
12.000000178813934
20
-8.0000001788139343
10
12.000000178813934
20
-6.0000000298023224
42
0.41421357110199319
10
8.0000000596046466
20
-2.0000000298023224
42
0.41421356237309515
10
4.0000000596046448
20
-6.0000000298023215
10
4.0000000596046448
20
-8.0000001788139325
42
0.41421357110199325
10
8.0000001788139325
20
-12.000000178813934
42
0.41421356237309515
0
CIRCLE
5
107
100
AcDbEntity
8
0
100
AcDbCircle
10
0
20
-38.750000670552254
30
0
40
3.25
0
CIRCLE
5
108
100
AcDbEntity
8
0
100
AcDbCircle
10
-12.000000000000002
20
-41.000000670552254
30
0
40
1.5000000000000002
0
CIRCLE
5
109
100
AcDbEntity
8
0
100
AcDbCircle
10
12.000000000000002
20
-41.000000670552254
30
0
40
1.5000000000000002
0
CIRCLE
5
110
100
AcDbEntity
8
0
100
AcDbCircle
10
-12.000000000000002
20
51
30
0
40
1.5000000000000002
0
CIRCLE
5
111
100
AcDbEntity
8
0
100
AcDbCircle
10
12.000000000000002
20
51
30
0
40
1.5000000000000002
0
LWPOLYLINE
5
112
100
AcDbEntity
8
0
100
AcDbPolyline
90
24
70
1
43
0.0
10
16.000000000000007
20
-41.000000670552254
42
-0.41421356237309503
10
12.000000000000002
20
-45.000000670552254
10
-12.000000000000002
20
-45.000000670552254
42
-0.41421356237309503
10
-16
20
-41.000000670552254
10
-15.999999999999996
20
-22.928203230275514
42
0.26794919243112275
10
-18
20
-19.464101615137757
42
-0.2679491924311232
10
-20
20
-16
10
-19.999999999999996
20
16
42
-0.26794919243112331
10
-18
20
19.464101615137757
42
0.26794919243112281
10
-16
20
22.928203230275514
10
-16.000000000000004
20
51
42
-0.99999999999999989
10
-8
20
51
10
-8
20
38
42
0.41421356237309509
10
-4
20
34
10
3.9999999999999991
20
34
42
0.41421356237309515
10
8
20
38
10
8.0000000000000036
20
51
42
-0.99999999999999989
10
16
20
51
10
15.999999999999996
20
22.928203230275514
42
0.26794919243112275
10
18
20
19.464101615137757
42
-0.2679491924311232
10
20
20
16
10
19.999999999999996
20
-16
42
-0.26794919243112331
10
18
20
-19.464101615137757
42
0.26794919243112281
10
16
20
-22.928203230275514
0
ENDSEC
0
SECTION
2
OBJECTS
0
DICTIONARY
5
C
100
AcDbDictionary
3
ACAD_GROUP
350
D
3
ACAD_MLINESTYLE
350
17
0
DICTIONARY
5
D
100
AcDbDictionary
0
DICTIONARY
5
1A
330
C
100
AcDbDictionary
0
DICTIONARY
5
17
100
AcDbDictionary
0
ENDSEC
0
EOF
