  0
SECTION
  2
HEADER
  9
$ACADVER
  1
AC1015
  9
$ACADMAINTVER
 70
     6
  9
$DWGCODEPAGE
  3
ANSI_1252
  9
$INSBASE
 10
0.0
 20
0.0
 30
0.0
  9
$EXTMIN
 10
-100.4061007058
 20
-95.5839598968
 30
0.0
  9
$EXTMAX
 10
100.4061007058
 20
94.35830261
 30
0.0
  9
$LIMMIN
 10
0.0
 20
0.0
  9
$LIMMAX
 10
420.0
 20
297.0
  9
$ORTHOMODE
 70
     0
  9
$REGENMODE
 70
     1
  9
$FILLMODE
 70
     1
  9
$QTEXTMODE
 70
     0
  9
$MIRRTEXT
 70
     1
  9
$LTSCALE
 40
1.0
  9
$ATTMODE
 70
     1
  9
$TEXTSIZE
 40
3.5
  9
$TRACEWID
 40
1.0
  9
$TEXTSTYLE
  7
Standard
  9
$CLAYER
  8
0
  9
$CELTYPE
  6
ByLayer
  9
$CECOLOR
 62
   256
  9
$CELTSCALE
 40
1.0
  9
$DISPSILH
 70
     0
  9
$DIMSCALE
 40
1.0
  9
$DIMASZ
 40
3.556
  9
$DIMEXO
 40
1.0
  9
$DIMDLI
 40
3.75
  9
$DIMRND
 40
0.0
  9
$DIMDLE
 40
0.0
  9
$DIMEXE
 40
1.0
  9
$DIMTP
 40
0.0
  9
$DIMTM
 40
0.0
  9
$DIMTXT
 40
3.5
  9
$DIMCEN
 40
2.5
  9
$DIMTSZ
 40
0.0
  9
$DIMTOL
 70
     0
  9
$DIMLIM
 70
     0
  9
$DIMTIH
 70
     1
  9
$DIMTOH
 70
     1
  9
$DIMSE1
 70
     0
  9
$DIMSE2
 70
     0
  9
$DIMTAD
 70
     1
  9
$DIMZIN
 70
     0
  9
$DIMBLK
  1

  9
$DIMASO
 70
     1
  9
$DIMSHO
 70
     1
  9
$DIMPOST
  1

  9
$DIMAPOST
  1

  9
$DIMALT
 70
     0
  9
$DIMALTD
 70
     3
  9
$DIMALTF
 40
0.0393700787
  9
$DIMLFAC
 40
1.0
  9
$DIMTOFL
 70
     1
  9
$DIMTVP
 40
0.0
  9
$DIMTIX
 70
     0
  9
$DIMSOXD
 70
     0
  9
$DIMSAH
 70
     0
  9
$DIMBLK1
  1

  9
$DIMBLK2
  1

  9
$DIMSTYLE
  2
ISO-25
  9
$DIMCLRD
 70
     0
  9
$DIMCLRE
 70
     0
  9
$DIMCLRT
 70
     0
  9
$DIMTFAC
 40
1.0
  9
$DIMGAP
 40
1.524
  9
$DIMJUST
 70
     0
  9
$DIMSD1
 70
     0
  9
$DIMSD2
 70
     0
  9
$DIMTOLJ
 70
     0
  9
$DIMTZIN
 70
     0
  9
$DIMALTZ
 70
     0
  9
$DIMALTTZ
 70
     0
  9
$DIMUPT
 70
     0
  9
$DIMDEC
 70
     2
  9
$DIMTDEC
 70
     2
  9
$DIMALTU
 70
     2
  9
$DIMALTTD
 70
     3
  9
$DIMTXSTY
  7
Standard
  9
$DIMAUNIT
 70
     0
  9
$DIMADEC
 70
     2
  9
$DIMALTRND
 40
0.0
  9
$DIMAZIN
 70
     0
  9
$DIMDSEP
 70
    44
  9
$DIMATFIT
 70
     3
  9
$DIMFRAC
 70
     0
  9
$DIMLDRBLK
  1

  9
$DIMLUNIT
 70
     2
  9
$DIMLWD
 70
    -2
  9
$DIMLWE
 70
    -2
  9
$DIMTMOVE
 70
     0
  9
$LUNITS
 70
     2
  9
$LUPREC
 70
     2
  9
$SKETCHINC
 40
1.0
  9
$FILLETRAD
 40
10.0
  9
$AUNITS
 70
     0
  9
$AUPREC
 70
     2
  9
$MENU
  1
.
  9
$ELEVATION
 40
0.0
  9
$PELEVATION
 40
0.0
  9
$THICKNESS
 40
0.0
  9
$LIMCHECK
 70
     0
  9
$CHAMFERA
 40
10.0
  9
$CHAMFERB
 40
10.0
  9
$CHAMFERC
 40
20.0
  9
$CHAMFERD
 40
0.0
  9
$SKPOLY
 70
     0
  9
$TDCREATE
 40
2457556.612376204
  9
$TDUCREATE
 40
2457556.52904287
  9
$TDUPDATE
 40
2457556.612400752
  9
$TDUUPDATE
 40
2457556.529067419
  9
$TDINDWG
 40
0.0000000116
  9
$TDUSRTIMER
 40
0.0000000116
  9
$USRTIMER
 70
     1
  9
$ANGBASE
 50
0.0
  9
$ANGDIR
 70
     0
  9
$PDMODE
 70
     0
  9
$PDSIZE
 40
-1.0
  9
$PLINEWID
 40
0.0
  9
$SPLFRAME
 70
     0
  9
$SPLINETYPE
 70
     6
  9
$SPLINESEGS
 70
     8
  9
$HANDSEED
  5
F9
  9
$SURFTAB1
 70
     6
  9
$SURFTAB2
 70
     6
  9
$SURFTYPE
 70
     6
  9
$SURFU
 70
     6
  9
$SURFV
 70
     6
  9
$UCSBASE
  2

  9
$UCSNAME
  2

  9
$UCSORG
 10
0.0
 20
0.0
 30
0.0
  9
$UCSXDIR
 10
1.0
 20
0.0
 30
0.0
  9
$UCSYDIR
 10
0.0
 20
1.0
 30
0.0
  9
$UCSORTHOREF
  2

  9
$UCSORTHOVIEW
 70
     0
  9
$UCSORGTOP
 10
0.0
 20
0.0
 30
0.0
  9
$UCSORGBOTTOM
 10
0.0
 20
0.0
 30
0.0
  9
$UCSORGLEFT
 10
0.0
 20
0.0
 30
0.0
  9
$UCSORGRIGHT
 10
0.0
 20
0.0
 30
0.0
  9
$UCSORGFRONT
 10
0.0
 20
0.0
 30
0.0
  9
$UCSORGBACK
 10
0.0
 20
0.0
 30
0.0
  9
$PUCSBASE
  2

  9
$PUCSNAME
  2

  9
$PUCSORG
 10
0.0
 20
0.0
 30
0.0
  9
$PUCSXDIR
 10
1.0
 20
0.0
 30
0.0
  9
$PUCSYDIR
 10
0.0
 20
1.0
 30
0.0
  9
$PUCSORTHOREF
  2

  9
$PUCSORTHOVIEW
 70
     0
  9
$PUCSORGTOP
 10
0.0
 20
0.0
 30
0.0
  9
$PUCSORGBOTTOM
 10
0.0
 20
0.0
 30
0.0
  9
$PUCSORGLEFT
 10
0.0
 20
0.0
 30
0.0
  9
$PUCSORGRIGHT
 10
0.0
 20
0.0
 30
0.0
  9
$PUCSORGFRONT
 10
0.0
 20
0.0
 30
0.0
  9
$PUCSORGBACK
 10
0.0
 20
0.0
 30
0.0
  9
$USERI1
 70
     0
  9
$USERI2
 70
     0
  9
$USERI3
 70
     0
  9
$USERI4
 70
     0
  9
$USERI5
 70
     0
  9
$USERR1
 40
0.0
  9
$USERR2
 40
0.0
  9
$USERR3
 40
0.0
  9
$USERR4
 40
0.0
  9
$USERR5
 40
0.0
  9
$WORLDVIEW
 70
     1
  9
$SHADEDGE
 70
     3
  9
$SHADEDIF
 70
    70
  9
$TILEMODE
 70
     1
  9
$MAXACTVP
 70
    64
  9
$PINSBASE
 10
0.0
 20
0.0
 30
0.0
  9
$PLIMCHECK
 70
     0
  9
$PEXTMIN
 10
1.0000000000E+20
 20
1.0000000000E+20
 30
1.0000000000E+20
  9
$PEXTMAX
 10
-1.0000000000E+20
 20
-1.0000000000E+20
 30
-1.0000000000E+20
  9
$PLIMMIN
 10
0.0
 20
0.0
  9
$PLIMMAX
 10
420.0
 20
297.0
  9
$UNITMODE
 70
     0
  9
$VISRETAIN
 70
     1
  9
$PLINEGEN
 70
     0
  9
$PSLTSCALE
 70
     1
  9
$TREEDEPTH
 70
  3020
  9
$CMLSTYLE
  2
Standard
  9
$CMLJUST
 70
     0
  9
$CMLSCALE
 40
20.0
  9
$PROXYGRAPHICS
 70
     1
  9
$MEASUREMENT
 70
     1
  9
$CELWEIGHT
370
    -1
  9
$ENDCAPS
280
     0
  9
$JOINSTYLE
280
     0
  9
$LWDISPLAY
290
     1
  9
$INSUNITS
 70
     4
  9
$HYPERLINKBASE
  1

  9
$STYLESHEET
  1

  9
$XEDIT
290
     1
  9
$CEPSNTYPE
380
     0
  9
$PSTYLEMODE
290
     1
  9
$FINGERPRINTGUID
  2
{D7E1E5BD-19A6-4F08-90D4-BBC387649434}
  9
$VERSIONGUID
  2
{FAEB1C32-E019-11D5-929B-00C0DF256EC4}
  9
$EXTNAMES
290
     1
  9
$PSVPSCALE
 40
0.0
  9
$OLESTARTUP
290
     0
  0
ENDSEC
  0
SECTION
  2
CLASSES
  0
CLASS
  1
ACDBDICTIONARYWDFLT
  2
AcDbDictionaryWithDefault
  3
ObjectDBX Classes
 90
        0
280
     0
281
     0
  0
CLASS
  1
VISUALSTYLE
  2
AcDbVisualStyle
  3
ObjectDBX Classes
 90
     4095
280
     0
281
     0
  0
CLASS
  1
MATERIAL
  2
AcDbMaterial
  3
ObjectDBX Classes
 90
     1153
280
     0
281
     0
  0
CLASS
  1
ACDBPLACEHOLDER
  2
AcDbPlaceHolder
  3
ObjectDBX Classes
 90
        0
280
     0
281
     0
  0
CLASS
  1
LAYOUT
  2
AcDbLayout
  3
ObjectDBX Classes
 90
        0
280
     0
281
     0
  0
ENDSEC
  0
SECTION
  2
TABLES
  0
TABLE
  2
VPORT
  5
8
330
0
100
AcDbSymbolTable
 70
     1
  0
VPORT
  5
29
330
8
100
AcDbSymbolTableRecord
100
AcDbViewportTableRecord
  2
*Active
 70
     0
 10
0.0
 20
0.0
 11
1.0
 21
1.0
 12
0.0
 22
-0.6128286434
 13
0.0
 23
0.0
 14
10.0
 24
10.0
 15
10.0
 25
10.0
 16
0.0
 26
0.0
 36
1.0
 17
0.0
 27
0.0
 37
0.0
 40
193.7411077569
 41
1.0572275952
 42
50.0
 43
0.0
 44
0.0
 50
0.0
 51
0.0
 71
     0
 72
   100
 73
     1
 74
     3
 75
     0
 76
     0
 77
     0
 78
     0
281
     0
 65
     1
110
0.0
120
0.0
130
0.0
111
1.0
121
0.0
131
0.0
112
0.0
122
1.0
132
0.0
 79
     0
146
0.0
  0
ENDTAB
  0
TABLE
  2
LTYPE
  5
5
330
0
100
AcDbSymbolTable
 70
     6
  0
LTYPE
  5
14
330
5
100
AcDbSymbolTableRecord
100
AcDbLinetypeTableRecord
  2
ByBlock
 70
     0
  3

 72
    65
 73
     0
 40
0.0
  0
LTYPE
  5
15
330
5
100
AcDbSymbolTableRecord
100
AcDbLinetypeTableRecord
  2
ByLayer
 70
     0
  3

 72
    65
 73
     0
 40
0.0
  0
LTYPE
  5
16
330
5
100
AcDbSymbolTableRecord
100
AcDbLinetypeTableRecord
  2
Continuous
 70
     0
  3
Solid line
 72
    65
 73
     0
 40
0.0
  0
LTYPE
  5
3F
330
5
100
AcDbSymbolTableRecord
100
AcDbLinetypeTableRecord
  2
HIDDEN
 70
     0
  3
Hidden __ __ __ __ __ __ __ __ __ __ __ __ __ __
 72
    65
 73
     2
 40
1.905
 49
1.27
 74
     0
 49
-0.635
 74
     0
  0
LTYPE
  5
40
330
5
100
AcDbSymbolTableRecord
100
AcDbLinetypeTableRecord
  2
PHANTOM
 70
     0
  3
Phantom ______  __  __  ______  __  __  ______
 72
    65
 73
     6
 40
12.7
 49
6.35
 74
     0
 49
-1.27
 74
     0
 49
1.27
 74
     0
 49
-1.27
 74
     0
 49
1.27
 74
     0
 49
-1.27
 74
     0
  0
LTYPE
  5
41
330
5
100
AcDbSymbolTableRecord
100
AcDbLinetypeTableRecord
  2
CENTER
 70
     0
  3
Center ____ _ ____ _ ____ _ ____ _ ____ _ ____
 72
    65
 73
     4
 40
10.16
 49
6.35
 74
     0
 49
-1.27
 74
     0
 49
1.27
 74
     0
 49
-1.27
 74
     0
  0
LTYPE
  5
42
330
5
100
AcDbSymbolTableRecord
100
AcDbLinetypeTableRecord
  2
CENTERX2
 70
     0
  3
Center (2x) ________  __  ________  __  _____
 72
    65
 73
     4
 40
20.32
 49
12.7
 74
     0
 49
-2.54
 74
     0
 49
2.54
 74
     0
 49
-2.54
 74
     0
  0
LTYPE
  5
43
330
5
100
AcDbSymbolTableRecord
100
AcDbLinetypeTableRecord
  2
DOT2
 70
     0
  3
Dot (.5x) ........................................
 72
    65
 73
     2
 40
0.635
 49
0.0
 74
     0
 49
-0.635
 74
     0
  0
ENDTAB
  0
TABLE
  2
LAYER
  5
2
330
0
100
AcDbSymbolTable
 70
     1
  0
LAYER
  5
10
330
2
100
AcDbSymbolTableRecord
100
AcDbLayerTableRecord
  2
0
 70
     0
 62
     7
  6
Continuous
370
    -3
390
F
  0
ENDTAB
  0
TABLE
  2
STYLE
  5
3
330
0
100
AcDbSymbolTable
 70
     1
  0
STYLE
  5
11
330
3
100
AcDbSymbolTableRecord
100
AcDbTextStyleTableRecord
  2
Standard
 70
     0
 40
0.0
 41
1.0
 50
0.0
 71
     0
 42
3.5
  3
txt
  4

  0
ENDTAB
  0
TABLE
  2
VIEW
  5
6
330
0
100
AcDbSymbolTable
 70
     0
  0
ENDTAB
  0
TABLE
  2
UCS
  5
7
330
0
100
AcDbSymbolTable
 70
     0
  0
ENDTAB
  0
TABLE
  2
APPID
  5
9
330
0
100
AcDbSymbolTable
 70
     1
  0
APPID
  5
12
330
9
100
AcDbSymbolTableRecord
100
AcDbRegAppTableRecord
  2
ACAD
 70
     0
  0
ENDTAB
  0
TABLE
  2
DIMSTYLE
  5
A
330
0
100
AcDbSymbolTable
 70
     1
100
AcDbDimStyleTable
  0
DIMSTYLE
105
27
330
A
100
AcDbSymbolTableRecord
100
AcDbDimStyleTableRecord
  2
ISO-25
 70
     0
 41
2.5
 42
0.625
 43
3.75
 44
1.25
 73
     0
 74
     0
 77
     1
 78
     8
140
2.5
141
2.5
143
0.0393700787
147
0.625
171
     3
172
     1
178
     0
271
     2
272
     2
274
     3
278
    44
283
     0
284
     8
340
11
  0
ENDTAB
  0
TABLE
  2
BLOCK_RECORD
  5
1
330
0
100
AcDbSymbolTable
 70
     1
  0
BLOCK_RECORD
  5
1F
330
1
100
AcDbSymbolTableRecord
100
AcDbBlockTableRecord
  2
*Model_Space
340
22
  0
BLOCK_RECORD
  5
1B
330
1
100
AcDbSymbolTableRecord
100
AcDbBlockTableRecord
  2
*Paper_Space
340
1E
  0
BLOCK_RECORD
  5
23
330
1
100
AcDbSymbolTableRecord
100
AcDbBlockTableRecord
  2
*Paper_Space0
340
26
  0
ENDTAB
  0
ENDSEC
  0
SECTION
  2
BLOCKS
  0
BLOCK
  5
20
330
1F
100
AcDbEntity
  8
0
100
AcDbBlockBegin
  2
*Model_Space
 70
     0
 10
0.0
 20
0.0
 30
0.0
  3
*Model_Space
  1

  0
ENDBLK
  5
21
330
1F
100
AcDbEntity
  8
0
100
AcDbBlockEnd
  0
BLOCK
  5
1C
330
1B
100
AcDbEntity
 67
     1
  8
0
100
AcDbBlockBegin
  2
*Paper_Space
 70
     0
 10
0.0
 20
0.0
 30
0.0
  3
*Paper_Space
  1

  0
ENDBLK
  5
1D
330
1B
100
AcDbEntity
 67
     1
  8
0
100
AcDbBlockEnd
  0
BLOCK
  5
24
330
23
100
AcDbEntity
  8
0
100
AcDbBlockBegin
  2
*Paper_Space0
 70
     0
 10
0.0
 20
0.0
 30
0.0
  3
*Paper_Space0
  1

  0
ENDBLK
  5
25
330
23
100
AcDbEntity
  8
0
100
AcDbBlockEnd
  0
ENDSEC
  0
SECTION
  2
ENTITIES
  0
LINE
  5
44
330
1F
100
AcDbEntity
  8
0
  6
Continuous
 62
     7
370
    15
100
AcDbLine
 10
4.5226654031
 20
-8.3826880837
 30
0.0
 11
-8.9461339362
 21
1.5606313691
 31
0.0
  0
LINE
  5
45
330
1F
100
AcDbEntity
  8
0
  6
Continuous
 62
     7
370
    15
100
AcDbLine
 10
-8.9461339362
 20
1.5606313691
 30
0.0
 11
-8.9461339362
 21
11.7971854439
 31
0.0
  0
LINE
  5
46
330
1F
100
AcDbEntity
  8
0
  6
Continuous
 62
     7
370
    15
100
AcDbLine
 10
-8.9461339362
 20
11.7971854439
 30
0.0
 11
3.1997773928
 21
2.8302039937
 31
0.0
  0
SPLINE
  5
47
330
1F
100
AcDbEntity
  8
0
  6
Continuous
 62
     7
370
    15
100
AcDbSpline
210
0.0
220
0.0
230
1.0
 70
     8
 71
     3
 72
    31
 73
    27
 74
     0
 42
0.00000001
 43
0.00000001
 12
1.0
 22
0.0
 32
0.0
 13
1.0
 23
0.0
 33
0.0
 40
0.0
 40
0.0
 40
0.0
 40
0.0
 40
0.0339627276746529
 40
0.0657704465334227
 40
0.0951742262110727
 40
0.1221827812512788
 40
0.1470651830269433
 40
0.169714296814655
 40
0.1900106735241107
 40
0.2079809814065701
 40
0.2257455870005655
 40
0.2450851759847607
 40
0.266175159640093
 40
0.2889654549081661
 40
0.3137509852806972
 40
0.3403186234270553
 40
0.3686989353762253
 40
0.3989893246835458
 40
0.4629152016602415
 40
0.5297482170023023
 40
0.5999725250962228
 40
0.6734992445390611
 40
0.7503271131449044
 40
0.8302286966560882
 40
0.9133414931012239
 40
0.9999999999999999
 40
0.9999999999999999
 40
0.9999999999999999
 40
0.9999999999999999
 10
3.199777392781235
 20
2.830203993653843
 30
0.0
 10
3.365666460217931
 20
2.707430573218699
 30
0.0
 10
3.686918573559445
 20
2.469673972458933
 30
0.0
 10
4.145455084736572
 20
2.117184368076758
 30
0.0
 10
4.565604556145185
 20
1.784221550490361
 30
0.0
 10
4.947302988508215
 20
1.470561808670082
 30
0.0
 10
5.289688824102387
 20
1.17398416847707
 30
0.0
 10
5.596680421248713
 20
0.8989042297987785
 30
0.0
 10
5.863744534912675
 20
0.6424837086252039
 30
0.0
 10
6.10038310514452
 20
0.397526131365657
 30
0.0
 10
6.318047341157137
 20
0.1429199266731819
 30
0.0
 10
6.526885912688403
 20
-0.1427165188460997
 30
0.0
 10
6.740473786463614
 20
-0.4621734514598297
 30
0.0
 10
6.953441560902726
 20
-0.8211739626497001
 30
0.0
 10
7.169339660066356
 20
-1.216696906048856
 30
0.0
 10
7.385696543926264
 20
-1.650347219713971
 30
0.0
 10
7.601018326017727
 20
-2.121471454883682
 30
0.0
 10
7.899738268782857
 20
-2.804006193412666
 30
0.0
 10
8.244337718069943
 20
-3.72071981047179
 30
0.0
 10
8.609865111647508
 20
-4.886757034245899
 30
0.0
 10
8.912718337777957
 20
-6.130821240082271
 30
0.0
 10
9.164942046431483
 20
-7.447693938384625
 30
0.0
 10
9.363809330533892
 20
-8.833161419027494
 30
0.0
 10
9.5065408432191
 20
-10.2840081051476
 30
0.0
 10
9.589429190088897
 20
-11.79945213124478
 30
0.0
 10
9.601472768674691
 20
-12.83108874018126
 30
0.0
 10
9.607620324341676
 20
-13.3576800216975
 30
0.0
  0
SPLINE
  5
48
330
1F
100
AcDbEntity
  8
0
  6
Continuous
 62
     7
370
    15
100
AcDbSpline
210
0.0
220
0.0
230
1.0
 70
     8
 71
     3
 72
    39
 73
    35
 74
     0
 42
0.00000001
 43
0.00000001
 12
1.0
 22
0.0
 32
0.0
 13
1.0
 23
0.0
 33
0.0
 40
0.0
 40
0.0
 40
0.0
 40
0.0
 40
0.0537949763818575
 40
0.1053395215947183
 40
0.1546696150050021
 40
0.201584737007492
 40
0.2461485058636301
 40
0.2885865592697775
 40
0.3287374867563628
 40
0.3668543649299145
 40
0.4023444340764526
 40
0.4350152612208914
 40
0.4649334783895162
 40
0.4921859154322411
 40
0.5167037119672553
 40
0.53900893644762
 40
0.55909365478624
 40
0.5771668815047454
 40
0.5938200110712409
 40
0.6094141095390226
 40
0.6242259044364228
 40
0.6385774481700356
 40
0.652822044527544
 40
0.6673208176354408
 40
0.682216970172239
 40
0.6982144308867487
 40
0.7172970920347731
 40
0.74168634946647
 40
0.7713565031818332
 40
0.8064536268243216
 40
0.8467571326615541
 40
0.8924461898602958
 40
0.9435259259099006
 40
1.0
 40
1.0
 40
1.0
 40
1.0
 10
9.607620324341676
 20
-13.3576800216975
 30
0.0
 10
9.605104637712286
 20
-13.64758900547934
 30
0.0
 10
9.600178504384496
 20
-14.21527907082695
 30
0.0
 10
9.579154231583336
 20
-15.04870518666453
 30
0.0
 10
9.533505748831852
 20
-15.84395178266971
 30
0.0
 10
9.480098384673827
 20
-16.60103468505489
 30
0.0
 10
9.402173401876373
 20
-17.31868834589811
 30
0.0
 10
9.310105678466263
 20
-17.99784439850891
 30
0.0
 10
9.200229591475999
 20
-18.63917223164761
 30
0.0
 10
9.074851553683521
 20
-19.2394567051874
 30
0.0
 10
8.935349414821932
 20
-19.79512427690533
 30
0.0
 10
8.786441854997802
 20
-20.30249684224031
 30
0.0
 10
8.627055684716137
 20
-20.75988797651544
 30
0.0
 10
8.45931807666512
 20
-21.16737714600024
 30
0.0
 10
8.27782155793327
 20
-21.52327008543509
 30
0.0
 10
8.091325169957475
 20
-21.83271212935813
 30
0.0
 10
7.886727941058378
 20
-22.0875016041323
 30
0.0
 10
7.675068099899893
 20
-22.29477268213772
 30
0.0
 10
7.455909120232688
 20
-22.4557922773697
 30
0.0
 10
7.234814653426487
 20
-22.58140528055347
 30
0.0
 10
7.009322942259985
 20
-22.66962544878747
 30
0.0
 10
6.780006595936527
 20
-22.72064764159452
 30
0.0
 10
6.547144771475886
 20
-22.73394785099909
 30
0.0
 10
6.31215529249475
 20
-22.71026128622939
 30
0.0
 10
6.074710091460134
 20
-22.64789856075692
 30
0.0
 10
5.824902919088334
 20
-22.54543754328237
 30
0.0
 10
5.543107109200331
 20
-22.39218531595183
 30
0.0
 10
5.202874811130366
 20
-22.19299506432509
 30
0.0
 10
4.801554484089305
 20
-21.92851868983598
 30
0.0
 10
4.327932645443561
 20
-21.61816306029515
 30
0.0
 10
3.791897867722373
 20
-21.24581458537543
 30
0.0
 10
3.188726655554129
 20
-20.81931955904906
 30
0.0
 10
2.519076597826169
 20
-20.33590702305587
 30
0.0
 10
2.052107732425241
 20
-19.99249290513279
 30
0.0
 10
1.806912938599091
 20
-19.8121739158382
 30
0.0
  0
LINE
  5
49
330
1F
100
AcDbEntity
  8
0
  6
Continuous
 62
     7
370
    15
100
AcDbLine
 10
1.8069129386
 20
-19.8121739158
 30
0.0
 11
-8.9461339362
 21
-11.874845854
 31
0.0
  0
LINE
  5
4A
330
1F
100
AcDbEntity
  8
0
  6
Continuous
 62
     7
370
    15
100
AcDbLine
 10
-8.9461339362
 20
-11.874845854
 30
0.0
 11
-8.9461339362
 21
-1.6382917792
 31
0.0
  0
LINE
  5
4B
330
1F
100
AcDbEntity
  8
0
  6
Continuous
 62
     7
370
    15
100
AcDbLine
 10
-8.9461339362
 20
-1.6382917792
 30
0.0
 11
4.7592524276
 21
-11.7548862359
 31
0.0
  0
SPLINE
  5
4C
330
1F
100
AcDbEntity
  8
0
  6
Continuous
 62
     7
370
    15
100
AcDbSpline
210
0.0
220
0.0
230
1.0
 70
     8
 71
     3
 72
    23
 73
    19
 74
     0
 42
0.00000001
 43
0.00000001
 12
1.0
 22
0.0
 32
0.0
 13
1.0
 23
0.0
 33
0.0
 40
0.0
 40
0.0
 40
0.0
 40
0.0
 40
0.1232321298415727
 40
0.2318864050420465
 40
0.3279904851199658
 40
0.4097367380970319
 40
0.4799128924513626
 40
0.5362484124402696
 40
0.5805097771134097
 40
0.6142182281840637
 40
0.6425235531713018
 40
0.673928801294022
 40
0.7081148457179087
 40
0.7497818582015846
 40
0.7991240221793814
 40
0.856833781186319
 40
0.9244108187127118
 40
1.0
 40
1.0
 40
1.0
 40
1.0
 10
4.759252427607177
 20
-11.75488623590417
 30
0.0
 10
4.854532150457028
 20
-11.8240839888137
 30
0.0
 10
5.033820396415761
 20
-11.95429368477372
 30
0.0
 10
5.291074900707359
 20
-12.13347915071854
 30
0.0
 10
5.52316702656901
 20
-12.27884509222554
 30
0.0
 10
5.72819467919503
 20
-12.39789634245767
 30
0.0
 10
5.905857918826698
 20
-12.48784687771175
 30
0.0
 10
6.056793536215743
 20
-12.55055206928355
 30
0.0
 10
6.181229652209237
 20
-12.58411266823903
 30
0.0
 10
6.284332422452116
 20
-12.58751168181388
 30
0.0
 10
6.37069686666467
 20
-12.5578190166788
 30
0.0
 10
6.440339826787674
 20
-12.49867253908014
 30
0.0
 10
6.499047298895208
 20
-12.41359952429697
 30
0.0
 10
6.543600318683599
 20
-12.30181215494148
 30
0.0
 10
6.579252490025471
 20
-12.16409359010642
 30
0.0
 10
6.606229164243708
 20
-11.99908308278528
 30
0.0
 10
6.616559392631662
 20
-11.80721156586223
 30
0.0
 10
6.620093025032342
 20
-11.67046958802358
 30
0.0
 10
6.62195871920483
 20
-11.598272290099
 30
0.0
  0
SPLINE
  5
4D
330
1F
100
AcDbEntity
  8
0
  6
Continuous
 62
     7
370
    15
100
AcDbSpline
210
0.0
220
0.0
230
1.0
 70
     8
 71
     3
 72
    19
 73
    15
 74
     0
 42
0.00000001
 43
0.00000001
 12
1.0
 22
0.0
 32
0.0
 13
1.0
 23
0.0
 33
0.0
 40
0.0
 40
0.0
 40
0.0
 40
0.0
 40
0.1235322649658409
 40
0.2333618512666167
 40
0.3306786234535887
 40
0.4182399937335153
 40
0.4636650499205598
 40
0.5167564604562486
 40
0.5772648220486976
 40
0.6459157073604381
 40
0.7222985089549007
 40
0.8069838475220285
 40
0.8989776581830417
 40
1.0
 40
1.0
 40
1.0
 40
1.0
 10
6.621958719204831
 20
-11.598272290099
 30
0.0
 10
6.617548934292319
 20
-11.43147537518646
 30
0.0
 10
6.609218514938668
 20
-11.11638330705096
 30
0.0
 10
6.546360114687789
 20
-10.67271801856373
 30
0.0
 10
6.429645912581913
 20
-10.2907702176912
 30
0.0
 10
6.291587700066264
 20
-10.00992345275785
 30
0.0
 10
6.144818047441391
 20
-9.805436173501962
 30
0.0
 10
6.003592373800048
 20
-9.643419174074907
 30
0.0
 10
5.831843772535395
 20
-9.46717799716618
 30
0.0
 10
5.633591607189551
 20
-9.272774601593852
 30
0.0
 10
5.397223956806092
 20
-9.071747486268755
 30
0.0
 10
5.13638151541321
 20
-8.851042426136566
 30
0.0
 10
4.84016767669968
 20
-8.62101178551764
 30
0.0
 10
4.631749158568161
 20
-8.464568582104679
 30
0.0
 10
4.522665403092985
 20
-8.38268808367371
 30
0.0
  0
LINE
  5
4E
330
1F
100
AcDbEntity
  8
0
  6
Continuous
 62
     7
370
    15
100
AcDbLine
 10
-1.9018385865
 20
39.6544745275
 30
0.0
 11
-8.9461339362
 21
49.6511093662
 31
0.0
  0
LINE
  5
4F
330
1F
100
AcDbEntity
  8
0
  6
Continuous
 62
     7
370
    15
100
AcDbLine
 10
-8.9461339362
 20
49.6511093662
 30
0.0
 11
-8.9461339362
 21
59.2478788113
 31
0.0
  0
LINE
  5
50
330
1F
100
AcDbEntity
  8
0
  6
Continuous
 62
     7
370
    15
100
AcDbLine
 10
-8.9461339362
 20
59.2478788113
 30
0.0
 11
-0.7622222149
 21
47.3418867185
 31
0.0
  0
LINE
  5
51
330
1F
100
AcDbEntity
  8
0
  6
Continuous
 62
     7
370
    15
100
AcDbLine
 10
-0.7622222149
 20
47.3418867185
 30
0.0
 11
9.1810972379
 21
46.2922400604
 31
0.0
  0
LINE
  5
52
330
1F
100
AcDbEntity
  8
0
  6
Continuous
 62
     7
370
    15
100
AcDbLine
 10
9.1810972379
 20
46.2922400604
 30
0.0
 11
9.1810972379
 21
35.8424244424
 31
0.0
  0
LINE
  5
53
330
1F
100
AcDbEntity
  8
0
  6
Continuous
 62
     7
370
    15
100
AcDbLine
 10
9.1810972379
 20
35.8424244424
 30
0.0
 11
1.4103797567
 21
37.2086312037
 31
0.0
  0
LINE
  5
54
330
1F
100
AcDbEntity
  8
0
  6
Continuous
 62
     7
370
    15
100
AcDbLine
 10
1.4103797567
 20
37.2086312037
 30
0.0
 11
9.1810972379
 21
31.4705628063
 31
0.0
  0
LINE
  5
55
330
1F
100
AcDbEntity
  8
0
  6
Continuous
 62
     7
370
    15
100
AcDbLine
 10
9.1810972379
 20
31.4705628063
 30
0.0
 11
9.1810972379
 21
21.2340087316
 31
0.0
  0
LINE
  5
56
330
1F
100
AcDbEntity
  8
0
  6
Continuous
 62
     7
370
    15
100
AcDbLine
 10
9.1810972379
 20
21.2340087316
 30
0.0
 11
-8.9461339362
 21
34.6161705689
 31
0.0
  0
LINE
  5
57
330
1F
100
AcDbEntity
  8
0
  6
Continuous
 62
     7
370
    15
100
AcDbLine
 10
-8.9461339362
 20
34.6161705689
 30
0.0
 11
-8.9461339362
 21
44.8527246436
 31
0.0
  0
LINE
  5
58
330
1F
100
AcDbEntity
  8
0
  6
Continuous
 62
     7
370
    15
100
AcDbLine
 10
-8.9461339362
 20
44.8527246436
 30
0.0
 11
-1.9018385865
 21
39.6544745275
 31
0.0
  0
LINE
  5
59
330
1F
100
AcDbEntity
  8
0
  6
Continuous
 62
     7
370
    15
100
AcDbLine
 10
18.5
 20
0.0
 30
0.0
 11
18.7002349697
 21
-8.1428887662
 31
0.0
  0
SPLINE
  5
5A
330
1F
100
AcDbEntity
  8
0
  6
Continuous
 62
     7
370
    15
100
AcDbSpline
210
0.0
220
0.0
230
1.0
 70
     8
 71
     3
 72
     8
 73
     4
 74
     0
 42
0.00000001
 43
0.00000001
 12
1.0
 22
0.0
 32
0.0
 13
1.0
 23
0.0
 33
0.0
 40
0.0
 40
0.0
 40
0.0
 40
0.0
 40
0.3729397943365729
 40
0.3729397943365729
 40
0.3729397943365729
 40
0.3729397943365729
 10
23.5
 20
32.0
 30
0.0
 10
23.49085013504808
 20
19.84207778308944
 30
0.0
 10
18.47946689425932
 20
7.50063861743687
 30
0.0
 10
18.50000000000001
 20
-0.0000000000000226
 30
0.0
  0
LINE
  5
5B
330
1F
100
AcDbEntity
  8
0
  6
Continuous
 62
     7
370
    15
100
AcDbLine
 10
23.5
 20
40.4085023268
 30
0.0
 11
23.5
 21
32.0
 31
0.0
  0
ARC
  5
5C
330
1F
100
AcDbEntity
  8
0
  6
Continuous
 62
     7
370
    15
100
AcDbCircle
 10
37.5
 20
40.4085023268
 30
0.0
 40
14.00000000000001
100
AcDbArc
 50
105.0
 51
180.0
  0
LINE
  5
5D
330
1F
100
AcDbEntity
  8
0
  6
Continuous
 62
     7
370
    15
100
AcDbLine
 10
67.6164701066
 20
62.9720526965
 30
0.0
 11
33.8765333686
 21
53.9314638949
 31
0.0
  0
ARC
  5
5E
330
1F
100
AcDbEntity
  8
0
  6
Continuous
 62
     7
370
    15
100
AcDbCircle
 10
70.7222986478
 20
51.380942781
 30
0.0
 40
12.00000000000002
100
AcDbArc
 50
63.5903778907
 51
105.0
  0
ARC
  5
5F
330
1F
100
AcDbEntity
  8
0
  6
Continuous
 62
     7
370
    15
100
AcDbCircle
 10
83.1762953497
 20
76.4587809285
 30
0.0
 40
15.99999999999999
100
AcDbArc
 50
243.5903778907
 51
285.0
  0
SPLINE
  5
60
330
1F
100
AcDbEntity
  8
0
  6
Continuous
 62
     7
370
    15
100
AcDbSpline
210
0.0
220
0.0
230
1.0
 70
     8
 71
     3
 72
    20
 73
    16
 74
     0
 42
0.00000001
 43
0.00000001
 12
1.0
 22
0.0
 32
0.0
 13
1.0
 23
0.0
 33
0.0
 40
0.0089664356412293
 40
0.0089664356412293
 40
0.0089664356412293
 40
0.0089664356412293
 40
0.0730497489304699
 40
0.0884918425548095
 40
0.1550656464035352
 40
0.1730859619078271
 40
0.2506746820934367
 40
0.275599680294207
 40
0.3974109457147594
 40
0.4286006512288892
 40
0.556307029921375
 40
0.5948093103908557
 40
0.7751211754542151
 40
0.8178941427284214
 40
1.0
 40
1.0
 40
1.0
 40
1.0
 10
99.59900053898677
 20
89.90563315528556
 30
0.0
 10
100.1270429587555
 20
88.23285263031282
 30
0.0
 10
100.299361976706
 20
87.49350843444368
 30
0.0
 10
99.81275142737668
 20
84.74737344589042
 30
0.0
 10
99.10400431193301
 20
84.59096750066576
 30
0.0
 10
99.14641836707064
 20
83.37370077976925
 30
0.0
 10
100.5960784278519
 20
82.78886978961832
 30
0.0
 10
100.1487894018511
 20
78.22395435724977
 30
0.0
 10
98.85011071512717
 20
77.89253360710224
 30
0.0
 10
98.8445876642113
 20
76.46531386084169
 30
0.0
 10
100.1428025372381
 20
75.97359078653267
 30
0.0
 10
99.63590359504168
 20
71.54073871894902
 30
0.0
 10
98.4190190411528
 20
72.24985773812527
 30
0.0
 10
98.22702404230041
 20
68.23210246673558
 30
0.0
 10
99.30109611499972
 20
64.69743471541494
 30
0.0
 10
87.3174000713863
 20
61.00396770784877
 30
0.0
  0
ARC
  5
61
330
1F
100
AcDbEntity
  8
0
  6
Continuous
 62
     7
370
    15
100
AcDbCircle
 10
97.836722636
 20
89.3493393233
 30
0.0
 40
1.847995193438013
100
AcDbArc
 50
17.5192124706
 51
105.6795865065
  0
LINE
  5
62
330
1F
100
AcDbEntity
  8
0
  6
Continuous
 62
     7
370
    15
100
AcDbLine
 10
94.0846333451
 20
90.8634905419
 30
0.0
 11
97.3372881888
 21
91.1285670963
 31
0.0
  0
LINE
  5
63
330
1F
100
AcDbEntity
  8
0
  6
Continuous
 62
     7
370
    15
100
AcDbLine
 10
90.1233881421
 20
94.1298366072
 30
0.0
 11
94.0846333451
 21
90.8634905419
 31
0.0
  0
ARC
  5
64
330
1F
100
AcDbEntity
  8
0
  6
Continuous
 62
     7
370
    15
100
AcDbCircle
 10
89.487200048
 20
93.35830261
 30
0.0
 40
1.000000000000137
100
AcDbArc
 50
50.4918410089
 51
103.3080605577
  0
LINE
  5
65
330
1F
100
AcDbEntity
  8
0
  6
Continuous
 62
     7
370
    15
100
AcDbLine
 10
79.0351906281
 20
91.9135941491
 30
0.0
 11
89.2570134031
 21
94.331449109
 31
0.0
  0
ARC
  5
66
330
1F
100
AcDbEntity
  8
0
  6
Continuous
 62
     7
370
    15
100
AcDbCircle
 10
83.1762953497
 20
76.4587809285
 30
0.0
 40
16.0
100
AcDbArc
 50
105.0
 51
144.9445051898
  0
ARC
  5
67
330
1F
100
AcDbEntity
  8
0
  6
Continuous
 62
     7
370
    15
100
AcDbCircle
 10
58.6184119644
 20
93.689868057
 30
0.0
 40
14.00000000000001
100
AcDbArc
 50
285.0
 51
324.9445051898
  0
LINE
  5
68
330
1F
100
AcDbEntity
  8
0
  6
Continuous
 62
     7
370
    15
100
AcDbLine
 10
62.2418785958
 20
80.1669064889
 30
0.0
 11
25.6999618834
 21
70.3755294159
 31
0.0
  0
ARC
  5
69
330
1F
100
AcDbEntity
  8
0
  6
Continuous
 62
     7
370
    15
100
AcDbCircle
 10
23.5
 20
78.5858989394
 30
0.0
 40
8.500000000000158
100
AcDbArc
 50
193.7777564833
 51
285.0
  0
ARC
  5
6A
330
1F
100
AcDbEntity
  8
0
  6
Continuous
 62
     7
370
    15
100
AcDbCircle
 10
1.25
 20
76.1717597601
 30
0.0
 40
13.99999999999968
100
AcDbArc
 50
1.5955236182
 51
90.0
  0
LINE
  5
6B
330
1F
100
AcDbEntity
  8
0
  6
Continuous
 62
     7
370
    15
100
AcDbLine
 10
1.25
 20
90.1717597601
 30
0.0
 11
-1.25
 21
90.1717597601
 31
0.0
  0
ARC
  5
6C
330
1F
100
AcDbEntity
  8
0
  6
Continuous
 62
     7
370
    15
100
AcDbCircle
 10
-1.25
 20
76.1717597601
 30
0.0
 40
14.0
100
AcDbArc
 50
90.0
 51
178.4044763818
  0
ARC
  5
6D
330
1F
100
AcDbEntity
  8
0
  6
Continuous
 62
     7
370
    15
100
AcDbCircle
 10
-23.5
 20
78.5858989394
 30
0.0
 40
8.500000000000016
100
AcDbArc
 50
255.0
 51
346.2222435167
  0
LINE
  5
6E
330
1F
100
AcDbEntity
  8
0
  6
Continuous
 62
     7
370
    15
100
AcDbLine
 10
-62.2418785958
 20
80.1669064889
 30
0.0
 11
-25.6999618834
 21
70.3755294159
 31
0.0
  0
ARC
  5
6F
330
1F
100
AcDbEntity
  8
0
  6
Continuous
 62
     7
370
    15
100
AcDbCircle
 10
-58.6184119644
 20
93.689868057
 30
0.0
 40
14.00000000000001
100
AcDbArc
 50
215.0554948102
 51
255.0
  0
ARC
  5
70
330
1F
100
AcDbEntity
  8
0
  6
Continuous
 62
     7
370
    15
100
AcDbCircle
 10
-83.1762953497
 20
76.4587809285
 30
0.0
 40
16.0
100
AcDbArc
 50
35.0554948102
 51
75.0
  0
LINE
  5
71
330
1F
100
AcDbEntity
  8
0
  6
Continuous
 62
     7
370
    15
100
AcDbLine
 10
-79.0351906281
 20
91.9135941491
 30
0.0
 11
-89.2570134031
 21
94.331449109
 31
0.0
  0
ARC
  5
72
330
1F
100
AcDbEntity
  8
0
  6
Continuous
 62
     7
370
    15
100
AcDbCircle
 10
-89.487200048
 20
93.35830261
 30
0.0
 40
1.000000000000137
100
AcDbArc
 50
76.6919394423
 51
129.5081589911
  0
LINE
  5
73
330
1F
100
AcDbEntity
  8
0
  6
Continuous
 62
     7
370
    15
100
AcDbLine
 10
-90.1233881421
 20
94.1298366072
 30
0.0
 11
-94.0846333451
 21
90.8634905419
 31
0.0
  0
LINE
  5
74
330
1F
100
AcDbEntity
  8
0
  6
Continuous
 62
     7
370
    15
100
AcDbLine
 10
-94.0846333451
 20
90.8634905419
 30
0.0
 11
-97.3372881888
 21
91.1285670963
 31
0.0
  0
ARC
  5
75
330
1F
100
AcDbEntity
  8
0
  6
Continuous
 62
     7
370
    15
100
AcDbCircle
 10
-97.836722636
 20
89.3493393233
 30
0.0
 40
1.847995193438013
100
AcDbArc
 50
74.3204134935
 51
162.4807875294
  0
SPLINE
  5
76
330
1F
100
AcDbEntity
  8
0
  6
Continuous
 62
     7
370
    15
100
AcDbSpline
210
0.0
220
0.0
230
1.0
 70
     8
 71
     3
 72
    20
 73
    16
 74
     0
 42
0.00000001
 43
0.00000001
 12
1.0
 22
0.0
 32
0.0
 13
1.0
 23
0.0
 33
0.0
 40
0.0089664356412293
 40
0.0089664356412293
 40
0.0089664356412293
 40
0.0089664356412293
 40
0.0730497489304699
 40
0.0884918425548095
 40
0.1550656464035352
 40
0.1730859619078271
 40
0.2506746820934367
 40
0.275599680294207
 40
0.3974109457147594
 40
0.4286006512288892
 40
0.556307029921375
 40
0.5948093103908557
 40
0.7751211754542151
 40
0.8178941427284214
 40
1.0
 40
1.0
 40
1.0
 40
1.0
 10
-99.59900053898677
 20
89.90563315528556
 30
0.0
 10
-100.1270429587555
 20
88.23285263031282
 30
0.0
 10
-100.299361976706
 20
87.4935084344437
 30
0.0
 10
-99.81275142737668
 20
84.74737344589043
 30
0.0
 10
-99.104004311933
 20
84.59096750066577
 30
0.0
 10
-99.14641836707064
 20
83.37370077976925
 30
0.0
 10
-100.5960784278519
 20
82.78886978961832
 30
0.0
 10
-100.1487894018511
 20
78.22395435724977
 30
0.0
 10
-98.85011071512717
 20
77.89253360710224
 30
0.0
 10
-98.8445876642113
 20
76.46531386084169
 30
0.0
 10
-100.1428025372381
 20
75.97359078653267
 30
0.0
 10
-99.63590359504168
 20
71.54073871894902
 30
0.0
 10
-98.41901904115278
 20
72.24985773812527
 30
0.0
 10
-98.22702404230043
 20
68.23210246673558
 30
0.0
 10
-99.30109611499972
 20
64.69743471541494
 30
0.0
 10
-87.3174000713863
 20
61.00396770784877
 30
0.0
  0
ARC
  5
77
330
1F
100
AcDbEntity
  8
0
  6
Continuous
 62
     7
370
    15
100
AcDbCircle
 10
-83.1762953497
 20
76.4587809285
 30
0.0
 40
15.99999999999999
100
AcDbArc
 50
255.0
 51
296.4096221093
  0
ARC
  5
78
330
1F
100
AcDbEntity
  8
0
  6
Continuous
 62
     7
370
    15
100
AcDbCircle
 10
-70.7222986478
 20
51.380942781
 30
0.0
 40
12.00000000000002
100
AcDbArc
 50
75.0
 51
116.4096221093
  0
LINE
  5
79
330
1F
100
AcDbEntity
  8
0
  6
Continuous
 62
     7
370
    15
100
AcDbLine
 10
-67.6164701066
 20
62.9720526965
 30
0.0
 11
-33.8765333686
 21
53.9314638949
 31
0.0
  0
ARC
  5
7A
330
1F
100
AcDbEntity
  8
0
  6
Continuous
 62
     7
370
    15
100
AcDbCircle
 10
-37.5
 20
40.4085023268
 30
0.0
 40
14.00000000000001
100
AcDbArc
 50
0.0
 51
75.0
  0
LINE
  5
7B
330
1F
100
AcDbEntity
  8
0
  6
Continuous
 62
     7
370
    15
100
AcDbLine
 10
-23.5
 20
32.0
 30
0.0
 11
-23.5
 21
40.4085023268
 31
0.0
  0
SPLINE
  5
7C
330
1F
100
AcDbEntity
  8
0
  6
Continuous
 62
     7
370
    15
100
AcDbSpline
210
0.0
220
0.0
230
1.0
 70
     8
 71
     3
 72
     8
 73
     4
 74
     0
 42
0.00000001
 43
0.00000001
 12
1.0
 22
0.0
 32
0.0
 13
1.0
 23
0.0
 33
0.0
 40
0.0
 40
0.0
 40
0.0
 40
0.0
 40
0.3729397943365729
 40
0.3729397943365729
 40
0.3729397943365729
 40
0.3729397943365729
 10
-23.5
 20
32.0
 30
0.0
 10
-23.49085013504808
 20
19.84207778308944
 30
0.0
 10
-18.47946689425931
 20
7.50063861743687
 30
0.0
 10
-18.50000000000001
 20
-0.0000000000000226
 30
0.0
  0
LINE
  5
7D
330
1F
100
AcDbEntity
  8
0
  6
Continuous
 62
     7
370
    15
100
AcDbLine
 10
-18.5
 20
0.0
 30
0.0
 11
-18.7002349697
 21
-8.1428887662
 31
0.0
  0
ARC
  5
7E
330
1F
100
AcDbEntity
  8
0
  6
Continuous
 62
     7
370
    15
100
AcDbCircle
 10
-48.6911689385
 20
-7.4054067834
 30
0.0
 40
29.99999999999987
100
AcDbArc
 50
306.0
 51
358.5913712647
  0
LINE
  5
7F
330
1F
100
AcDbEntity
  8
0
  6
Continuous
 62
     7
370
    15
100
AcDbLine
 10
-72.6171014562
 20
-61.8706536046
 30
0.0
 11
-31.0576113698
 21
-31.6759166146
 31
0.0
  0
ARC
  5
80
330
1F
100
AcDbEntity
  8
0
  6
Continuous
 62
     7
370
    15
100
AcDbCircle
 10
-78.4949539791
 20
-53.7804836609
 30
0.0
 40
9.999999999999996
100
AcDbArc
 50
262.9509201838
 51
306.0
  0
ARC
  5
81
330
1F
100
AcDbEntity
  8
0
  6
Continuous
 62
     7
370
    15
100
AcDbCircle
 10
-81.6856614466
 20
-79.5839598968
 30
0.0
 40
16.00000000000002
100
AcDbArc
 50
82.9509201838
 51
162.0
  0
SPLINE
  5
82
330
1F
100
AcDbEntity
  8
0
  6
Continuous
 62
     7
370
    15
100
AcDbSpline
210
0.0
220
0.0
230
1.0
 70
     8
 71
     3
 72
     8
 73
     4
 74
     0
 42
0.00000001
 43
0.00000001
 12
1.0
 22
0.0
 32
0.0
 13
1.0
 23
0.0
 33
0.0
 40
0.713477255154762
 40
0.713477255154762
 40
0.713477255154762
 40
0.713477255154762
 40
1.0
 40
1.0
 40
1.0
 40
1.0
 10
-99.3028612324644
 20
-92.38360477555315
 30
0.0
 10
-100.5078153853715
 20
-89.98658008735767
 30
0.0
 10
-100.1936037142324
 20
-85.0680766695124
 30
0.0
 10
-96.90256570728448
 20
-74.63968798677956
 30
0.0
  0
SPLINE
  5
83
330
1F
100
AcDbEntity
  8
0
  6
Continuous
 62
     7
370
    15
100
AcDbSpline
210
0.0
220
0.0
230
1.0
 70
     8
 71
     3
 72
     8
 73
     4
 74
     0
 42
0.00000001
 43
0.00000001
 12
1.0
 22
0.0
 32
0.0
 13
1.0
 23
0.0
 33
0.0
 40
0.7134772557203064
 40
0.7134772557203064
 40
0.7134772557203064
 40
0.7134772557203064
 40
1.0
 40
1.0
 40
1.0
 40
1.0
 10
-99.30286123063257
 20
-92.38360477370128
 30
0.0
 10
-97.39550658433966
 20
-94.2703056308975
 30
0.0
 10
-92.62063510943075
 20
-95.49137371193247
 30
0.0
 10
-81.68566144656197
 20
-95.58395989677854
 30
0.0
  0
ARC
  5
84
330
1F
100
AcDbEntity
  8
0
  6
Continuous
 62
     7
370
    15
100
AcDbCircle
 10
-81.6856614466
 20
-79.5839598968
 30
0.0
 40
16.00000000000004
100
AcDbArc
 50
270.0
 51
349.0490798162
  0
ARC
  5
85
330
1F
100
AcDbEntity
  8
0
  6
Continuous
 62
     7
370
    15
100
AcDbCircle
 10
-56.1591143978
 20
-84.5231294391
 30
0.0
 40
9.999999999999973
100
AcDbArc
 50
126.0000000012
 51
169.0490798162
  0
LINE
  5
86
330
1F
100
AcDbEntity
  8
0
  6
Continuous
 62
     7
370
    15
100
AcDbLine
 10
-31.0823396651
 20
-53.9431063547
 30
0.0
 11
-62.0369669209
 21
-76.4329594955
 31
0.0
  0
ARC
  5
87
330
1F
100
AcDbEntity
  8
0
  6
Continuous
 62
     7
370
    15
100
AcDbCircle
 10
-26.9678428989
 20
-59.6062253152
 30
0.0
 40
7.00000000000002
100
AcDbArc
 50
358.5913712649
 51
126.0000000011
  0
LINE
  5
88
330
1F
100
AcDbEntity
  8
0
  6
Continuous
 62
     7
370
    15
100
AcDbLine
 10
-19.9699583062
 20
-59.7783044445
 30
0.0
 11
-20.0000000002
 21
-61.0000000001
 31
0.0
  0
ARC
  5
89
330
1F
100
AcDbEntity
  8
0
  6
Continuous
 62
     7
370
    15
100
AcDbCircle
 10
-10.0000000002
 20
-61.0000000001
 30
0.0
 40
10.00000000000001
100
AcDbArc
 50
180.0000000002
 51
270.0000000002
  0
LINE
  5
8A
330
1F
100
AcDbEntity
  8
0
  6
Continuous
 62
     7
370
    15
100
AcDbLine
 10
-10.0000000001
 20
-71.0000000001
 30
0.0
 11
9.9999999999
 21
-71.0000000001
 31
0.0
  0
ARC
  5
8B
330
1F
100
AcDbEntity
  8
0
  6
Continuous
 62
     7
370
    15
100
AcDbCircle
 10
9.9999999998
 20
-61.0000000001
 30
0.0
 40
9.999999999999998
100
AcDbArc
 50
270.0000000002
 51
0.0000000002
  0
LINE
  5
8C
330
1F
100
AcDbEntity
  8
0
  6
Continuous
 62
     7
370
    15
100
AcDbLine
 10
19.9699583059
 20
-59.7783044445
 30
0.0
 11
19.9999999998
 21
-61.0
 31
0.0
  0
ARC
  5
8D
330
1F
100
AcDbEntity
  8
0
  6
Continuous
 62
     7
370
    15
100
AcDbCircle
 10
26.9678428986
 20
-59.6062253149
 30
0.0
 40
7.000000000000001
100
AcDbArc
 50
53.9999999972
 51
181.4086287376
  0
LINE
  5
8E
330
1F
100
AcDbEntity
  8
0
  6
Continuous
 62
     7
370
    15
100
AcDbLine
 10
31.0823396649
 20
-53.9431063544
 30
0.0
 11
62.0369669209
 21
-76.4329594955
 31
0.0
  0
ARC
  5
8F
330
1F
100
AcDbEntity
  8
0
  6
Continuous
 62
     7
370
    15
100
AcDbCircle
 10
56.1591143978
 20
-84.5231294391
 30
0.0
 40
9.999999999999984
100
AcDbArc
 50
10.9509201838
 51
53.9999999988
  0
ARC
  5
90
330
1F
100
AcDbEntity
  8
0
  6
Continuous
 62
     7
370
    15
100
AcDbCircle
 10
81.6856614466
 20
-79.5839598968
 30
0.0
 40
16.00000000000003
100
AcDbArc
 50
190.9509201838
 51
270.0
  0
SPLINE
  5
91
330
1F
100
AcDbEntity
  8
0
  6
Continuous
 62
     7
370
    15
100
AcDbSpline
210
0.0
220
0.0
230
1.0
 70
     8
 71
     3
 72
     8
 73
     4
 74
     0
 42
0.00000001
 43
0.00000001
 12
1.0
 22
0.0
 32
0.0
 13
1.0
 23
0.0
 33
0.0
 40
0.713477255154776
 40
0.713477255154776
 40
0.713477255154776
 40
0.713477255154776
 40
1.0
 40
1.0
 40
1.0
 40
1.0
 10
99.3028612419266
 20
-92.38360476252952
 30
0.0
 10
97.39550660318866
 20
-94.27030562607727
 30
0.0
 10
92.62063513101388
 20
-95.4913737117497
 30
0.0
 10
81.68566144656197
 20
-95.58395989677854
 30
0.0
  0
SPLINE
  5
92
330
1F
100
AcDbEntity
  8
0
  6
Continuous
 62
     7
370
    15
100
AcDbSpline
210
0.0
220
0.0
230
1.0
 70
     8
 71
     3
 72
     8
 73
     4
 74
     0
 42
0.00000001
 43
0.00000001
 12
1.0
 22
0.0
 32
0.0
 13
1.0
 23
0.0
 33
0.0
 40
0.7134772557202932
 40
0.7134772557202932
 40
0.7134772557202932
 40
0.7134772557202932
 40
1.0
 40
1.0
 40
1.0
 40
1.0
 10
99.30286123959931
 20
-92.38360476135959
 30
0.0
 10
100.5078153841311
 20
-89.9865800679416
 30
0.0
 10
100.1936037077366
 20
-85.06807664892911
 30
0.0
 10
96.90256570728448
 20
-74.63968798677956
 30
0.0
  0
ARC
  5
93
330
1F
100
AcDbEntity
  8
0
  6
Continuous
 62
     7
370
    15
100
AcDbCircle
 10
81.6856614466
 20
-79.5839598968
 30
0.0
 40
16.00000000000003
100
AcDbArc
 50
18.0
 51
97.0490798162
  0
ARC
  5
94
330
1F
100
AcDbEntity
  8
0
  6
Continuous
 62
     7
370
    15
100
AcDbCircle
 10
78.4949539791
 20
-53.7804836609
 30
0.0
 40
9.999999999999995
100
AcDbArc
 50
234.0
 51
277.0490798162
  0
LINE
  5
95
330
1F
100
AcDbEntity
  8
0
  6
Continuous
 62
     7
370
    15
100
AcDbLine
 10
31.0576113698
 20
-31.6759166146
 30
0.0
 11
72.6171014562
 21
-61.8706536046
 31
0.0
  0
ARC
  5
96
330
1F
100
AcDbEntity
  8
0
  6
Continuous
 62
     7
370
    15
100
AcDbCircle
 10
48.6911689385
 20
-7.4054067834
 30
0.0
 40
30.0
100
AcDbArc
 50
181.4086287353
 51
234.0
  0
CIRCLE
  5
97
330
1F
100
AcDbEntity
  8
0
  6
Continuous
 62
     7
370
    15
100
AcDbCircle
 10
81.6856614466
 20
-79.5839598968
 30
0.0
 40
3.799999999999997
  0
LINE
  5
98
330
1F
100
AcDbEntity
  8
0
  6
Continuous
 62
     7
370
    15
100
AcDbLine
 10
89.3525164738
 20
-76.8509516656
 30
0.0
 11
90.8340489847
 21
-76.616299968
 31
0.0
  0
ARC
  5
99
330
1F
100
AcDbEntity
  8
0
  6
Continuous
 62
     7
370
    15
100
AcDbCircle
 10
91.0687006822
 20
-78.0978324789
 30
0.0
 40
1.500000000000047
100
AcDbArc
 50
279.0
 51
99.0
  0
LINE
  5
9A
330
1F
100
AcDbEntity
  8
0
  6
Continuous
 62
     7
370
    15
100
AcDbLine
 10
89.8218198689
 20
-79.8140166873
 30
0.0
 11
91.3033523798
 21
-79.5793649898
 31
0.0
  0
ARC
  5
9B
330
1F
100
AcDbEntity
  8
0
  6
Continuous
 62
     7
370
    15
100
AcDbCircle
 10
89.5871681713
 20
-78.3324841765
 30
0.0
 40
1.50000000000003
100
AcDbArc
 50
99.0
 51
279.0
  0
LINE
  5
9C
330
1F
100
AcDbEntity
  8
0
  6
Continuous
 62
     7
370
    15
100
AcDbLine
 10
74.0188064194
 20
-82.316968128
 30
0.0
 11
72.5372739085
 21
-82.5516198256
 31
0.0
  0
ARC
  5
9D
330
1F
100
AcDbEntity
  8
0
  6
Continuous
 62
     7
370
    15
100
AcDbCircle
 10
72.3026222109
 20
-81.0700873147
 30
0.0
 40
1.500000000000214
100
AcDbArc
 50
99.0
 51
279.0
  0
LINE
  5
9E
330
1F
100
AcDbEntity
  8
0
  6
Continuous
 62
     7
370
    15
100
AcDbLine
 10
73.5495030242
 20
-79.3539031062
 30
0.0
 11
72.0679705133
 21
-79.5885548038
 31
0.0
  0
ARC
  5
9F
330
1F
100
AcDbEntity
  8
0
  6
Continuous
 62
     7
370
    15
100
AcDbCircle
 10
73.7841547218
 20
-80.8354356171
 30
0.0
 40
1.500000000000284
100
AcDbArc
 50
279.0
 51
99.0
  0
ARC
  5
A0
330
1F
100
AcDbEntity
  8
0
  6
Continuous
 62
     7
370
    15
100
AcDbCircle
 10
-83.1717888644
 20
-88.9669991324
 30
0.0
 40
1.500000000000436
100
AcDbArc
 50
171.0
 51
351.0
  0
LINE
  5
A1
330
1F
100
AcDbEntity
  8
0
  6
Continuous
 62
     7
370
    15
100
AcDbLine
 10
-84.4186696778
 20
-87.250814924
 30
0.0
 11
-84.6533213753
 21
-88.7323474349
 31
0.0
  0
ARC
  5
A2
330
1F
100
AcDbEntity
  8
0
  6
Continuous
 62
     7
370
    15
100
AcDbCircle
 10
-82.9371371669
 20
-87.4854666215
 30
0.0
 40
1.500000000000004
100
AcDbArc
 50
351.0
 51
171.0
  0
LINE
  5
A3
330
1F
100
AcDbEntity
  8
0
  6
Continuous
 62
     7
370
    15
100
AcDbLine
 10
-81.455604656
 20
-87.7201183191
 30
0.0
 11
-81.6902563536
 21
-89.20165083
 31
0.0
  0
ARC
  5
A4
330
1F
100
AcDbEntity
  8
0
  6
Continuous
 62
     7
370
    15
100
AcDbCircle
 10
-91.0687006822
 20
-78.0978324789
 30
0.0
 40
1.500000000000006
100
AcDbArc
 50
81.0
 51
261.0
  0
LINE
  5
A5
330
1F
100
AcDbEntity
  8
0
  6
Continuous
 62
     7
370
    15
100
AcDbLine
 10
-89.3525164738
 20
-76.8509516656
 30
0.0
 11
-90.8340489847
 21
-76.616299968
 31
0.0
  0
ARC
  5
A6
330
1F
100
AcDbEntity
  8
0
  6
Continuous
 62
     7
370
    15
100
AcDbCircle
 10
-89.5871681713
 20
-78.3324841765
 30
0.0
 40
1.50000000000003
100
AcDbArc
 50
261.0
 51
81.0
  0
LINE
  5
A7
330
1F
100
AcDbEntity
  8
0
  6
Continuous
 62
     7
370
    15
100
AcDbLine
 10
-89.8218198689
 20
-79.8140166873
 30
0.0
 11
-91.3033523798
 21
-79.5793649898
 31
0.0
  0
CIRCLE
  5
A8
330
1F
100
AcDbEntity
  8
0
  6
Continuous
 62
     7
370
    15
100
AcDbCircle
 10
-83.1762953497
 20
76.4587809285
 30
0.0
 40
3.799999999999997
  0
ARC
  5
A9
330
1F
100
AcDbEntity
  8
0
  6
Continuous
 62
     7
370
    15
100
AcDbCircle
 10
-80.1995340287
 20
-70.2009206611
 30
0.0
 40
1.500000000000009
100
AcDbArc
 50
351.0
 51
171.0
  0
LINE
  5
AA
330
1F
100
AcDbEntity
  8
0
  6
Continuous
 62
     7
370
    15
100
AcDbLine
 10
-78.9526532153
 20
-71.9171048696
 30
0.0
 11
-78.7180015178
 21
-70.4355723587
 31
0.0
  0
ARC
  5
AB
330
1F
100
AcDbEntity
  8
0
  6
Continuous
 62
     7
370
    15
100
AcDbCircle
 10
-80.4341857262
 20
-71.682453172
 30
0.0
 40
1.500000000000162
100
AcDbArc
 50
171.0
 51
351.0
  0
LINE
  5
AC
330
1F
100
AcDbEntity
  8
0
  6
Continuous
 62
     7
370
    15
100
AcDbLine
 10
-81.9157182371
 20
-71.4478014745
 30
0.0
 11
-81.6810665396
 21
-69.9662689636
 31
0.0
  0
CIRCLE
  5
AD
330
1F
100
AcDbEntity
  8
0
  6
Continuous
 62
     7
370
    15
100
AcDbCircle
 10
-19.0
 20
30.0
 30
0.0
 40
1.500000000000004
  0
CIRCLE
  5
AE
330
1F
100
AcDbEntity
  8
0
  6
Continuous
 62
     7
370
    15
100
AcDbCircle
 10
83.1762953497
 20
76.4587809285
 30
0.0
 40
3.799999999999997
  0
LINE
  5
AF
330
1F
100
AcDbEntity
  8
0
  6
Continuous
 62
     7
370
    15
100
AcDbLine
 10
-92.1535366857
 20
73.0078190342
 30
0.0
 11
-90.85449858
 21
73.7578190342
 31
0.0
  0
ARC
  5
B0
330
1F
100
AcDbEntity
  8
0
  6
Continuous
 62
     7
370
    15
100
AcDbCircle
 10
-90.10449858
 20
72.4587809285
 30
0.0
 40
1.500000000000025
100
AcDbArc
 50
300.0
 51
120.0
  0
LINE
  5
B1
330
1F
100
AcDbEntity
  8
0
  6
Continuous
 62
     7
370
    15
100
AcDbLine
 10
-90.6535366857
 20
70.4097428228
 30
0.0
 11
-89.35449858
 21
71.1597428228
 31
0.0
  0
ARC
  5
B2
330
1F
100
AcDbEntity
  8
0
  6
Continuous
 62
     7
370
    15
100
AcDbCircle
 10
-91.4035366857
 20
71.7087809285
 30
0.0
 40
1.500000000000005
100
AcDbArc
 50
120.0
 51
300.0
  0
LINE
  5
B3
330
1F
100
AcDbEntity
  8
0
  6
Continuous
 62
     7
370
    15
100
AcDbLine
 10
-74.1990540138
 20
79.9097428228
 30
0.0
 11
-75.4980921195
 21
79.1597428228
 31
0.0
  0
ARC
  5
B4
330
1F
100
AcDbEntity
  8
0
  6
Continuous
 62
     7
370
    15
100
AcDbCircle
 10
-76.2480921195
 20
80.4587809285
 30
0.0
 40
1.500000000000071
100
AcDbArc
 50
120.0
 51
300.0
  0
LINE
  5
B5
330
1F
100
AcDbEntity
  8
0
  6
Continuous
 62
     7
370
    15
100
AcDbLine
 10
-75.6990540138
 20
82.5078190342
 30
0.0
 11
-76.9980921195
 21
81.7578190342
 31
0.0
  0
ARC
  5
B6
330
1F
100
AcDbEntity
  8
0
  6
Continuous
 62
     7
370
    15
100
AcDbCircle
 10
-74.9490540138
 20
81.2087809285
 30
0.0
 40
1.500000000000076
100
AcDbArc
 50
300.0
 51
120.0
  0
CIRCLE
  5
B7
330
1F
100
AcDbEntity
  8
0
  6
Continuous
 62
     7
370
    15
100
AcDbCircle
 10
-15.25
 20
17.25
 30
0.0
 40
1.500000000000002
  0
CIRCLE
  5
B8
330
1F
100
AcDbEntity
  8
0
  6
Continuous
 62
     7
370
    15
100
AcDbCircle
 10
-16.0
 20
-26.0
 30
0.0
 40
1.500000000000002
  0
CIRCLE
  5
B9
330
1F
100
AcDbEntity
  8
0
  6
Continuous
 62
     7
370
    15
100
AcDbCircle
 10
16.0
 20
-26.0
 30
0.0
 40
1.5
  0
CIRCLE
  5
BA
330
1F
100
AcDbEntity
  8
0
  6
Continuous
 62
     7
370
    15
100
AcDbCircle
 10
15.25
 20
-13.25
 30
0.0
 40
1.5
  0
CIRCLE
  5
BB
330
1F
100
AcDbEntity
  8
0
  6
Continuous
 62
     7
370
    15
100
AcDbCircle
 10
15.25
 20
17.25
 30
0.0
 40
1.5
  0
CIRCLE
  5
BC
330
1F
100
AcDbEntity
  8
0
  6
Continuous
 62
     7
370
    15
100
AcDbCircle
 10
-15.25
 20
-13.25
 30
0.0
 40
1.500000000000002
  0
CIRCLE
  5
BD
330
1F
100
AcDbEntity
  8
0
  6
Continuous
 62
     7
370
    15
100
AcDbCircle
 10
-81.6856614466
 20
-79.5839598968
 30
0.0
 40
3.799999999999997
  0
CIRCLE
  5
BE
330
1F
100
AcDbEntity
  8
0
  6
Continuous
 62
     7
370
    15
100
AcDbCircle
 10
19.0
 20
30.0
 30
0.0
 40
1.5
  0
CIRCLE
  5
BF
330
1F
100
AcDbEntity
  8
0
  6
Continuous
 62
     7
370
    15
100
AcDbCircle
 10
15.0
 20
69.0
 30
0.0
 40
1.5
  0
ARC
  5
C0
330
1F
100
AcDbEntity
  8
0
  6
Continuous
 62
     7
370
    15
100
AcDbCircle
 10
76.2480921195
 20
80.4587809285
 30
0.0
 40
1.500000000000071
100
AcDbArc
 50
240.0
 51
60.0
  0
LINE
  5
C1
330
1F
100
AcDbEntity
  8
0
  6
Continuous
 62
     7
370
    15
100
AcDbLine
 10
74.1990540138
 20
79.9097428228
 30
0.0
 11
75.4980921195
 21
79.1597428228
 31
0.0
  0
ARC
  5
C2
330
1F
100
AcDbEntity
  8
0
  6
Continuous
 62
     7
370
    15
100
AcDbCircle
 10
74.9490540138
 20
81.2087809285
 30
0.0
 40
1.500000000000076
100
AcDbArc
 50
60.0
 51
240.0
  0
LINE
  5
C3
330
1F
100
AcDbEntity
  8
0
  6
Continuous
 62
     7
370
    15
100
AcDbLine
 10
75.6990540138
 20
82.5078190342
 30
0.0
 11
76.9980921195
 21
81.7578190342
 31
0.0
  0
ARC
  5
C4
330
1F
100
AcDbEntity
  8
0
  6
Continuous
 62
     7
370
    15
100
AcDbCircle
 10
87.1762953497
 20
83.3869841587
 30
0.0
 40
1.500000000000085
100
AcDbArc
 50
150.0
 51
330.0
  0
LINE
  5
C5
330
1F
100
AcDbEntity
  8
0
  6
Continuous
 62
     7
370
    15
100
AcDbLine
 10
86.6272572441
 20
85.4360222644
 30
0.0
 11
85.8772572441
 21
84.1369841587
 31
0.0
  0
ARC
  5
C6
330
1F
100
AcDbEntity
  8
0
  6
Continuous
 62
     7
370
    15
100
AcDbCircle
 10
87.9262953497
 20
84.6860222644
 30
0.0
 40
1.500000000000071
100
AcDbArc
 50
330.0
 51
150.0
  0
LINE
  5
C7
330
1F
100
AcDbEntity
  8
0
  6
Continuous
 62
     7
370
    15
100
AcDbLine
 10
89.2253334554
 20
83.9360222644
 30
0.0
 11
88.4753334554
 21
82.6369841587
 31
0.0
  0
ARC
  5
C8
330
1F
100
AcDbEntity
  8
0
  6
Continuous
 62
     7
370
    15
100
AcDbCircle
 10
90.10449858
 20
72.4587809285
 30
0.0
 40
1.500000000000025
100
AcDbArc
 50
60.0
 51
240.0
  0
LINE
  5
C9
330
1F
100
AcDbEntity
  8
0
  6
Continuous
 62
     7
370
    15
100
AcDbLine
 10
92.1535366857
 20
73.0078190342
 30
0.0
 11
90.85449858
 21
73.7578190342
 31
0.0
  0
ARC
  5
CA
330
1F
100
AcDbEntity
  8
0
  6
Continuous
 62
     7
370
    15
100
AcDbCircle
 10
91.4035366857
 20
71.7087809285
 30
0.0
 40
1.500000000000005
100
AcDbArc
 50
240.0
 51
60.0
  0
LINE
  5
CB
330
1F
100
AcDbEntity
  8
0
  6
Continuous
 62
     7
370
    15
100
AcDbLine
 10
90.6535366857
 20
70.4097428228
 30
0.0
 11
89.35449858
 21
71.1597428228
 31
0.0
  0
ARC
  5
CC
330
1F
100
AcDbEntity
  8
0
  6
Continuous
 62
     7
370
    15
100
AcDbCircle
 10
79.1762953497
 20
69.5305776982
 30
0.0
 40
1.500000000000053
100
AcDbArc
 50
330.0
 51
150.0
  0
LINE
  5
CD
330
1F
100
AcDbEntity
  8
0
  6
Continuous
 62
     7
370
    15
100
AcDbLine
 10
79.7253334554
 20
67.4815395925
 30
0.0
 11
80.4753334554
 21
68.7805776982
 31
0.0
  0
ARC
  5
CE
330
1F
100
AcDbEntity
  8
0
  6
Continuous
 62
     7
370
    15
100
AcDbCircle
 10
78.4262953497
 20
68.2315395925
 30
0.0
 40
1.500000000000007
100
AcDbArc
 50
150.0
 51
330.0
  0
LINE
  5
CF
330
1F
100
AcDbEntity
  8
0
  6
Continuous
 62
     7
370
    15
100
AcDbLine
 10
77.1272572441
 20
68.9815395925
 30
0.0
 11
77.8772572441
 21
70.2805776982
 31
0.0
  0
LINE
  5
D0
330
1F
100
AcDbEntity
  8
0
  6
Continuous
 62
     7
370
    15
100
AcDbLine
 10
-86.6272572441
 20
85.4360222644
 30
0.0
 11
-85.8772572441
 21
84.1369841587
 31
0.0
  0
ARC
  5
D1
330
1F
100
AcDbEntity
  8
0
  6
Continuous
 62
     7
370
    15
100
AcDbCircle
 10
-87.1762953497
 20
83.3869841587
 30
0.0
 40
1.500000000000085
100
AcDbArc
 50
210.0
 51
30.0
  0
LINE
  5
D2
330
1F
100
AcDbEntity
  8
0
  6
Continuous
 62
     7
370
    15
100
AcDbLine
 10
-89.2253334554
 20
83.9360222644
 30
0.0
 11
-88.4753334554
 21
82.6369841587
 31
0.0
  0
ARC
  5
D3
330
1F
100
AcDbEntity
  8
0
  6
Continuous
 62
     7
370
    15
100
AcDbCircle
 10
-87.9262953497
 20
84.6860222644
 30
0.0
 40
1.500000000000071
100
AcDbArc
 50
30.0
 51
210.0
  0
LINE
  5
D4
330
1F
100
AcDbEntity
  8
0
  6
Continuous
 62
     7
370
    15
100
AcDbLine
 10
-79.7253334554
 20
67.4815395925
 30
0.0
 11
-80.4753334554
 21
68.7805776982
 31
0.0
  0
ARC
  5
D5
330
1F
100
AcDbEntity
  8
0
  6
Continuous
 62
     7
370
    15
100
AcDbCircle
 10
-79.1762953497
 20
69.5305776982
 30
0.0
 40
1.500000000000053
100
AcDbArc
 50
30.0
 51
210.0
  0
LINE
  5
D6
330
1F
100
AcDbEntity
  8
0
  6
Continuous
 62
     7
370
    15
100
AcDbLine
 10
-77.1272572441
 20
68.9815395925
 30
0.0
 11
-77.8772572441
 21
70.2805776982
 31
0.0
  0
ARC
  5
D7
330
1F
100
AcDbEntity
  8
0
  6
Continuous
 62
     7
370
    15
100
AcDbCircle
 10
-78.4262953497
 20
68.2315395925
 30
0.0
 40
1.500000000000007
100
AcDbArc
 50
210.0
 51
30.0
  0
CIRCLE
  5
D8
330
1F
100
AcDbEntity
  8
0
  6
Continuous
 62
     7
370
    15
100
AcDbCircle
 10
-15.0
 20
69.0
 30
0.0
 40
1.500000000000002
  0
ARC
  5
D9
330
1F
100
AcDbEntity
  8
0
  6
Continuous
 62
     7
370
    15
100
AcDbCircle
 10
-72.3026222109
 20
-81.0700873147
 30
0.0
 40
1.500000000000214
100
AcDbArc
 50
261.0
 51
81.0
  0
LINE
  5
DA
330
1F
100
AcDbEntity
  8
0
  6
Continuous
 62
     7
370
    15
100
AcDbLine
 10
-74.0188064194
 20
-82.316968128
 30
0.0
 11
-72.5372739085
 21
-82.5516198256
 31
0.0
  0
ARC
  5
DB
330
1F
100
AcDbEntity
  8
0
  6
Continuous
 62
     7
370
    15
100
AcDbCircle
 10
-73.7841547218
 20
-80.8354356171
 30
0.0
 40
1.500000000000896
100
AcDbArc
 50
81.0
 51
261.0
  0
LINE
  5
DC
330
1F
100
AcDbEntity
  8
0
  6
Continuous
 62
     7
370
    15
100
AcDbLine
 10
-73.5495030242
 20
-79.3539031062
 30
0.0
 11
-72.0679705133
 21
-79.5885548038
 31
0.0
  0
CIRCLE
  5
DD
330
1F
100
AcDbEntity
  8
0
  6
Continuous
 62
     7
370
    15
100
AcDbCircle
 10
-16.0
 20
-63.0
 30
0.0
 40
1.500000000000002
  0
CIRCLE
  5
DE
330
1F
100
AcDbEntity
  8
0
  6
Continuous
 62
     7
370
    15
100
AcDbCircle
 10
16.0
 20
-63.0
 30
0.0
 40
1.5
  0
LINE
  5
DF
330
1F
100
AcDbEntity
  8
0
  6
Continuous
 62
     7
370
    15
100
AcDbLine
 10
78.9526532153
 20
-71.9171048696
 30
0.0
 11
78.7180015178
 21
-70.4355723587
 31
0.0
  0
ARC
  5
E0
330
1F
100
AcDbEntity
  8
0
  6
Continuous
 62
     7
370
    15
100
AcDbCircle
 10
80.1995340287
 20
-70.2009206611
 30
0.0
 40
1.500000000000009
100
AcDbArc
 50
9.0
 51
189.0
  0
LINE
  5
E1
330
1F
100
AcDbEntity
  8
0
  6
Continuous
 62
     7
370
    15
100
AcDbLine
 10
81.9157182371
 20
-71.4478014745
 30
0.0
 11
81.6810665396
 21
-69.9662689636
 31
0.0
  0
ARC
  5
E2
330
1F
100
AcDbEntity
  8
0
  6
Continuous
 62
     7
370
    15
100
AcDbCircle
 10
80.4341857262
 20
-71.682453172
 30
0.0
 40
1.499999999999986
100
AcDbArc
 50
189.0
 51
9.0
  0
LINE
  5
E3
330
1F
100
AcDbEntity
  8
0
  6
Continuous
 62
     7
370
    15
100
AcDbLine
 10
84.4186696778
 20
-87.250814924
 30
0.0
 11
84.6533213753
 21
-88.7323474349
 31
0.0
  0
ARC
  5
E4
330
1F
100
AcDbEntity
  8
0
  6
Continuous
 62
     7
370
    15
100
AcDbCircle
 10
83.1717888644
 20
-88.9669991324
 30
0.0
 40
1.500000000000002
100
AcDbArc
 50
189.0
 51
9.0
  0
LINE
  5
E5
330
1F
100
AcDbEntity
  8
0
  6
Continuous
 62
     7
370
    15
100
AcDbLine
 10
81.455604656
 20
-87.7201183191
 30
0.0
 11
81.6902563536
 21
-89.20165083
 31
0.0
  0
ARC
  5
E6
330
1F
100
AcDbEntity
  8
0
  6
Continuous
 62
     7
370
    15
100
AcDbCircle
 10
82.9371371669
 20
-87.4854666215
 30
0.0
 40
1.500000000000004
100
AcDbArc
 50
9.0
 51
189.0
  0
LINE
  5
E7
330
1F
100
AcDbEntity
  8
0
  6
Continuous
 62
     7
370
    15
100
AcDbLine
 10
9.1810972379
 20
2.2537313846
 30
0.0
 11
-8.9461339362
 21
15.6358932219
 31
0.0
  0
LINE
  5
E8
330
1F
100
AcDbEntity
  8
0
  6
Continuous
 62
     7
370
    15
100
AcDbLine
 10
-8.9461339362
 20
15.6358932219
 30
0.0
 11
-8.9461339362
 21
25.8724472967
 31
0.0
  0
LINE
  5
E9
330
1F
100
AcDbEntity
  8
0
  6
Continuous
 62
     7
370
    15
100
AcDbLine
 10
-8.9461339362
 20
25.8724472967
 30
0.0
 11
5.5556510031
 21
15.1660513845
 31
0.0
  0
LINE
  5
EA
330
1F
100
AcDbEntity
  8
0
  6
Continuous
 62
     7
370
    15
100
AcDbLine
 10
5.5556510031
 20
15.1660513845
 30
0.0
 11
5.5556510031
 21
21.350636138
 31
0.0
  0
LINE
  5
EB
330
1F
100
AcDbEntity
  8
0
  6
Continuous
 62
     7
370
    15
100
AcDbLine
 10
5.5556510031
 20
21.350636138
 30
0.0
 11
9.1810972379
 21
18.6748702129
 31
0.0
  0
LINE
  5
EC
330
1F
100
AcDbEntity
  8
0
  6
Continuous
 62
     7
370
    15
100
AcDbLine
 10
9.1810972379
 20
18.6748702129
 30
0.0
 11
9.1810972379
 21
2.2537313846
 31
0.0
  0
LINE
  5
ED
330
1F
100
AcDbEntity
  8
0
  6
Continuous
 62
     7
370
    15
100
AcDbLine
 10
-2.5482876394
 20
-30.8851131054
 30
0.0
 11
-8.9461339362
 21
-26.16336925
 31
0.0
  0
LINE
  5
EE
330
1F
100
AcDbEntity
  8
0
  6
Continuous
 62
     7
370
    15
100
AcDbLine
 10
-8.9461339362
 20
-26.16336925
 30
0.0
 11
-8.9461339362
 21
-15.9268151752
 31
0.0
  0
LINE
  5
EF
330
1F
100
AcDbEntity
  8
0
  6
Continuous
 62
     7
370
    15
100
AcDbLine
 10
-8.9461339362
 20
-15.9268151752
 30
0.0
 11
9.1810972379
 21
-29.3089770125
 31
0.0
  0
LINE
  5
F0
330
1F
100
AcDbEntity
  8
0
  6
Continuous
 62
     7
370
    15
100
AcDbLine
 10
9.1810972379
 20
-29.3089770125
 30
0.0
 11
9.1810972379
 21
-39.5455310873
 31
0.0
  0
LINE
  5
F1
330
1F
100
AcDbEntity
  8
0
  6
Continuous
 62
     7
370
    15
100
AcDbLine
 10
9.1810972379
 20
-39.5455310873
 30
0.0
 11
1.5036816818
 21
-33.8774391338
 31
0.0
  0
LINE
  5
F2
330
1F
100
AcDbEntity
  8
0
  6
Continuous
 62
     7
370
    15
100
AcDbLine
 10
1.5036816818
 20
-33.8774391338
 30
0.0
 11
1.5036816818
 21
-36.8631007389
 31
0.0
  0
LINE
  5
F3
330
1F
100
AcDbEntity
  8
0
  6
Continuous
 62
     7
370
    15
100
AcDbLine
 10
1.5036816818
 20
-36.8631007389
 30
0.0
 11
9.1810972379
 21
-42.5311926924
 31
0.0
  0
LINE
  5
F4
330
1F
100
AcDbEntity
  8
0
  6
Continuous
 62
     7
370
    15
100
AcDbLine
 10
9.1810972379
 20
-42.5311926924
 30
0.0
 11
9.1810972379
 21
-52.7677467672
 31
0.0
  0
LINE
  5
F5
330
1F
100
AcDbEntity
  8
0
  6
Continuous
 62
     7
370
    15
100
AcDbLine
 10
9.1810972379
 20
-52.7677467672
 30
0.0
 11
-8.9461339362
 21
-39.3855849299
 31
0.0
  0
LINE
  5
F6
330
1F
100
AcDbEntity
  8
0
  6
Continuous
 62
     7
370
    15
100
AcDbLine
 10
-8.9461339362
 20
-39.3855849299
 30
0.0
 11
-8.9461339362
 21
-29.1490308551
 31
0.0
  0
LINE
  5
F7
330
1F
100
AcDbEntity
  8
0
  6
Continuous
 62
     7
370
    15
100
AcDbLine
 10
-8.9461339362
 20
-29.1490308551
 30
0.0
 11
-2.5482876394
 21
-33.8707747106
 31
0.0
  0
LINE
  5
F8
330
1F
100
AcDbEntity
  8
0
  6
Continuous
 62
     7
370
    15
100
AcDbLine
 10
-2.5482876394
 20
-33.8707747106
 30
0.0
 11
-2.5482876394
 21
-30.8851131054
 31
0.0
  0
ENDSEC
  0
SECTION
  2
OBJECTS
  0
DICTIONARY
  5
C
330
0
100
AcDbDictionary
281
     1
  3
ACAD_GROUP
350
D
  3
ACAD_LAYOUT
350
1A
  3
ACAD_MLINESTYLE
350
17
  3
ACAD_PLOTSETTINGS
350
19
  3
ACAD_PLOTSTYLENAME
350
E
  0
DICTIONARY
  5
D
102
{ACAD_REACTORS
330
C
102
}
330
C
100
AcDbDictionary
281
     1
  0
DICTIONARY
  5
1A
102
{ACAD_REACTORS
330
C
102
}
330
C
100
AcDbDictionary
281
     1
  3
Layout1
350
1E
  3
Layout2
350
26
  3
Model
350
22
  0
DICTIONARY
  5
17
102
{ACAD_REACTORS
330
C
102
}
330
C
100
AcDbDictionary
281
     1
  3
Standard
350
18
  0
DICTIONARY
  5
19
102
{ACAD_REACTORS
330
C
102
}
330
C
100
AcDbDictionary
281
     1
  0
ACDBDICTIONARYWDFLT
  5
E
102
{ACAD_REACTORS
330
C
102
}
330
C
100
AcDbDictionary
281
     1
  3
Normal
350
F
100
AcDbDictionaryWithDefault
340
F
  0
LAYOUT
  5
1E
102
{ACAD_REACTORS
330
1A
102
}
330
1A
100
AcDbPlotSettings
  1

  2
none_device
  4

  6

 40
0.0
 41
0.0
 42
0.0
 43
0.0
 44
0.0
 45
0.0
 46
0.0
 47
0.0
 48
0.0
 49
0.0
140
0.0
141
0.0
142
1.0
143
1.0
 70
   688
 72
     0
 73
     0
 74
     5
  7

 75
    16
147
1.0
148
0.0
149
0.0
100
AcDbLayout
  1
Layout1
 70
     1
 71
     1
 10
0.0
 20
0.0
 11
420.0
 21
297.0
 12
0.0
 22
0.0
 32
0.0
 14
1.0000000000E+20
 24
1.0000000000E+20
 34
1.0000000000E+20
 15
-1.0000000000E+20
 25
-1.0000000000E+20
 35
-1.0000000000E+20
146
0.0
 13
0.0
 23
0.0
 33
0.0
 16
1.0
 26
0.0
 36
0.0
 17
0.0
 27
1.0
 37
0.0
 76
     0
330
1B
  0
LAYOUT
  5
26
102
{ACAD_REACTORS
330
1A
102
}
330
1A
100
AcDbPlotSettings
  1

  2
none_device
  4

  6

 40
0.0
 41
0.0
 42
0.0
 43
0.0
 44
0.0
 45
0.0
 46
0.0
 47
0.0
 48
0.0
 49
0.0
140
0.0
141
0.0
142
1.0
143
1.0
 70
   688
 72
     0
 73
     0
 74
     5
  7

 75
    16
147
1.0
148
0.0
149
0.0
100
AcDbLayout
  1
Layout2
 70
     1
 71
     2
 10
0.0
 20
0.0
 11
0.0
 21
0.0
 12
0.0
 22
0.0
 32
0.0
 14
0.0
 24
0.0
 34
0.0
 15
0.0
 25
0.0
 35
0.0
146
0.0
 13
0.0
 23
0.0
 33
0.0
 16
1.0
 26
0.0
 36
0.0
 17
0.0
 27
1.0
 37
0.0
 76
     0
330
23
  0
LAYOUT
  5
22
102
{ACAD_REACTORS
330
1A
102
}
330
1A
100
AcDbPlotSettings
  1

  2
none_device
  4
ANSI_A_(11.00_x_8.50_Inches)
  6

 40
6.35
 41
19.05
 42
6.35000508
 43
19.05000254
 44
279.4
 45
215.9
 46
133.34999746
 47
89.5896114857
 48
0.0
 49
0.0
140
0.0
141
0.0
142
0.0443029365
143
1.0
 70
  1696
 72
     0
 73
     0
 74
     0
  7

 75
     0
147
0.0179189148
148
0.0
149
0.0
100
AcDbLayout
  1
Model
 70
     1
 71
     0
 10
0.0
 20
0.0
 11
420.0
 21
297.0
 12
0.0
 22
0.0
 32
0.0
 14
-100.4061007058
 24
-95.5839598968
 34
0.0
 15
100.4061007058
 25
94.35830261
 35
0.0
146
0.0
 13
0.0
 23
0.0
 33
0.0
 16
1.0
 26
0.0
 36
0.0
 17
0.0
 27
1.0
 37
0.0
 76
     0
330
1F
331
29
  0
MLINESTYLE
  5
18
102
{ACAD_REACTORS
330
17
102
}
330
17
100
AcDbMlineStyle
  2
Standard
 70
     0
  3

 62
   256
 51
90.0
 52
90.0
 71
     2
 49
0.5
 62
   256
  6
BYLAYER
 49
-0.5
 62
   256
  6
BYLAYER
  0
ACDBPLACEHOLDER
  5
F
102
{ACAD_REACTORS
330
E
102
}
330
E
  0
ENDSEC
  0
EOF
