  0
SECTION
  2
HEADER
  9
$ACADVER
  1
AC1014
  9
$ACADMAINTVER
 70
     9
  9
$DWGCODEPAGE
  3
ANSI_1252
  9
$INSBASE
 10
0.0
 20
0.0
 30
0.0
  9
$EXTMIN
 10
2889.116903218057
 20
-1687.951884616154
 30
0.0
  9
$EXTMAX
 10
2990.211839560672
 20
-1602.784703019075
 30
0.0
  9
$LIMMIN
 10
0.0
 20
0.0
  9
$LIMMAX
 10
12.0
 20
9.0
  9
$ORTHOMODE
 70
     0
  9
$REGENMODE
 70
     1
  9
$FILLMODE
 70
     1
  9
$QTEXTMODE
 70
     0
  9
$MIRRTEXT
 70
     1
  9
$DRAGMODE
 70
     2
  9
$LTSCALE
 40
1.0
  9
$OSMODE
 70
    37
  9
$ATTMODE
 70
     1
  9
$TEXTSIZE
 40
0.2
  9
$TRACEWID
 40
0.05
  9
$TEXTSTYLE
  7
STANDARD
  9
$CLAYER
  8
0
  9
$CELTYPE
  6
BYLAYER
  9
$CECOLOR
 62
   256
  9
$CELTSCALE
 40
1.0
  9
$DELOBJ
 70
     1
  9
$DISPSILH
 70
     0
  9
$DIMSCALE
 40
1.0
  9
$DIMASZ
 40
0.18
  9
$DIMEXO
 40
0.0625
  9
$DIMDLI
 40
0.38
  9
$DIMRND
 40
0.0
  9
$DIMDLE
 40
0.0
  9
$DIMEXE
 40
0.18
  9
$DIMTP
 40
0.0
  9
$DIMTM
 40
0.0
  9
$DIMTXT
 40
0.18
  9
$DIMCEN
 40
0.09
  9
$DIMTSZ
 40
0.0
  9
$DIMTOL
 70
     0
  9
$DIMLIM
 70
     0
  9
$DIMTIH
 70
     1
  9
$DIMTOH
 70
     1
  9
$DIMSE1
 70
     0
  9
$DIMSE2
 70
     0
  9
$DIMTAD
 70
     0
  9
$DIMZIN
 70
     0
  9
$DIMBLK
  1

  9
$DIMASO
 70
     1
  9
$DIMSHO
 70
     1
  9
$DIMPOST
  1

  9
$DIMAPOST
  1

  9
$DIMALT
 70
     0
  9
$DIMALTD
 70
     2
  9
$DIMALTF
 40
25.4
  9
$DIMLFAC
 40
1.0
  9
$DIMTOFL
 70
     0
  9
$DIMTVP
 40
0.0
  9
$DIMTIX
 70
     0
  9
$DIMSOXD
 70
     0
  9
$DIMSAH
 70
     0
  9
$DIMBLK1
  1

  9
$DIMBLK2
  1

  9
$DIMSTYLE
  2
STANDARD
  9
$DIMCLRD
 70
     0
  9
$DIMCLRE
 70
     0
  9
$DIMCLRT
 70
     0
  9
$DIMTFAC
 40
1.0
  9
$DIMGAP
 40
0.09
  9
$DIMJUST
 70
     0
  9
$DIMSD1
 70
     0
  9
$DIMSD2
 70
     0
  9
$DIMTOLJ
 70
     1
  9
$DIMTZIN
 70
     0
  9
$DIMALTZ
 70
     0
  9
$DIMALTTZ
 70
     0
  9
$DIMFIT
 70
     5
  9
$DIMUPT
 70
     0
  9
$DIMUNIT
 70
     2
  9
$DIMDEC
 70
     4
  9
$DIMTDEC
 70
     4
  9
$DIMALTU
 70
     2
  9
$DIMALTTD
 70
     2
  9
$DIMTXSTY
  7
STANDARD
  9
$DIMAUNIT
 70
     0
  9
$LUNITS
 70
     2
  9
$LUPREC
 70
     2
  9
$SKETCHINC
 40
0.1
  9
$FILLETRAD
 40
0.5
  9
$AUNITS
 70
     0
  9
$AUPREC
 70
     0
  9
$MENU
  1
.
  9
$ELEVATION
 40
0.0
  9
$PELEVATION
 40
0.0
  9
$THICKNESS
 40
0.0
  9
$LIMCHECK
 70
     0
  9
$CHAMFERA
 40
0.0
  9
$CHAMFERB
 40
0.0
  9
$CHAMFERC
 40
0.0
  9
$CHAMFERD
 40
0.0
  9
$SKPOLY
 70
     0
  9
$TDCREATE
 40
2457544.735742245
  9
$TDUPDATE
 40
2457544.735742291
  9
$TDINDWG
 40
0.0000000116
  9
$TDUSRTIMER
 40
0.0000000116
  9
$USRTIMER
 70
     1
  9
$ANGBASE
 50
0.0
  9
$ANGDIR
 70
     0
  9
$PDMODE
 70
     0
  9
$PDSIZE
 40
0.0
  9
$PLINEWID
 40
0.0
  9
$COORDS
 70
     1
  9
$SPLFRAME
 70
     0
  9
$SPLINETYPE
 70
     6
  9
$SPLINESEGS
 70
     8
  9
$ATTDIA
 70
     0
  9
$ATTREQ
 70
     1
  9
$HANDLING
 70
     1
  9
$HANDSEED
  5
2ED
  9
$SURFTAB1
 70
     6
  9
$SURFTAB2
 70
     6
  9
$SURFTYPE
 70
     6
  9
$SURFU
 70
     6
  9
$SURFV
 70
     6
  9
$UCSNAME
  2

  9
$UCSORG
 10
0.0
 20
0.0
 30
0.0
  9
$UCSXDIR
 10
1.0
 20
0.0
 30
0.0
  9
$UCSYDIR
 10
0.0
 20
1.0
 30
0.0
  9
$PUCSNAME
  2

  9
$PUCSORG
 10
0.0
 20
0.0
 30
0.0
  9
$PUCSXDIR
 10
1.0
 20
0.0
 30
0.0
  9
$PUCSYDIR
 10
0.0
 20
1.0
 30
0.0
  9
$USERI1
 70
     0
  9
$USERI2
 70
     0
  9
$USERI3
 70
     0
  9
$USERI4
 70
     0
  9
$USERI5
 70
     0
  9
$USERR1
 40
0.0
  9
$USERR2
 40
0.0
  9
$USERR3
 40
0.0
  9
$USERR4
 40
0.0
  9
$USERR5
 40
0.0
  9
$WORLDVIEW
 70
     1
  9
$SHADEDGE
 70
     3
  9
$SHADEDIF
 70
    70
  9
$TILEMODE
 70
     1
  9
$MAXACTVP
 70
    64
  9
$PINSBASE
 10
0.0
 20
0.0
 30
0.0
  9
$PLIMCHECK
 70
     0
  9
$PEXTMIN
 10
1.000000000000000E+20
 20
1.000000000000000E+20
 30
1.000000000000000E+20
  9
$PEXTMAX
 10
-1.000000000000000E+20
 20
-1.000000000000000E+20
 30
-1.000000000000000E+20
  9
$PLIMMIN
 10
0.0
 20
0.0
  9
$PLIMMAX
 10
12.0
 20
9.0
  9
$UNITMODE
 70
     0
  9
$VISRETAIN
 70
     1
  9
$PLINEGEN
 70
     0
  9
$PSLTSCALE
 70
     1
  9
$TREEDEPTH
 70
  3020
  9
$PICKSTYLE
 70
     1
  9
$CMLSTYLE
  2
STANDARD
  9
$CMLJUST
 70
     0
  9
$CMLSCALE
 40
1.0
  9
$PROXYGRAPHICS
 70
     1
  9
$MEASUREMENT
 70
     0
  0
ENDSEC
  0
SECTION
  2
CLASSES
  0
CLASS
  1
ACDBDICTIONARYWDFLT
  2
AcDbDictionaryWithDefault
  3
ObjectDBX Classes
 90
        0
280
     0
281
     0
  0
CLASS
  1
VISUALSTYLE
  2
AcDbVisualStyle
  3
ObjectDBX Classes
 90
     4095
280
     0
281
     0
  0
CLASS
  1
MATERIAL
  2
AcDbMaterial
  3
ObjectDBX Classes
 90
     1153
280
     0
281
     0
  0
CLASS
  1
SCALE
  2
AcDbScale
  3
ObjectDBX Classes
 90
     1153
280
     0
281
     0
  0
CLASS
  1
TABLESTYLE
  2
AcDbTableStyle
  3
ObjectDBX Classes
 90
     4095
280
     0
281
     0
  0
CLASS
  1
MLEADERSTYLE
  2
AcDbMLeaderStyle
  3
ACDB_MLEADERSTYLE_CLASS
 90
     4095
280
     0
281
     0
  0
CLASS
  1
SUN
  2
AcDbSun
  3
SCENEOE
 90
     1153
280
     0
281
     0
  0
CLASS
  1
DICTIONARYVAR
  2
AcDbDictionaryVar
  3
ObjectDBX Classes
 90
        0
280
     0
281
     0
  0
CLASS
  1
XRECORD
  2
AcDbXrecord
  3
ObjectDBX Classes
 90
        0
280
     0
281
     0
  0
CLASS
  1
LWPOLYLINE
  2
AcDbPolyline
  3
ObjectDBX Classes
 90
        0
280
     0
281
     1
  0
CLASS
  1
HATCH
  2
AcDbHatch
  3
ObjectDBX Classes
 90
        0
280
     0
281
     1
  0
CLASS
  1
ACDBPLACEHOLDER
  2
AcDbPlaceHolder
  3
ObjectDBX Classes
 90
        0
280
     0
281
     0
  0
CLASS
  1
LAYOUT
  2
AcDbLayout
  3
ObjectDBX Classes
 90
        0
280
     0
281
     0
  0
ENDSEC
  0
SECTION
  2
TABLES
  0
TABLE
  2
VPORT
  5
8
102
{ACAD_XDICTIONARY
360
2E2
102
}
330
0
100
AcDbSymbolTable
 70
     1
  0
VPORT
  5
29
330
8
100
AcDbSymbolTableRecord
100
AcDbViewportTableRecord
  2
*ACTIVE
 70
     0
 10
0.0
 20
0.0
 11
1.0
 21
1.0
 12
2939.664371389365
 22
-1645.368293817615
 13
0.0
 23
0.0
 14
0.5
 24
0.5
 15
0.5
 25
0.5
 16
0.0
 26
0.0
 36
1.0
 17
0.0
 27
0.0
 37
0.0
 40
86.87052522902103
 41
1.187017515982729
 42
50.0
 43
0.0
 44
0.0
 50
0.0
 51
0.0
 71
     0
 72
   100
 73
     1
 74
     3
 75
     0
 76
     0
 77
     0
 78
     0
  0
ENDTAB
  0
TABLE
  2
LTYPE
  5
5
330
0
100
AcDbSymbolTable
 70
     1
  0
LTYPE
  5
14
330
5
100
AcDbSymbolTableRecord
100
AcDbLinetypeTableRecord
  2
BYBLOCK
 70
     0
  3

 72
    65
 73
     0
 40
0.0
  0
LTYPE
  5
15
330
5
100
AcDbSymbolTableRecord
100
AcDbLinetypeTableRecord
  2
BYLAYER
 70
     0
  3

 72
    65
 73
     0
 40
0.0
  0
LTYPE
  5
16
330
5
100
AcDbSymbolTableRecord
100
AcDbLinetypeTableRecord
  2
CONTINUOUS
 70
     0
  3
Solid line
 72
    65
 73
     0
 40
0.0
  0
ENDTAB
  0
TABLE
  2
LAYER
  5
2
330
0
100
AcDbSymbolTable
 70
     2
  0
LAYER
  5
10
330
2
100
AcDbSymbolTableRecord
100
AcDbLayerTableRecord
  2
0
 70
     0
 62
     7
  6
CONTINUOUS
  0
LAYER
  5
6E
330
2
100
AcDbSymbolTableRecord
100
AcDbLayerTableRecord
  2
MILLING_NORMAL
 70
     0
 62
    18
  6
CONTINUOUS
  0
ENDTAB
  0
TABLE
  2
STYLE
  5
3
330
0
100
AcDbSymbolTable
 70
     1
  0
STYLE
  5
11
330
3
100
AcDbSymbolTableRecord
100
AcDbTextStyleTableRecord
  2
STANDARD
 70
     0
 40
0.0
 41
1.0
 50
0.0
 71
     0
 42
0.2
  3
txt
  4

  0
ENDTAB
  0
TABLE
  2
VIEW
  5
6
330
0
100
AcDbSymbolTable
 70
     0
  0
ENDTAB
  0
TABLE
  2
UCS
  5
7
330
0
100
AcDbSymbolTable
 70
     0
  0
ENDTAB
  0
TABLE
  2
APPID
  5
9
330
0
100
AcDbSymbolTable
 70
     2
  0
APPID
  5
12
330
9
100
AcDbSymbolTableRecord
100
AcDbRegAppTableRecord
  2
ACAD
 70
     0
  0
APPID
  5
2EC
330
9
100
AcDbSymbolTableRecord
100
AcDbRegAppTableRecord
  2
ACAD_MLEADERVER
 70
     0
  0
ENDTAB
  0
TABLE
  2
DIMSTYLE
  5
A
330
0
100
AcDbSymbolTable
 70
     1
  0
DIMSTYLE
105
27
330
A
100
AcDbSymbolTableRecord
100
AcDbDimStyleTableRecord
  2
STANDARD
 70
     0
  3

  4

  5

  6

  7

 40
1.0
 41
0.18
 42
0.0625
 43
0.38
 44
0.18
 45
0.0
 46
0.0
 47
0.0
 48
0.0
140
0.18
141
0.09
142
0.0
143
25.4
144
1.0
145
0.0
146
1.0
147
0.09
 71
     0
 72
     0
 73
     1
 74
     1
 75
     0
 76
     0
 77
     0
 78
     0
170
     0
171
     2
172
     0
173
     0
174
     0
175
     0
176
     0
177
     0
178
     0
270
     2
271
     4
272
     4
273
     2
274
     2
340
11
275
     0
280
     0
281
     0
282
     0
283
     1
284
     0
285
     0
286
     0
287
     3
288
     0
  0
ENDTAB
  0
TABLE
  2
BLOCK_RECORD
  5
1
330
0
100
AcDbSymbolTable
 70
     1
  0
BLOCK_RECORD
  5
1F
330
1
100
AcDbSymbolTableRecord
100
AcDbBlockTableRecord
  2
*MODEL_SPACE
  0
BLOCK_RECORD
  5
1B
330
1
100
AcDbSymbolTableRecord
100
AcDbBlockTableRecord
  2
*PAPER_SPACE
  0
ENDTAB
  0
ENDSEC
  0
SECTION
  2
BLOCKS
  0
BLOCK
  5
20
330
1F
100
AcDbEntity
  8
0
100
AcDbBlockBegin
  2
*MODEL_SPACE
 70
     0
 10
0.0
 20
0.0
 30
0.0
  3
*MODEL_SPACE
  1

  0
ENDBLK
  5
21
330
1F
100
AcDbEntity
  8
0
100
AcDbBlockEnd
  0
BLOCK
  5
1C
330
1B
100
AcDbEntity
 67
     1
  8
0
100
AcDbBlockBegin
  2
*PAPER_SPACE
 70
     0
 10
0.0
 20
0.0
 30
0.0
  3
*PAPER_SPACE
  1

  0
ENDBLK
  5
1D
330
1B
100
AcDbEntity
 67
     1
  8
0
100
AcDbBlockEnd
  0
ENDSEC
  0
SECTION
  2
ENTITIES
  0
CIRCLE
  5
6F
330
1F
100
AcDbEntity
  8
MILLING_NORMAL
100
AcDbCircle
 10
2972.677085771687
 20
-1620.318544345897
 30
0.0
 40
3.536957333163864
  0
ARC
  5
70
330
1F
100
AcDbEntity
  8
MILLING_NORMAL
100
AcDbCircle
 10
3885.679787006652
 20
-3080.780546989452
 30
0.0
 40
1722.218614475351
100
AcDbArc
 50
123.0527011150936
 51
123.9851225330367
  0
ARC
  5
71
330
1F
100
AcDbEntity
  8
MILLING_NORMAL
100
AcDbCircle
 10
2922.536596882431
 20
-1652.032805910623
 30
0.0
 40
0.8499999931919386
100
AcDbArc
 50
302.3645379260327
 51
302.8868638033541
  0
ARC
  5
72
330
1F
100
AcDbEntity
  8
MILLING_NORMAL
100
AcDbCircle
 10
2928.063623153519
 20
-1661.042922312149
 30
0.0
 40
9.720350511436852
100
AcDbArc
 50
121.4526472645448
 51
179.0366635526287
  0
LINE
  5
73
330
1F
100
AcDbEntity
  8
MILLING_NORMAL
100
AcDbLine
 10
2918.344646533524
 20
-1660.879497940737
 30
0.0
 11
2918.344322093812
 21
-1664.875977324525
 31
0.0
  0
ARC
  5
74
330
1F
100
AcDbEntity
  8
MILLING_NORMAL
100
AcDbCircle
 10
2919.844322088869
 20
-1664.876099096594
 30
0.0
 40
1.499999999999944
100
AcDbArc
 50
179.9953486495599
 51
269.9953486495598
  0
LINE
  5
75
330
1F
100
AcDbEntity
  8
MILLING_NORMAL
100
AcDbLine
 10
2919.844200316799
 20
-1666.376099091651
 30
0.0
 11
2920.326139325128
 21
-1666.376138216125
 31
0.0
  0
ARC
  5
76
330
1F
100
AcDbEntity
  8
MILLING_NORMAL
100
AcDbCircle
 10
2917.997666067626
 20
-1653.116557053152
 30
0.0
 40
13.46247675312334
100
AcDbArc
 50
279.9599786866587
 51
313.3874246316366
  0
LINE
  5
77
330
1F
100
AcDbEntity
  8
MILLING_NORMAL
100
AcDbLine
 10
2927.245418628497
 20
-1662.900081617504
 30
0.0
 11
2931.750284307155
 21
-1658.888339108585
 31
0.0
  0
LINE
  5
78
330
1F
100
AcDbEntity
  8
MILLING_NORMAL
100
AcDbLine
 10
2931.750284307155
 20
-1658.888339108585
 30
0.0
 11
2936.255149985814
 21
-1654.789534055008
 31
0.0
  0
LINE
  5
79
330
1F
100
AcDbEntity
  8
MILLING_NORMAL
100
AcDbLine
 10
2936.255149985814
 20
-1654.789534055008
 30
0.0
 11
2940.760015664473
 21
-1650.603666456775
 31
0.0
  0
LINE
  5
7A
330
1F
100
AcDbEntity
  8
MILLING_NORMAL
100
AcDbLine
 10
2940.760015664473
 20
-1650.603666456775
 30
0.0
 11
2945.264881343131
 21
-1646.330736313884
 31
0.0
  0
LINE
  5
7B
330
1F
100
AcDbEntity
  8
MILLING_NORMAL
100
AcDbLine
 10
2945.264881343131
 20
-1646.330736313884
 30
0.0
 11
2945.438158934875
 21
-1646.160383349522
 31
0.0
  0
LINE
  5
7C
330
1F
100
AcDbEntity
  8
MILLING_NORMAL
100
AcDbLine
 10
2945.438158934875
 20
-1646.160383349522
 30
0.0
 11
2945.608705407276
 21
-1645.983924478279
 31
0.0
  0
LINE
  5
7D
330
1F
100
AcDbEntity
  8
MILLING_NORMAL
100
AcDbLine
 10
2945.608705407276
 20
-1645.983924478279
 30
0.0
 11
2945.776325574505
 21
-1645.801439798735
 31
0.0
  0
LINE
  5
7E
330
1F
100
AcDbEntity
  8
MILLING_NORMAL
100
AcDbLine
 10
2945.776325574505
 20
-1645.801439798735
 30
0.0
 11
2945.940826248058
 21
-1645.61302202641
 31
0.0
  0
LINE
  5
7F
330
1F
100
AcDbEntity
  8
MILLING_NORMAL
100
AcDbLine
 10
2945.940826248058
 20
-1645.61302202641
 30
0.0
 11
2946.102016880261
 21
-1645.418776474849
 31
0.0
  0
LINE
  5
80
330
1F
100
AcDbEntity
  8
MILLING_NORMAL
100
AcDbLine
 10
2946.102016880261
 20
-1645.418776474849
 30
0.0
 11
2946.259710211351
 21
-1645.218820977273
 31
0.0
  0
LINE
  5
81
330
1F
100
AcDbEntity
  8
MILLING_NORMAL
100
AcDbLine
 10
2946.259710211351
 20
-1645.218820977273
 30
0.0
 11
2946.413722915985
 21
-1645.013285747651
 31
0.0
  0
LINE
  5
82
330
1F
100
AcDbEntity
  8
MILLING_NORMAL
100
AcDbLine
 10
2946.413722915985
 20
-1645.013285747651
 30
0.0
 11
2946.563876244908
 21
-1644.802313180538
 31
0.0
  0
LINE
  5
83
330
1F
100
AcDbEntity
  8
MILLING_NORMAL
100
AcDbLine
 10
2946.563876244908
 20
-1644.802313180538
 30
0.0
 11
2946.709996657412
 21
-1644.58605758957
 31
0.0
  0
LINE
  5
84
330
1F
100
AcDbEntity
  8
MILLING_NORMAL
100
AcDbLine
 10
2946.709996657412
 20
-1644.58605758957
 30
0.0
 11
2946.851916440219
 21
-1644.364684885011
 31
0.0
  0
LINE
  5
85
330
1F
100
AcDbEntity
  8
MILLING_NORMAL
100
AcDbLine
 10
2946.851916440219
 20
-1644.364684885011
 30
0.0
 11
2946.989474308397
 21
-1644.138372191335
 31
0.0
  0
LINE
  5
86
330
1F
100
AcDbEntity
  8
MILLING_NORMAL
100
AcDbLine
 10
2946.989474308397
 20
-1644.138372191335
 30
0.0
 11
2947.122515984038
 21
-1643.907307406329
 31
0.0
  0
LINE
  5
87
330
1F
100
AcDbEntity
  8
MILLING_NORMAL
100
AcDbLine
 10
2947.122515984038
 20
-1643.907307406329
 30
0.0
 11
2947.250894748489
 21
-1643.671688703816
 31
0.0
  0
LINE
  5
88
330
1F
100
AcDbEntity
  8
MILLING_NORMAL
100
AcDbLine
 10
2947.250894748489
 20
-1643.671688703816
 30
0.0
 11
2947.37447196414
 21
-1643.43172398254
 31
0.0
  0
LINE
  5
89
330
1F
100
AcDbEntity
  8
MILLING_NORMAL
100
AcDbLine
 10
2947.37447196414
 20
-1643.43172398254
 30
0.0
 11
2947.493117561977
 21
-1643.187630264369
 31
0.0
  0
LINE
  5
8A
330
1F
100
AcDbEntity
  8
MILLING_NORMAL
100
AcDbLine
 10
2947.493117561977
 20
-1643.187630264369
 30
0.0
 11
2947.606710491351
 21
-1642.93963304537
 31
0.0
  0
LINE
  5
8B
330
1F
100
AcDbEntity
  8
MILLING_NORMAL
100
AcDbLine
 10
2947.606710491351
 20
-1642.93963304537
 30
0.0
 11
2947.715139128754
 21
-1642.687965603808
 31
0.0
  0
LINE
  5
8C
330
1F
100
AcDbEntity
  8
MILLING_NORMAL
100
AcDbLine
 10
2947.715139128754
 20
-1642.687965603808
 30
0.0
 11
2947.818301642718
 21
-1642.432868269503
 31
0.0
  0
LINE
  5
8D
330
1F
100
AcDbEntity
  8
MILLING_NORMAL
100
AcDbLine
 10
2947.818301642718
 20
-1642.432868269503
 30
0.0
 11
2947.916106312325
 21
-1642.174587659357
 31
0.0
  0
LINE
  5
8E
330
1F
100
AcDbEntity
  8
MILLING_NORMAL
100
AcDbLine
 10
2947.916106312325
 20
-1642.174587659357
 30
0.0
 11
2948.008471797269
 21
-1641.913375884136
 31
0.0
  0
LINE
  5
8F
330
1F
100
AcDbEntity
  8
MILLING_NORMAL
100
AcDbLine
 10
2948.008471797269
 20
-1641.913375884136
 30
0.0
 11
2948.095327357768
 21
-1641.649489731863
 31
0.0
  0
LINE
  5
90
330
1F
100
AcDbEntity
  8
MILLING_NORMAL
100
AcDbLine
 10
2948.095327357768
 20
-1641.649489731863
 30
0.0
 11
2948.176613023168
 21
-1641.383189833352
 31
0.0
  0
LINE
  5
91
330
1F
100
AcDbEntity
  8
MILLING_NORMAL
100
AcDbLine
 10
2948.176613023168
 20
-1641.383189833352
 30
0.0
 11
2948.252279708456
 21
-1641.114739815524
 31
0.0
  0
LINE
  5
92
330
1F
100
AcDbEntity
  8
MILLING_NORMAL
100
AcDbLine
 10
2948.252279708456
 20
-1641.114739815524
 30
0.0
 11
2948.322289278424
 21
-1640.844405448209
 31
0.0
  0
LINE
  5
93
330
1F
100
AcDbEntity
  8
MILLING_NORMAL
100
AcDbLine
 10
2948.322289278424
 20
-1640.844405448209
 30
0.0
 11
2948.386614559653
 21
-1640.572453790134
 31
0.0
  0
LINE
  5
94
330
1F
100
AcDbEntity
  8
MILLING_NORMAL
100
AcDbLine
 10
2948.386614559653
 20
-1640.572453790134
 30
0.0
 11
2948.445239300967
 21
-1640.299152339697
 31
0.0
  0
LINE
  5
95
330
1F
100
AcDbEntity
  8
MILLING_NORMAL
100
AcDbLine
 10
2948.445239300967
 20
-1640.299152339697
 30
0.0
 11
2948.498158083418
 21
-1640.024768196017
 31
0.0
  0
LINE
  5
96
330
1F
100
AcDbEntity
  8
MILLING_NORMAL
100
AcDbLine
 10
2948.498158083418
 20
-1640.024768196017
 30
0.0
 11
2948.545376181305
 21
-1639.749567235543
 31
0.0
  0
LINE
  5
97
330
1F
100
AcDbEntity
  8
MILLING_NORMAL
100
AcDbLine
 10
2948.545376181305
 20
-1639.749567235543
 30
0.0
 11
2948.586909376112
 21
-1639.473813309254
 31
0.0
  0
LINE
  5
98
330
1F
100
AcDbEntity
  8
MILLING_NORMAL
100
AcDbLine
 10
2948.586909376112
 20
-1639.473813309254
 30
0.0
 11
2948.622783725605
 21
-1639.197767465195
 31
0.0
  0
LINE
  5
99
330
1F
100
AcDbEntity
  8
MILLING_NORMAL
100
AcDbLine
 10
2948.622783725605
 20
-1639.197767465195
 30
0.0
 11
2948.65303529066
 21
-1638.921687200728
 31
0.0
  0
LINE
  5
9A
330
1F
100
AcDbEntity
  8
MILLING_NORMAL
100
AcDbLine
 10
2948.65303529066
 20
-1638.921687200728
 30
0.0
 11
2948.677709822688
 21
-1638.645825748523
 31
0.0
  0
LINE
  5
9B
330
1F
100
AcDbEntity
  8
MILLING_NORMAL
100
AcDbLine
 10
2948.677709822688
 20
-1638.645825748523
 30
0.0
 11
2948.68082829482
 21
-1638.596153430902
 31
0.0
  0
LINE
  5
9C
330
1F
100
AcDbEntity
  8
MILLING_NORMAL
100
AcDbLine
 10
2948.68082829482
 20
-1638.596153430902
 30
0.0
 11
2948.682302850247
 21
-1638.545958589645
 31
0.0
  0
LINE
  5
9D
330
1F
100
AcDbEntity
  8
MILLING_NORMAL
100
AcDbLine
 10
2948.682302850247
 20
-1638.545958589645
 30
0.0
 11
2948.682087509499
 21
-1638.495318643167
 31
0.0
  0
LINE
  5
9E
330
1F
100
AcDbEntity
  8
MILLING_NORMAL
100
AcDbLine
 10
2948.682087509499
 20
-1638.495318643167
 30
0.0
 11
2948.680140908502
 21
-1638.444315284541
 31
0.0
  0
LINE
  5
9F
330
1F
100
AcDbEntity
  8
MILLING_NORMAL
100
AcDbLine
 10
2948.680140908502
 20
-1638.444315284541
 30
0.0
 11
2948.676426744162
 21
-1638.393034156824
 31
0.0
  0
LINE
  5
A0
330
1F
100
AcDbEntity
  8
MILLING_NORMAL
100
AcDbLine
 10
2948.676426744162
 20
-1638.393034156824
 30
0.0
 11
2948.670914194496
 21
-1638.341564476088
 31
0.0
  0
LINE
  5
A1
330
1F
100
AcDbEntity
  8
MILLING_NORMAL
100
AcDbLine
 10
2948.670914194496
 20
-1638.341564476088
 30
0.0
 11
2948.663578306435
 21
-1638.289998604218
 31
0.0
  0
LINE
  5
A2
330
1F
100
AcDbEntity
  8
MILLING_NORMAL
100
AcDbLine
 10
2948.663578306435
 20
-1638.289998604218
 30
0.0
 11
2948.659220504185
 21
-1638.264209204053
 31
0.0
  0
LINE
  5
A3
330
1F
100
AcDbEntity
  8
MILLING_NORMAL
100
AcDbLine
 10
2948.659220504185
 20
-1638.264209204053
 30
0.0
 11
2948.654400344577
 21
-1638.238431574574
 31
0.0
  0
LINE
  5
A4
330
1F
100
AcDbEntity
  8
MILLING_NORMAL
100
AcDbLine
 10
2948.654400344577
 20
-1638.238431574574
 30
0.0
 11
2948.649116506972
 21
-1638.212677927465
 31
0.0
  0
LINE
  5
A5
330
1F
100
AcDbEntity
  8
MILLING_NORMAL
100
AcDbLine
 10
2948.649116506972
 20
-1638.212677927465
 30
0.0
 11
2948.643368094484
 21
-1638.186960574579
 31
0.0
  0
LINE
  5
A6
330
1F
100
AcDbEntity
  8
MILLING_NORMAL
100
AcDbLine
 10
2948.643368094484
 20
-1638.186960574579
 30
0.0
 11
2948.637154640553
 21
-1638.161291909773
 31
0.0
  0
LINE
  5
A7
330
1F
100
AcDbEntity
  8
MILLING_NORMAL
100
AcDbLine
 10
2948.637154640553
 20
-1638.161291909773
 30
0.0
 11
2948.630476114608
 21
-1638.135684390305
 31
0.0
  0
LINE
  5
A8
330
1F
100
AcDbEntity
  8
MILLING_NORMAL
100
AcDbLine
 10
2948.630476114608
 20
-1638.135684390305
 30
0.0
 11
2948.623332926762
 21
-1638.110150517816
 31
0.0
  0
LINE
  5
A9
330
1F
100
AcDbEntity
  8
MILLING_NORMAL
100
AcDbLine
 10
2948.623332926762
 20
-1638.110150517816
 30
0.0
 11
2948.615725931531
 21
-1638.084702818991
 31
0.0
  0
LINE
  5
AA
330
1F
100
AcDbEntity
  8
MILLING_NORMAL
100
AcDbLine
 10
2948.615725931531
 20
-1638.084702818991
 30
0.0
 11
2948.607656430518
 21
-1638.059353825922
 31
0.0
  0
LINE
  5
AB
330
1F
100
AcDbEntity
  8
MILLING_NORMAL
100
AcDbLine
 10
2948.607656430518
 20
-1638.059353825922
 30
0.0
 11
2948.599126174078
 21
-1638.034116056267
 31
0.0
  0
LINE
  5
AC
330
1F
100
AcDbEntity
  8
MILLING_NORMAL
100
AcDbLine
 10
2948.599126174078
 20
-1638.034116056267
 30
0.0
 11
2948.590137361929
 21
-1638.009001993242
 31
0.0
  0
LINE
  5
AD
330
1F
100
AcDbEntity
  8
MILLING_NORMAL
100
AcDbLine
 10
2948.590137361929
 20
-1638.009001993242
 30
0.0
 11
2948.58069264268
 21
-1637.984024065536
 31
0.0
  0
LINE
  5
AE
330
1F
100
AcDbEntity
  8
MILLING_NORMAL
100
AcDbLine
 10
2948.58069264268
 20
-1637.984024065536
 30
0.0
 11
2948.570795112305
 21
-1637.959194627186
 31
0.0
  0
LINE
  5
AF
330
1F
100
AcDbEntity
  8
MILLING_NORMAL
100
AcDbLine
 10
2948.570795112305
 20
-1637.959194627186
 30
0.0
 11
2948.560448311519
 21
-1637.934525937518
 31
0.0
  0
LINE
  5
B0
330
1F
100
AcDbEntity
  8
MILLING_NORMAL
100
AcDbLine
 10
2948.560448311519
 20
-1637.934525937518
 30
0.0
 11
2948.549656222087
 21
-1637.910030141176
 31
0.0
  0
LINE
  5
B1
330
1F
100
AcDbEntity
  8
MILLING_NORMAL
100
AcDbLine
 10
2948.549656222087
 20
-1637.910030141176
 30
0.0
 11
2948.538423262053
 21
-1637.885719248345
 31
0.0
  0
LINE
  5
B2
330
1F
100
AcDbEntity
  8
MILLING_NORMAL
100
AcDbLine
 10
2948.538423262053
 20
-1637.885719248345
 30
0.0
 11
2948.526754279911
 21
-1637.861605115218
 31
0.0
  0
LINE
  5
B3
330
1F
100
AcDbEntity
  8
MILLING_NORMAL
100
AcDbLine
 10
2948.526754279911
 20
-1637.861605115218
 30
0.0
 11
2948.514654547733
 21
-1637.837699424769
 31
0.0
  0
LINE
  5
B4
330
1F
100
AcDbEntity
  8
MILLING_NORMAL
100
AcDbLine
 10
2948.514654547733
 20
-1637.837699424769
 30
0.0
 11
2948.502129753256
 21
-1637.814013667911
 31
0.0
  0
LINE
  5
B5
330
1F
100
AcDbEntity
  8
MILLING_NORMAL
100
AcDbLine
 10
2948.502129753256
 20
-1637.814013667911
 30
0.0
 11
2948.489185990984
 21
-1637.79055912509
 31
0.0
  0
LINE
  5
B6
330
1F
100
AcDbEntity
  8
MILLING_NORMAL
100
AcDbLine
 10
2948.489185990984
 20
-1637.79055912509
 30
0.0
 11
2948.475829752305
 21
-1637.767346848388
 31
0.0
  0
LINE
  5
B7
330
1F
100
AcDbEntity
  8
MILLING_NORMAL
100
AcDbLine
 10
2948.475829752305
 20
-1637.767346848388
 30
0.0
 11
2948.462067914676
 21
-1637.744387644181
 31
0.0
  0
LINE
  5
B8
330
1F
100
AcDbEntity
  8
MILLING_NORMAL
100
AcDbLine
 10
2948.462067914676
 20
-1637.744387644181
 30
0.0
 11
2948.447907729901
 21
-1637.721692056425
 31
0.0
  0
LINE
  5
B9
330
1F
100
AcDbEntity
  8
MILLING_NORMAL
100
AcDbLine
 10
2948.447907729901
 20
-1637.721692056425
 30
0.0
 11
2948.433356811558
 21
-1637.699270350611
 31
0.0
  0
LINE
  5
BA
330
1F
100
AcDbEntity
  8
MILLING_NORMAL
100
AcDbLine
 10
2948.433356811558
 20
-1637.699270350611
 30
0.0
 11
2948.418423121598
 21
-1637.677132498448
 31
0.0
  0
LINE
  5
BB
330
1F
100
AcDbEntity
  8
MILLING_NORMAL
100
AcDbLine
 10
2948.418423121598
 20
-1637.677132498448
 30
0.0
 11
2948.403114956192
 21
-1637.655288163316
 31
0.0
  0
LINE
  5
BC
330
1F
100
AcDbEntity
  8
MILLING_NORMAL
100
AcDbLine
 10
2948.403114956192
 20
-1637.655288163316
 30
0.0
 11
2948.387440930856
 21
-1637.633746686536
 31
0.0
  0
LINE
  5
BD
330
1F
100
AcDbEntity
  8
MILLING_NORMAL
100
AcDbLine
 10
2948.387440930856
 20
-1637.633746686536
 30
0.0
 11
2948.371409964917
 21
-1637.612517074498
 31
0.0
  0
LINE
  5
BE
330
1F
100
AcDbEntity
  8
MILLING_NORMAL
100
AcDbLine
 10
2948.371409964917
 20
-1637.612517074498
 30
0.0
 11
2948.355031265385
 21
-1637.591607986674
 31
0.0
  0
LINE
  5
BF
330
1F
100
AcDbEntity
  8
MILLING_NORMAL
100
AcDbLine
 10
2948.355031265385
 20
-1637.591607986674
 30
0.0
 11
2948.338314310267
 21
-1637.571027724567
 31
0.0
  0
LINE
  5
C0
330
1F
100
AcDbEntity
  8
MILLING_NORMAL
100
AcDbLine
 10
2948.338314310267
 20
-1637.571027724567
 30
0.0
 11
2948.321268831412
 21
-1637.55078422159
 31
0.0
  0
LINE
  5
C1
330
1F
100
AcDbEntity
  8
MILLING_NORMAL
100
AcDbLine
 10
2948.321268831412
 20
-1637.55078422159
 30
0.0
 11
2948.303904796931
 21
-1637.530885033939
 31
0.0
  0
LINE
  5
C2
330
1F
100
AcDbEntity
  8
MILLING_NORMAL
100
AcDbLine
 10
2948.303904796931
 20
-1637.530885033939
 30
0.0
 11
2948.286232393256
 21
-1637.511337332438
 31
0.0
  0
LINE
  5
C3
330
1F
100
AcDbEntity
  8
MILLING_NORMAL
100
AcDbLine
 10
2948.286232393256
 20
-1637.511337332438
 30
0.0
 11
2948.268262006914
 21
-1637.492147895397
 31
0.0
  0
LINE
  5
C4
330
1F
100
AcDbEntity
  8
MILLING_NORMAL
100
AcDbLine
 10
2948.268262006914
 20
-1637.492147895397
 30
0.0
 11
2948.250004206063
 21
-1637.473323102482
 31
0.0
  0
LINE
  5
C5
330
1F
100
AcDbEntity
  8
MILLING_NORMAL
100
AcDbLine
 10
2948.250004206063
 20
-1637.473323102482
 30
0.0
 11
2948.231469721871
 21
-1637.454868929592
 31
0.0
  0
LINE
  5
C6
330
1F
100
AcDbEntity
  8
MILLING_NORMAL
100
AcDbLine
 10
2948.231469721871
 20
-1637.454868929592
 30
0.0
 11
2948.193614330762
 21
-1637.419094305075
 31
0.0
  0
LINE
  5
C7
330
1F
100
AcDbEntity
  8
MILLING_NORMAL
100
AcDbLine
 10
2948.193614330762
 20
-1637.419094305075
 30
0.0
 11
2948.154784230957
 21
-1637.384863623107
 31
0.0
  0
LINE
  5
C8
330
1F
100
AcDbEntity
  8
MILLING_NORMAL
100
AcDbLine
 10
2948.154784230957
 20
-1637.384863623107
 30
0.0
 11
2948.115069230676
 21
-1637.352209866365
 31
0.0
  0
LINE
  5
C9
330
1F
100
AcDbEntity
  8
MILLING_NORMAL
100
AcDbLine
 10
2948.115069230676
 20
-1637.352209866365
 30
0.0
 11
2948.074559960338
 21
-1637.321159409631
 31
0.0
  0
LINE
  5
CA
330
1F
100
AcDbEntity
  8
MILLING_NORMAL
100
AcDbLine
 10
2948.074559960338
 20
-1637.321159409631
 30
0.0
 11
2948.033347299835
 21
-1637.291732089587
 31
0.0
  0
LINE
  5
CB
330
1F
100
AcDbEntity
  8
MILLING_NORMAL
100
AcDbLine
 10
2948.033347299835
 20
-1637.291732089587
 30
0.0
 11
2947.991521828115
 21
-1637.263941330007
 31
0.0
  0
LINE
  5
CC
330
1F
100
AcDbEntity
  8
MILLING_NORMAL
100
AcDbLine
 10
2947.991521828115
 20
-1637.263941330007
 30
0.0
 11
2947.949173300789
 21
-1637.237794317949
 31
0.0
  0
LINE
  5
CD
330
1F
100
AcDbEntity
  8
MILLING_NORMAL
100
AcDbLine
 10
2947.949173300789
 20
-1637.237794317949
 30
0.0
 11
2947.90597718433
 21
-1637.213066760098
 31
0.0
  0
LINE
  5
CE
330
1F
100
AcDbEntity
  8
MILLING_NORMAL
100
AcDbLine
 10
2947.90597718433
 20
-1637.213066760098
 30
0.0
 11
2947.861579821161
 21
-1637.189584022884
 31
0.0
  0
LINE
  5
CF
330
1F
100
AcDbEntity
  8
MILLING_NORMAL
100
AcDbLine
 10
2947.861579821161
 20
-1637.189584022884
 30
0.0
 11
2947.816030852203
 21
-1637.167421847058
 31
0.0
  0
LINE
  5
D0
330
1F
100
AcDbEntity
  8
MILLING_NORMAL
100
AcDbLine
 10
2947.816030852203
 20
-1637.167421847058
 30
0.0
 11
2947.769385860047
 21
-1637.146653687774
 31
0.0
  0
LINE
  5
D1
330
1F
100
AcDbEntity
  8
MILLING_NORMAL
100
AcDbLine
 10
2947.769385860047
 20
-1637.146653687774
 30
0.0
 11
2947.721706270939
 21
-1637.127350165217
 31
0.0
  0
LINE
  5
D2
330
1F
100
AcDbEntity
  8
MILLING_NORMAL
100
AcDbLine
 10
2947.721706270939
 20
-1637.127350165217
 30
0.0
 11
2947.67305919745
 21
-1637.109578515262
 31
0.0
  0
LINE
  5
D3
330
1F
100
AcDbEntity
  8
MILLING_NORMAL
100
AcDbLine
 10
2947.67305919745
 20
-1637.109578515262
 30
0.0
 11
2947.623517220647
 21
-1637.093402047417
 31
0.0
  0
LINE
  5
D4
330
1F
100
AcDbEntity
  8
MILLING_NORMAL
100
AcDbLine
 10
2947.623517220647
 20
-1637.093402047417
 30
0.0
 11
2947.598434753085
 21
-1637.085930587211
 31
0.0
  0
LINE
  5
D5
330
1F
100
AcDbEntity
  8
MILLING_NORMAL
100
AcDbLine
 10
2947.598434753085
 20
-1637.085930587211
 30
0.0
 11
2947.573158111638
 21
-1637.078879617575
 31
0.0
  0
LINE
  5
D6
330
1F
100
AcDbEntity
  8
MILLING_NORMAL
100
AcDbLine
 10
2947.573158111638
 20
-1637.078879617575
 30
0.0
 11
2947.54769777315
 21
-1637.072255716784
 31
0.0
  0
LINE
  5
D7
330
1F
100
AcDbEntity
  8
MILLING_NORMAL
100
AcDbLine
 10
2947.54769777315
 20
-1637.072255716784
 30
0.0
 11
2947.522064493384
 21
-1637.066065123259
 31
0.0
  0
LINE
  5
D8
330
1F
100
AcDbEntity
  8
MILLING_NORMAL
100
AcDbLine
 10
2947.522064493384
 20
-1637.066065123259
 30
0.0
 11
2947.496269293353
 21
-1637.060313721567
 31
0.0
  0
LINE
  5
D9
330
1F
100
AcDbEntity
  8
MILLING_NORMAL
100
AcDbLine
 10
2947.496269293353
 20
-1637.060313721567
 30
0.0
 11
2947.470323444806
 21
-1637.055007029055
 31
0.0
  0
LINE
  5
DA
330
1F
100
AcDbEntity
  8
MILLING_NORMAL
100
AcDbLine
 10
2947.470323444806
 20
-1637.055007029055
 30
0.0
 11
2947.444238454937
 21
-1637.050150183198
 31
0.0
  0
LINE
  5
DB
330
1F
100
AcDbEntity
  8
MILLING_NORMAL
100
AcDbLine
 10
2947.444238454937
 20
-1637.050150183198
 30
0.0
 11
2947.41802605034
 21
-1637.045747929694
 31
0.0
  0
LINE
  5
DC
330
1F
100
AcDbEntity
  8
MILLING_NORMAL
100
AcDbLine
 10
2947.41802605034
 20
-1637.045747929694
 30
0.0
 11
2947.391698160258
 21
-1637.041804611365
 31
0.0
  0
LINE
  5
DD
330
1F
100
AcDbEntity
  8
MILLING_NORMAL
100
AcDbLine
 10
2947.391698160258
 20
-1637.041804611365
 30
0.0
 11
2947.365266899172
 21
-1637.038324157912
 31
0.0
  0
LINE
  5
DE
330
1F
100
AcDbEntity
  8
MILLING_NORMAL
100
AcDbLine
 10
2947.365266899172
 20
-1637.038324157912
 30
0.0
 11
2947.338744548786
 21
-1637.035310076558
 31
0.0
  0
LINE
  5
DF
330
1F
100
AcDbEntity
  8
MILLING_NORMAL
100
AcDbLine
 10
2947.338744548786
 20
-1637.035310076558
 30
0.0
 11
2947.312143539455
 21
-1637.03276544364
 31
0.0
  0
LINE
  5
E0
330
1F
100
AcDbEntity
  8
MILLING_NORMAL
100
AcDbLine
 10
2947.312143539455
 20
-1637.03276544364
 30
0.0
 11
2947.285476431116
 21
-1637.030692897163
 31
0.0
  0
LINE
  5
E1
330
1F
100
AcDbEntity
  8
MILLING_NORMAL
100
AcDbLine
 10
2947.285476431116
 20
-1637.030692897163
 30
0.0
 11
2947.258755893785
 21
-1637.029094630363
 31
0.0
  0
LINE
  5
E2
330
1F
100
AcDbEntity
  8
MILLING_NORMAL
100
AcDbLine
 10
2947.258755893785
 20
-1637.029094630363
 30
0.0
 11
2947.231994687684
 21
-1637.027972386314
 31
0.0
  0
LINE
  5
E3
330
1F
100
AcDbEntity
  8
MILLING_NORMAL
100
AcDbLine
 10
2947.231994687684
 20
-1637.027972386314
 30
0.0
 11
2947.20520564305
 21
-1637.027327453583
 31
0.0
  0
LINE
  5
E4
330
1F
100
AcDbEntity
  8
MILLING_NORMAL
100
AcDbLine
 10
2947.20520564305
 20
-1637.027327453583
 30
0.0
 11
2947.178401639713
 21
-1637.027160662974
 31
0.0
  0
LINE
  5
E5
330
1F
100
AcDbEntity
  8
MILLING_NORMAL
100
AcDbLine
 10
2947.178401639713
 20
-1637.027160662974
 30
0.0
 11
2947.151595586492
 21
-1637.027472385357
 31
0.0
  0
LINE
  5
E6
330
1F
100
AcDbEntity
  8
MILLING_NORMAL
100
AcDbLine
 10
2947.151595586492
 20
-1637.027472385357
 30
0.0
 11
2947.12480040049
 21
-1637.028262530612
 31
0.0
  0
LINE
  5
E7
330
1F
100
AcDbEntity
  8
MILLING_NORMAL
100
AcDbLine
 10
2947.12480040049
 20
-1637.028262530612
 30
0.0
 11
2947.098028986352
 21
-1637.029530547674
 31
0.0
  0
LINE
  5
E8
330
1F
100
AcDbEntity
  8
MILLING_NORMAL
100
AcDbLine
 10
2947.098028986352
 20
-1637.029530547674
 30
0.0
 11
2947.071294215562
 21
-1637.031275425688
 31
0.0
  0
LINE
  5
E9
330
1F
100
AcDbEntity
  8
MILLING_NORMAL
100
AcDbLine
 10
2947.071294215562
 20
-1637.031275425688
 30
0.0
 11
2947.044608905839
 21
-1637.033495696283
 31
0.0
  0
LINE
  5
EA
330
1F
100
AcDbEntity
  8
MILLING_NORMAL
100
AcDbLine
 10
2947.044608905839
 20
-1637.033495696283
 30
0.0
 11
2947.01798580071
 21
-1637.036189436916
 31
0.0
  0
LINE
  5
EB
330
1F
100
AcDbEntity
  8
MILLING_NORMAL
100
AcDbLine
 10
2947.01798580071
 20
-1637.036189436916
 30
0.0
 11
2946.991437549323
 21
-1637.039354275322
 31
0.0
  0
LINE
  5
EC
330
1F
100
AcDbEntity
  8
MILLING_NORMAL
100
AcDbLine
 10
2946.991437549323
 20
-1637.039354275322
 30
0.0
 11
2946.964976686569
 21
-1637.04298739501
 31
0.0
  0
LINE
  5
ED
330
1F
100
AcDbEntity
  8
MILLING_NORMAL
100
AcDbLine
 10
2946.964976686569
 20
-1637.04298739501
 30
0.0
 11
2946.938615613579
 21
-1637.047085541795
 31
0.0
  0
LINE
  5
EE
330
1F
100
AcDbEntity
  8
MILLING_NORMAL
100
AcDbLine
 10
2946.938615613579
 20
-1637.047085541795
 30
0.0
 11
2946.912366578658
 21
-1637.051645031352
 31
0.0
  0
LINE
  5
EF
330
1F
100
AcDbEntity
  8
MILLING_NORMAL
100
AcDbLine
 10
2946.912366578658
 20
-1637.051645031352
 30
0.0
 11
2946.886241658713
 21
-1637.056661757732
 31
0.0
  0
LINE
  5
F0
330
1F
100
AcDbEntity
  8
MILLING_NORMAL
100
AcDbLine
 10
2946.886241658713
 20
-1637.056661757732
 30
0.0
 11
2946.860252741239
 21
-1637.062131202822
 31
0.0
  0
LINE
  5
F1
330
1F
100
AcDbEntity
  8
MILLING_NORMAL
100
AcDbLine
 10
2946.860252741239
 20
-1637.062131202822
 30
0.0
 11
2946.83441150691
 21
-1637.068048446706
 31
0.0
  0
LINE
  5
F2
330
1F
100
AcDbEntity
  8
MILLING_NORMAL
100
AcDbLine
 10
2946.83441150691
 20
-1637.068048446706
 30
0.0
 11
2946.808729412841
 21
-1637.07440817887
 31
0.0
  0
LINE
  5
F3
330
1F
100
AcDbEntity
  8
MILLING_NORMAL
100
AcDbLine
 10
2946.808729412841
 20
-1637.07440817887
 30
0.0
 11
2946.783217676545
 21
-1637.08120471023
 31
0.0
  0
LINE
  5
F4
330
1F
100
AcDbEntity
  8
MILLING_NORMAL
100
AcDbLine
 10
2946.783217676545
 20
-1637.08120471023
 30
0.0
 11
2946.757887260652
 21
-1637.0884319859
 31
0.0
  0
LINE
  5
F5
330
1F
100
AcDbEntity
  8
MILLING_NORMAL
100
AcDbLine
 10
2946.757887260652
 20
-1637.0884319859
 30
0.0
 11
2946.732748858417
 21
-1637.096083598671
 31
0.0
  0
LINE
  5
F6
330
1F
100
AcDbEntity
  8
MILLING_NORMAL
100
AcDbLine
 10
2946.732748858417
 20
-1637.096083598671
 30
0.0
 11
2946.683089439954
 21
-1637.112632530436
 31
0.0
  0
LINE
  5
F7
330
1F
100
AcDbEntity
  8
MILLING_NORMAL
100
AcDbLine
 10
2946.683089439954
 20
-1637.112632530436
 30
0.0
 11
2946.63431908222
 21
-1637.130793752587
 31
0.0
  0
LINE
  5
F8
330
1F
100
AcDbEntity
  8
MILLING_NORMAL
100
AcDbLine
 10
2946.63431908222
 20
-1637.130793752587
 30
0.0
 11
2946.586512353478
 21
-1637.150504835513
 31
0.0
  0
LINE
  5
F9
330
1F
100
AcDbEntity
  8
MILLING_NORMAL
100
AcDbLine
 10
2946.586512353478
 20
-1637.150504835513
 30
0.0
 11
2946.539738421921
 21
-1637.171699194052
 31
0.0
  0
LINE
  5
FA
330
1F
100
AcDbEntity
  8
MILLING_NORMAL
100
AcDbLine
 10
2946.539738421921
 20
-1637.171699194052
 30
0.0
 11
2946.494060809106
 21
-1637.194306627295
 31
0.0
  0
LINE
  5
FB
330
1F
100
AcDbEntity
  8
MILLING_NORMAL
100
AcDbLine
 10
2946.494060809106
 20
-1637.194306627295
 30
0.0
 11
2946.449537204449
 21
-1637.218253869393
 31
0.0
  0
LINE
  5
FC
330
1F
100
AcDbEntity
  8
MILLING_NORMAL
100
AcDbLine
 10
2946.449537204449
 20
-1637.218253869393
 30
0.0
 11
2946.406219340189
 21
-1637.243465143917
 31
0.0
  0
LINE
  5
FD
330
1F
100
AcDbEntity
  8
MILLING_NORMAL
100
AcDbLine
 10
2946.406219340189
 20
-1637.243465143917
 30
0.0
 11
2946.364152925162
 21
-1637.269862714657
 31
0.0
  0
LINE
  5
FE
330
1F
100
AcDbEntity
  8
MILLING_NORMAL
100
AcDbLine
 10
2986.82422988392
 20
-1628.440318463136
 30
0.0
 11
2987.579493765224
 21
-1628.440318838745
 31
0.0
  0
LINE
  5
FF
330
1F
100
AcDbEntity
  8
MILLING_NORMAL
100
AcDbLine
 10
2987.579493765224
 20
-1628.440318838745
 30
0.0
 11
2987.61290276531
 21
-1628.439760610877
 31
0.0
  0
LINE
  5
100
330
1F
100
AcDbEntity
  8
MILLING_NORMAL
100
AcDbLine
 10
2987.61290276531
 20
-1628.439760610877
 30
0.0
 11
2987.646578142766
 21
-1628.438066162744
 31
0.0
  0
LINE
  5
101
330
1F
100
AcDbEntity
  8
MILLING_NORMAL
100
AcDbLine
 10
2987.646578142766
 20
-1628.438066162744
 30
0.0
 11
2987.680464892759
 21
-1628.435208223866
 31
0.0
  0
LINE
  5
102
330
1F
100
AcDbEntity
  8
MILLING_NORMAL
100
AcDbLine
 10
2987.680464892759
 20
-1628.435208223866
 30
0.0
 11
2987.714505315405
 21
-1628.431162903838
 31
0.0
  0
LINE
  5
103
330
1F
100
AcDbEntity
  8
MILLING_NORMAL
100
AcDbLine
 10
2987.714505315405
 20
-1628.431162903838
 30
0.0
 11
2987.74863926239
 21
-1628.425909983868
 31
0.0
  0
LINE
  5
104
330
1F
100
AcDbEntity
  8
MILLING_NORMAL
100
AcDbLine
 10
2987.74863926239
 20
-1628.425909983868
 30
0.0
 11
2987.782804418742
 21
-1628.419433188011
 31
0.0
  0
LINE
  5
105
330
1F
100
AcDbEntity
  8
MILLING_NORMAL
100
AcDbLine
 10
2987.782804418742
 20
-1628.419433188011
 30
0.0
 11
2987.799878711468
 21
-1628.415731889685
 31
0.0
  0
LINE
  5
106
330
1F
100
AcDbEntity
  8
MILLING_NORMAL
100
AcDbLine
 10
2987.799878711468
 20
-1628.415731889685
 30
0.0
 11
2987.816936617984
 21
-1628.41172042935
 31
0.0
  0
LINE
  5
107
330
1F
100
AcDbEntity
  8
MILLING_NORMAL
100
AcDbLine
 10
2987.816936617984
 20
-1628.41172042935
 30
0.0
 11
2987.833969884962
 21
-1628.407397986224
 31
0.0
  0
LINE
  5
108
330
1F
100
AcDbEntity
  8
MILLING_NORMAL
100
AcDbLine
 10
2987.833969884962
 20
-1628.407397986224
 30
0.0
 11
2987.850970188146
 21
-1628.402764026586
 31
0.0
  0
LINE
  5
109
330
1F
100
AcDbEntity
  8
MILLING_NORMAL
100
AcDbLine
 10
2987.850970188146
 20
-1628.402764026586
 30
0.0
 11
2987.867929144629
 21
-1628.397818308633
 31
0.0
  0
LINE
  5
10A
330
1F
100
AcDbEntity
  8
MILLING_NORMAL
100
AcDbLine
 10
2987.867929144629
 20
-1628.397818308633
 30
0.0
 11
2987.884838325458
 21
-1628.392560886705
 31
0.0
  0
LINE
  5
10B
330
1F
100
AcDbEntity
  8
MILLING_NORMAL
100
AcDbLine
 10
2987.884838325458
 20
-1628.392560886705
 30
0.0
 11
2987.901689268549
 21
-1628.386992114877
 31
0.0
  0
LINE
  5
10C
330
1F
100
AcDbEntity
  8
MILLING_NORMAL
100
AcDbLine
 10
2987.901689268549
 20
-1628.386992114877
 30
0.0
 11
2987.918473491869
 21
-1628.381112649867
 31
0.0
  0
LINE
  5
10D
330
1F
100
AcDbEntity
  8
MILLING_NORMAL
100
AcDbLine
 10
2987.918473491869
 20
-1628.381112649867
 30
0.0
 11
2987.935182506842
 21
-1628.374923453264
 31
0.0
  0
LINE
  5
10E
330
1F
100
AcDbEntity
  8
MILLING_NORMAL
100
AcDbLine
 10
2987.935182506842
 20
-1628.374923453264
 30
0.0
 11
2987.951807831934
 21
-1628.368425793052
 31
0.0
  0
LINE
  5
10F
330
1F
100
AcDbEntity
  8
MILLING_NORMAL
100
AcDbLine
 10
2987.951807831934
 20
-1628.368425793052
 30
0.0
 11
2987.968341006393
 21
-1628.361621244399
 31
0.0
  0
LINE
  5
110
330
1F
100
AcDbEntity
  8
MILLING_NORMAL
100
AcDbLine
 10
2987.968341006393
 20
-1628.361621244399
 30
0.0
 11
2987.984773604066
 21
-1628.354511689721
 31
0.0
  0
LINE
  5
111
330
1F
100
AcDbEntity
  8
MILLING_NORMAL
100
AcDbLine
 10
2987.984773604066
 20
-1628.354511689721
 30
0.0
 11
2988.001097247283
 21
-1628.347099317999
 31
0.0
  0
LINE
  5
112
330
1F
100
AcDbEntity
  8
MILLING_NORMAL
100
AcDbLine
 10
2988.001097247283
 20
-1628.347099317999
 30
0.0
 11
2988.017303620732
 21
-1628.339386623343
 31
0.0
  0
LINE
  5
113
330
1F
100
AcDbEntity
  8
MILLING_NORMAL
100
AcDbLine
 10
2988.017303620732
 20
-1628.339386623343
 30
0.0
 11
2988.033384485302
 21
-1628.33137640281
 31
0.0
  0
LINE
  5
114
330
1F
100
AcDbEntity
  8
MILLING_NORMAL
100
AcDbLine
 10
2988.033384485302
 20
-1628.33137640281
 30
0.0
 11
2988.049331691822
 21
-1628.323071753468
 31
0.0
  0
LINE
  5
115
330
1F
100
AcDbEntity
  8
MILLING_NORMAL
100
AcDbLine
 10
2988.049331691822
 20
-1628.323071753468
 30
0.0
 11
2988.065137194672
 21
-1628.314476068714
 31
0.0
  0
LINE
  5
116
330
1F
100
AcDbEntity
  8
MILLING_NORMAL
100
AcDbLine
 10
2988.065137194672
 20
-1628.314476068714
 30
0.0
 11
2988.080793065206
 21
-1628.305593033851
 31
0.0
  0
LINE
  5
117
330
1F
100
AcDbEntity
  8
MILLING_NORMAL
100
AcDbLine
 10
2988.080793065206
 20
-1628.305593033851
 30
0.0
 11
2988.096291504939
 21
-1628.296426620946
 31
0.0
  0
LINE
  5
118
330
1F
100
AcDbEntity
  8
MILLING_NORMAL
100
AcDbLine
 10
2988.096291504939
 20
-1628.296426620946
 30
0.0
 11
2988.111624858457
 21
-1628.286981082961
 31
0.0
  0
LINE
  5
119
330
1F
100
AcDbEntity
  8
MILLING_NORMAL
100
AcDbLine
 10
2988.111624858457
 20
-1628.286981082961
 30
0.0
 11
2988.126785626008
 21
-1628.277260947204
 31
0.0
  0
LINE
  5
11A
330
1F
100
AcDbEntity
  8
MILLING_NORMAL
100
AcDbLine
 10
2988.126785626008
 20
-1628.277260947204
 30
0.0
 11
2988.141766475728
 21
-1628.267271008101
 31
0.0
  0
LINE
  5
11B
330
1F
100
AcDbEntity
  8
MILLING_NORMAL
100
AcDbLine
 10
2988.141766475728
 20
-1628.267271008101
 30
0.0
 11
2988.156560255443
 21
-1628.257016319313
 31
0.0
  0
LINE
  5
11C
330
1F
100
AcDbEntity
  8
MILLING_NORMAL
100
AcDbLine
 10
2988.156560255443
 20
-1628.257016319313
 30
0.0
 11
2988.17116000405
 21
-1628.246502185241
 31
0.0
  0
LINE
  5
11D
330
1F
100
AcDbEntity
  8
MILLING_NORMAL
100
AcDbLine
 10
2988.17116000405
 20
-1628.246502185241
 30
0.0
 11
2988.185558962385
 21
-1628.235734151927
 31
0.0
  0
LINE
  5
11E
330
1F
100
AcDbEntity
  8
MILLING_NORMAL
100
AcDbLine
 10
2988.185558962385
 20
-1628.235734151927
 30
0.0
 11
2988.199750583585
 21
-1628.224717997408
 31
0.0
  0
LINE
  5
11F
330
1F
100
AcDbEntity
  8
MILLING_NORMAL
100
AcDbLine
 10
2988.199750583585
 20
-1628.224717997408
 30
0.0
 11
2988.213728542896
 21
-1628.21345972154
 31
0.0
  0
LINE
  5
120
330
1F
100
AcDbEntity
  8
MILLING_NORMAL
100
AcDbLine
 10
2988.213728542896
 20
-1628.21345972154
 30
0.0
 11
2988.227486746887
 21
-1628.201965535326
 31
0.0
  0
LINE
  5
121
330
1F
100
AcDbEntity
  8
MILLING_NORMAL
100
AcDbLine
 10
2988.227486746887
 20
-1628.201965535326
 30
0.0
 11
2988.24101934206
 21
-1628.19024184981
 31
0.0
  0
LINE
  5
122
330
1F
100
AcDbEntity
  8
MILLING_NORMAL
100
AcDbLine
 10
2988.24101934206
 20
-1628.19024184981
 30
0.0
 11
2988.254320722814
 21
-1628.178295264554
 31
0.0
  0
LINE
  5
123
330
1F
100
AcDbEntity
  8
MILLING_NORMAL
100
AcDbLine
 10
2988.254320722814
 20
-1628.178295264554
 30
0.0
 11
2988.267385538762
 21
-1628.166132555753
 31
0.0
  0
LINE
  5
124
330
1F
100
AcDbEntity
  8
MILLING_NORMAL
100
AcDbLine
 10
2988.267385538762
 20
-1628.166132555753
 30
0.0
 11
2988.280208701361
 21
-1628.153760664027
 31
0.0
  0
LINE
  5
125
330
1F
100
AcDbEntity
  8
MILLING_NORMAL
100
AcDbLine
 10
2988.280208701361
 20
-1628.153760664027
 30
0.0
 11
2988.292785389855
 21
-1628.141186681935
 31
0.0
  0
LINE
  5
126
330
1F
100
AcDbEntity
  8
MILLING_NORMAL
100
AcDbLine
 10
2988.292785389855
 20
-1628.141186681935
 30
0.0
 11
2988.30511105651
 21
-1628.12841784126
 31
0.0
  0
LINE
  5
127
330
1F
100
AcDbEntity
  8
MILLING_NORMAL
100
AcDbLine
 10
2988.30511105651
 20
-1628.12841784126
 30
0.0
 11
2988.317181431147
 21
-1628.115461500104
 31
0.0
  0
LINE
  5
128
330
1F
100
AcDbEntity
  8
MILLING_NORMAL
100
AcDbLine
 10
2988.317181431147
 20
-1628.115461500104
 30
0.0
 11
2988.328992524939
 21
-1628.102325129839
 31
0.0
  0
LINE
  5
129
330
1F
100
AcDbEntity
  8
MILLING_NORMAL
100
AcDbLine
 10
2988.328992524939
 20
-1628.102325129839
 30
0.0
 11
2988.340540633506
 21
-1628.089016301971
 31
0.0
  0
LINE
  5
12A
330
1F
100
AcDbEntity
  8
MILLING_NORMAL
100
AcDbLine
 10
2988.340540633506
 20
-1628.089016301971
 30
0.0
 11
2988.351822339288
 21
-1628.07554267495
 31
0.0
  0
LINE
  5
12B
330
1F
100
AcDbEntity
  8
MILLING_NORMAL
100
AcDbLine
 10
2988.351822339288
 20
-1628.07554267495
 30
0.0
 11
2988.362834513193
 21
-1628.061911980966
 31
0.0
  0
LINE
  5
12C
330
1F
100
AcDbEntity
  8
MILLING_NORMAL
100
AcDbLine
 10
2988.362834513193
 20
-1628.061911980966
 30
0.0
 11
2988.373574315556
 21
-1628.048132012795
 31
0.0
  0
LINE
  5
12D
330
1F
100
AcDbEntity
  8
MILLING_NORMAL
100
AcDbLine
 10
2988.373574315556
 20
-1628.048132012795
 30
0.0
 11
2988.394226894948
 21
-1628.020155649563
 31
0.0
  0
LINE
  5
12E
330
1F
100
AcDbEntity
  8
MILLING_NORMAL
100
AcDbLine
 10
2988.394226894948
 20
-1628.020155649563
 30
0.0
 11
2988.413763141325
 21
-1627.991676645487
 31
0.0
  0
LINE
  5
12F
330
1F
100
AcDbEntity
  8
MILLING_NORMAL
100
AcDbLine
 10
2988.413763141325
 20
-1627.991676645487
 30
0.0
 11
2988.432170696115
 21
-1627.962758209134
 31
0.0
  0
LINE
  5
130
330
1F
100
AcDbEntity
  8
MILLING_NORMAL
100
AcDbLine
 10
2988.432170696115
 20
-1627.962758209134
 30
0.0
 11
2988.44944169314
 21
-1627.933463306672
 31
0.0
  0
LINE
  5
131
330
1F
100
AcDbEntity
  8
MILLING_NORMAL
100
AcDbLine
 10
2988.44944169314
 20
-1627.933463306672
 30
0.0
 11
2988.465572636433
 21
-1627.903854290342
 31
0.0
  0
LINE
  5
132
330
1F
100
AcDbEntity
  8
MILLING_NORMAL
100
AcDbLine
 10
2988.465572636433
 20
-1627.903854290342
 30
0.0
 11
2988.480564244477
 21
-1627.873992549803
 31
0.0
  0
LINE
  5
133
330
1F
100
AcDbEntity
  8
MILLING_NORMAL
100
AcDbLine
 10
2988.480564244477
 20
-1627.873992549803
 30
0.0
 11
2988.681041330053
 21
-1627.442537114657
 31
0.0
  0
LINE
  5
134
330
1F
100
AcDbEntity
  8
MILLING_NORMAL
100
AcDbLine
 10
2988.681041330053
 20
-1627.442537114657
 30
0.0
 11
2988.870784177956
 21
-1627.003222447435
 31
0.0
  0
LINE
  5
135
330
1F
100
AcDbEntity
  8
MILLING_NORMAL
100
AcDbLine
 10
2988.870784177956
 20
-1627.003222447435
 30
0.0
 11
2989.04938552046
 21
-1626.556432193265
 31
0.0
  0
LINE
  5
136
330
1F
100
AcDbEntity
  8
MILLING_NORMAL
100
AcDbLine
 10
2989.04938552046
 20
-1626.556432193265
 30
0.0
 11
2989.216455486109
 21
-1626.102576200145
 31
0.0
  0
LINE
  5
137
330
1F
100
AcDbEntity
  8
MILLING_NORMAL
100
AcDbLine
 10
2989.216455486109
 20
-1626.102576200145
 30
0.0
 11
2989.371623612658
 21
-1625.642089594505
 31
0.0
  0
LINE
  5
138
330
1F
100
AcDbEntity
  8
MILLING_NORMAL
100
AcDbLine
 10
2989.371623612658
 20
-1625.642089594505
 30
0.0
 11
2989.514540806537
 21
-1625.175431676939
 31
0.0
  0
LINE
  5
139
330
1F
100
AcDbEntity
  8
MILLING_NORMAL
100
AcDbLine
 10
2989.514540806537
 20
-1625.175431676939
 30
0.0
 11
2989.644881230575
 21
-1624.703084641108
 31
0.0
  0
LINE
  5
13A
330
1F
100
AcDbEntity
  8
MILLING_NORMAL
100
AcDbLine
 10
2989.644881230575
 20
-1624.703084641108
 30
0.0
 11
2989.762344101696
 21
-1624.225552120895
 31
0.0
  0
LINE
  5
13B
330
1F
100
AcDbEntity
  8
MILLING_NORMAL
100
AcDbLine
 10
2989.762344101696
 20
-1624.225552120895
 30
0.0
 11
2989.866655380769
 21
-1623.743357573005
 31
0.0
  0
LINE
  5
13C
330
1F
100
AcDbEntity
  8
MILLING_NORMAL
100
AcDbLine
 10
2989.866655380769
 20
-1623.743357573005
 30
0.0
 11
2989.957569337369
 21
-1623.25704250431
 31
0.0
  0
LINE
  5
13D
330
1F
100
AcDbEntity
  8
MILLING_NORMAL
100
AcDbLine
 10
2989.957569337369
 20
-1623.25704250431
 30
0.0
 11
2990.034869973164
 21
-1622.767164555256
 31
0.0
  0
LINE
  5
13E
330
1F
100
AcDbEntity
  8
MILLING_NORMAL
100
AcDbLine
 10
2990.034869973164
 20
-1622.767164555256
 30
0.0
 11
2990.098372288796
 21
-1622.274295452584
 31
0.0
  0
LINE
  5
13F
330
1F
100
AcDbEntity
  8
MILLING_NORMAL
100
AcDbLine
 10
2990.098372288796
 20
-1622.274295452584
 30
0.0
 11
2990.147923380576
 21
-1621.779018846388
 31
0.0
  0
LINE
  5
140
330
1F
100
AcDbEntity
  8
MILLING_NORMAL
100
AcDbLine
 10
2990.147923380576
 20
-1621.779018846388
 30
0.0
 11
2990.183403354969
 21
-1621.281928048174
 31
0.0
  0
LINE
  5
141
330
1F
100
AcDbEntity
  8
MILLING_NORMAL
100
AcDbLine
 10
2990.183403354969
 20
-1621.281928048174
 30
0.0
 11
2990.20472605074
 21
-1620.78362368793
 31
0.0
  0
LINE
  5
142
330
1F
100
AcDbEntity
  8
MILLING_NORMAL
100
AcDbLine
 10
2990.20472605074
 20
-1620.78362368793
 30
0.0
 11
2990.211839560672
 21
-1620.284711309431
 31
0.0
  0
LINE
  5
143
330
1F
100
AcDbEntity
  8
MILLING_NORMAL
100
AcDbLine
 10
2990.211839560672
 20
-1620.284711309431
 30
0.0
 11
2990.20472654698
 21
-1619.785798923858
 31
0.0
  0
LINE
  5
144
330
1F
100
AcDbEntity
  8
MILLING_NORMAL
100
AcDbLine
 10
2990.20472654698
 20
-1619.785798923858
 30
0.0
 11
2990.183404346843
 21
-1619.287494542405
 31
0.0
  0
LINE
  5
145
330
1F
100
AcDbEntity
  8
MILLING_NORMAL
100
AcDbLine
 10
2990.183404346843
 20
-1619.287494542405
 30
0.0
 11
2990.147924866878
 21
-1618.790403708901
 31
0.0
  0
LINE
  5
146
330
1F
100
AcDbEntity
  8
MILLING_NORMAL
100
AcDbLine
 10
2990.147924866878
 20
-1618.790403708901
 30
0.0
 11
2990.098374267722
 21
-1618.295127053421
 31
0.0
  0
LINE
  5
147
330
1F
100
AcDbEntity
  8
MILLING_NORMAL
100
AcDbLine
 10
2990.098374267722
 20
-1618.295127053421
 30
0.0
 11
2990.034872442319
 21
-1617.802257887587
 31
0.0
  0
LINE
  5
148
330
1F
100
AcDbEntity
  8
MILLING_NORMAL
100
AcDbLine
 10
2990.034872442319
 20
-1617.802257887587
 30
0.0
 11
2989.957572293777
 21
-1617.312379861647
 31
0.0
  0
LINE
  5
149
330
1F
100
AcDbEntity
  8
MILLING_NORMAL
100
AcDbLine
 10
2989.957572293777
 20
-1617.312379861647
 30
0.0
 11
2989.866658820886
 21
-1616.826064702524
 31
0.0
  0
LINE
  5
14A
330
1F
100
AcDbEntity
  8
MILLING_NORMAL
100
AcDbLine
 10
2989.866658820886
 20
-1616.826064702524
 30
0.0
 11
2989.762348021426
 21
-1616.343870050883
 31
0.0
  0
LINE
  5
14B
330
1F
100
AcDbEntity
  8
MILLING_NORMAL
100
AcDbLine
 10
2989.762348021426
 20
-1616.343870050883
 30
0.0
 11
2989.644885625279
 21
-1615.866337413836
 31
0.0
  0
LINE
  5
14C
330
1F
100
AcDbEntity
  8
MILLING_NORMAL
100
AcDbLine
 10
2989.644885625279
 20
-1615.866337413836
 30
0.0
 11
2989.514545671058
 21
-1615.393990248364
 31
0.0
  0
LINE
  5
14D
330
1F
100
AcDbEntity
  8
MILLING_NORMAL
100
AcDbLine
 10
2989.514545671058
 20
-1615.393990248364
 30
0.0
 11
2989.371628941336
 21
-1614.927332188646
 31
0.0
  0
LINE
  5
14E
330
1F
100
AcDbEntity
  8
MILLING_NORMAL
100
AcDbLine
 10
2989.371628941336
 20
-1614.927332188646
 30
0.0
 11
2989.216461272808
 21
-1614.466845428669
 31
0.0
  0
LINE
  5
14F
330
1F
100
AcDbEntity
  8
MILLING_NORMAL
100
AcDbLine
 10
2989.216461272808
 20
-1614.466845428669
 30
0.0
 11
2989.049391758583
 21
-1614.012989269374
 31
0.0
  0
LINE
  5
150
330
1F
100
AcDbEntity
  8
MILLING_NORMAL
100
AcDbLine
 10
2989.049391758583
 20
-1614.012989269374
 30
0.0
 11
2988.870790860477
 21
-1613.56619883756
 31
0.0
  0
LINE
  5
151
330
1F
100
AcDbEntity
  8
MILLING_NORMAL
100
AcDbLine
 10
2988.870790860477
 20
-1613.56619883756
 30
0.0
 11
2988.681048449535
 21
-1613.126883981613
 31
0.0
  0
LINE
  5
152
330
1F
100
AcDbEntity
  8
MILLING_NORMAL
100
AcDbLine
 10
2988.681048449535
 20
-1613.126883981613
 30
0.0
 11
2988.480571793104
 21
-1612.695428347063
 31
0.0
  0
LINE
  5
153
330
1F
100
AcDbEntity
  8
MILLING_NORMAL
100
AcDbLine
 10
2988.480571793104
 20
-1612.695428347063
 30
0.0
 11
2988.465580215004
 21
-1612.665566591613
 31
0.0
  0
LINE
  5
154
330
1F
100
AcDbEntity
  8
MILLING_NORMAL
100
AcDbLine
 10
2988.465580215004
 20
-1612.665566591613
 30
0.0
 11
2988.449449301865
 21
-1612.635957559238
 31
0.0
  0
LINE
  5
155
330
1F
100
AcDbEntity
  8
MILLING_NORMAL
100
AcDbLine
 10
2988.449449301865
 20
-1612.635957559238
 30
0.0
 11
2988.432178335106
 21
-1612.606662639598
 31
0.0
  0
LINE
  5
156
330
1F
100
AcDbEntity
  8
MILLING_NORMAL
100
AcDbLine
 10
2988.432178335106
 20
-1612.606662639598
 30
0.0
 11
2988.413770810595
 21
-1612.577744184936
 31
0.0
  0
LINE
  5
157
330
1F
100
AcDbEntity
  8
MILLING_NORMAL
100
AcDbLine
 10
2988.413770810595
 20
-1612.577744184936
 30
0.0
 11
2988.394234594402
 21
-1612.549265161429
 31
0.0
  0
LINE
  5
158
330
1F
100
AcDbEntity
  8
MILLING_NORMAL
100
AcDbLine
 10
2988.394234594402
 20
-1612.549265161429
 30
0.0
 11
2988.373582044993
 21
-1612.521288777654
 31
0.0
  0
LINE
  5
159
330
1F
100
AcDbEntity
  8
MILLING_NORMAL
100
AcDbLine
 10
2988.373582044993
 20
-1612.521288777654
 30
0.0
 11
2988.362842257512
 21
-1612.5075087988
 31
0.0
  0
LINE
  5
15A
330
1F
100
AcDbEntity
  8
MILLING_NORMAL
100
AcDbLine
 10
2988.362842257512
 20
-1612.5075087988
 30
0.0
 11
2988.351830098396
 21
-1612.493878093863
 31
0.0
  0
LINE
  5
15B
330
1F
100
AcDbEntity
  8
MILLING_NORMAL
100
AcDbLine
 10
2988.351830098396
 20
-1612.493878093863
 30
0.0
 11
2988.340548407298
 21
-1612.480404455621
 31
0.0
  0
LINE
  5
15C
330
1F
100
AcDbEntity
  8
MILLING_NORMAL
100
AcDbLine
 10
2988.340548407298
 20
-1612.480404455621
 30
0.0
 11
2988.329000313293
 21
-1612.467095616267
 31
0.0
  0
LINE
  5
15D
330
1F
100
AcDbEntity
  8
MILLING_NORMAL
100
AcDbLine
 10
2988.329000313293
 20
-1612.467095616267
 30
0.0
 11
2988.317189233933
 21
-1612.453959234254
 31
0.0
  0
LINE
  5
15E
330
1F
100
AcDbEntity
  8
MILLING_NORMAL
100
AcDbLine
 10
2988.317189233933
 20
-1612.453959234254
 30
0.0
 11
2988.305118873579
 21
-1612.441002881092
 31
0.0
  0
LINE
  5
15F
330
1F
100
AcDbEntity
  8
MILLING_NORMAL
100
AcDbLine
 10
2988.305118873579
 20
-1612.441002881092
 30
0.0
 11
2988.292793221043
 21
-1612.428234028158
 31
0.0
  0
LINE
  5
160
330
1F
100
AcDbEntity
  8
MILLING_NORMAL
100
AcDbLine
 10
2988.292793221043
 20
-1612.428234028158
 30
0.0
 11
2988.280216546494
 21
-1612.415660033558
 31
0.0
  0
LINE
  5
161
330
1F
100
AcDbEntity
  8
MILLING_NORMAL
100
AcDbLine
 10
2988.280216546494
 20
-1612.415660033558
 30
0.0
 11
2988.267393397649
 21
-1612.403288129077
 31
0.0
  0
LINE
  5
162
330
1F
100
AcDbEntity
  8
MILLING_NORMAL
100
AcDbLine
 10
2988.267393397649
 20
-1612.403288129077
 30
0.0
 11
2988.254328595251
 21
-1612.391125407282
 31
0.0
  0
LINE
  5
163
330
1F
100
AcDbEntity
  8
MILLING_NORMAL
100
AcDbLine
 10
2988.254328595251
 20
-1612.391125407282
 30
0.0
 11
2988.241027227829
 21
-1612.379178808795
 31
0.0
  0
LINE
  5
164
330
1F
100
AcDbEntity
  8
MILLING_NORMAL
100
AcDbLine
 10
2988.241027227829
 20
-1612.379178808795
 30
0.0
 11
2988.227494645758
 21
-1612.367455109819
 31
0.0
  0
LINE
  5
165
330
1F
100
AcDbEntity
  8
MILLING_NORMAL
100
AcDbLine
 10
2988.227494645758
 20
-1612.367455109819
 30
0.0
 11
2988.213736454622
 21
-1612.35596090992
 31
0.0
  0
LINE
  5
166
330
1F
100
AcDbEntity
  8
MILLING_NORMAL
100
AcDbLine
 10
2988.213736454622
 20
-1612.35596090992
 30
0.0
 11
2988.199758507908
 21
-1612.344702620148
 31
0.0
  0
LINE
  5
167
330
1F
100
AcDbEntity
  8
MILLING_NORMAL
100
AcDbLine
 10
2988.199758507908
 20
-1612.344702620148
 30
0.0
 11
2988.185566899032
 21
-1612.333686451514
 31
0.0
  0
LINE
  5
168
330
1F
100
AcDbEntity
  8
MILLING_NORMAL
100
AcDbLine
 10
2988.185566899032
 20
-1612.333686451514
 30
0.0
 11
2988.171167952739
 21
-1612.322918403878
 31
0.0
  0
LINE
  5
169
330
1F
100
AcDbEntity
  8
MILLING_NORMAL
100
AcDbLine
 10
2988.171167952739
 20
-1612.322918403878
 30
0.0
 11
2988.156568215876
 21
-1612.312404255284
 31
0.0
  0
LINE
  5
16A
330
1F
100
AcDbEntity
  8
MILLING_NORMAL
100
AcDbLine
 10
2988.156568215876
 20
-1612.312404255284
 30
0.0
 11
2988.141774447593
 21
-1612.302149551781
 31
0.0
  0
LINE
  5
16B
330
1F
100
AcDbEntity
  8
MILLING_NORMAL
100
AcDbLine
 10
2988.141774447593
 20
-1612.302149551781
 30
0.0
 11
2988.126793608983
 21
-1612.292159597778
 31
0.0
  0
LINE
  5
16C
330
1F
100
AcDbEntity
  8
MILLING_NORMAL
100
AcDbLine
 10
2988.126793608983
 20
-1612.292159597778
 30
0.0
 11
2988.111632852208
 21
-1612.282439446942
 31
0.0
  0
LINE
  5
16D
330
1F
100
AcDbEntity
  8
MILLING_NORMAL
100
AcDbLine
 10
2988.111632852208
 20
-1612.282439446942
 30
0.0
 11
2988.096299509122
 21
-1612.272993893706
 31
0.0
  0
LINE
  5
16E
330
1F
100
AcDbEntity
  8
MILLING_NORMAL
100
AcDbLine
 10
2988.096299509122
 20
-1612.272993893706
 30
0.0
 11
2988.080801079464
 21
-1612.263827465385
 31
0.0
  0
LINE
  5
16F
330
1F
100
AcDbEntity
  8
MILLING_NORMAL
100
AcDbLine
 10
2988.080801079464
 20
-1612.263827465385
 30
0.0
 11
2988.065145218636
 21
-1612.254944414951
 31
0.0
  0
LINE
  5
170
330
1F
100
AcDbEntity
  8
MILLING_NORMAL
100
AcDbLine
 10
2988.065145218636
 20
-1612.254944414951
 30
0.0
 11
2988.049339725113
 21
-1612.246348714476
 31
0.0
  0
LINE
  5
171
330
1F
100
AcDbEntity
  8
MILLING_NORMAL
100
AcDbLine
 10
2988.049339725113
 20
-1612.246348714476
 30
0.0
 11
2988.033392527531
 21
-1612.238044049272
 31
0.0
  0
LINE
  5
172
330
1F
100
AcDbEntity
  8
MILLING_NORMAL
100
AcDbLine
 10
2988.033392527531
 20
-1612.238044049272
 30
0.0
 11
2988.017311671501
 21
-1612.230033812744
 31
0.0
  0
LINE
  5
173
330
1F
100
AcDbEntity
  8
MILLING_NORMAL
100
AcDbLine
 10
2988.017311671501
 20
-1612.230033812744
 30
0.0
 11
2988.001105306184
 21
-1612.222321101968
 31
0.0
  0
LINE
  5
174
330
1F
100
AcDbEntity
  8
MILLING_NORMAL
100
AcDbLine
 10
2988.001105306184
 20
-1612.222321101968
 30
0.0
 11
2987.984781670682
 21
-1612.21490871401
 31
0.0
  0
LINE
  5
175
330
1F
100
AcDbEntity
  8
MILLING_NORMAL
100
AcDbLine
 10
2987.984781670682
 20
-1612.21490871401
 30
0.0
 11
2987.968349080301
 21
-1612.207799142988
 31
0.0
  0
LINE
  5
176
330
1F
100
AcDbEntity
  8
MILLING_NORMAL
100
AcDbLine
 10
2987.968349080301
 20
-1612.207799142988
 30
0.0
 11
2987.951815912699
 21
-1612.20099457789
 31
0.0
  0
LINE
  5
177
330
1F
100
AcDbEntity
  8
MILLING_NORMAL
100
AcDbLine
 10
2987.951815912699
 20
-1612.20099457789
 30
0.0
 11
2987.935190594023
 21
-1612.194496901142
 31
0.0
  0
LINE
  5
178
330
1F
100
AcDbEntity
  8
MILLING_NORMAL
100
AcDbLine
 10
2987.935190594023
 20
-1612.194496901142
 30
0.0
 11
2987.918481585019
 21
-1612.18830768792
 31
0.0
  0
LINE
  5
179
330
1F
100
AcDbEntity
  8
MILLING_NORMAL
100
AcDbLine
 10
2987.918481585019
 20
-1612.18830768792
 30
0.0
 11
2987.901697367214
 21
-1612.182428206215
 31
0.0
  0
LINE
  5
17A
330
1F
100
AcDbEntity
  8
MILLING_NORMAL
100
AcDbLine
 10
2987.901697367214
 20
-1612.182428206215
 30
0.0
 11
2987.884846429177
 21
-1612.176859417626
 31
0.0
  0
LINE
  5
17B
330
1F
100
AcDbEntity
  8
MILLING_NORMAL
100
AcDbLine
 10
2987.884846429177
 20
-1612.176859417626
 30
0.0
 11
2987.867937252936
 21
-1612.171601978881
 31
0.0
  0
LINE
  5
17C
330
1F
100
AcDbEntity
  8
MILLING_NORMAL
100
AcDbLine
 10
2987.867937252936
 20
-1612.171601978881
 30
0.0
 11
2987.850978300569
 21
-1612.166656244059
 31
0.0
  0
LINE
  5
17D
330
1F
100
AcDbEntity
  8
MILLING_NORMAL
100
AcDbLine
 10
2987.850978300569
 20
-1612.166656244059
 30
0.0
 11
2987.833978001026
 21
-1612.162022267511
 31
0.0
  0
LINE
  5
17E
330
1F
100
AcDbEntity
  8
MILLING_NORMAL
100
AcDbLine
 10
2987.833978001026
 20
-1612.162022267511
 30
0.0
 11
2987.816944737209
 21
-1612.157699807443
 31
0.0
  0
LINE
  5
17F
330
1F
100
AcDbEntity
  8
MILLING_NORMAL
100
AcDbLine
 10
2987.816944737209
 20
-1612.157699807443
 30
0.0
 11
2987.79988683337
 21
-1612.153688330142
 31
0.0
  0
LINE
  5
180
330
1F
100
AcDbEntity
  8
MILLING_NORMAL
100
AcDbLine
 10
2987.79988683337
 20
-1612.153688330142
 30
0.0
 11
2987.782812542834
 21
-1612.149987014834
 31
0.0
  0
LINE
  5
181
330
1F
100
AcDbEntity
  8
MILLING_NORMAL
100
AcDbLine
 10
2987.782812542834
 20
-1612.149987014834
 30
0.0
 11
2987.748647389391
 21
-1612.143510184994
 31
0.0
  0
LINE
  5
182
330
1F
100
AcDbEntity
  8
MILLING_NORMAL
100
AcDbLine
 10
2987.748647389391
 20
-1612.143510184994
 30
0.0
 11
2987.714513443343
 21
-1612.138257231073
 31
0.0
  0
LINE
  5
183
330
1F
100
AcDbEntity
  8
MILLING_NORMAL
100
AcDbLine
 10
2987.714513443343
 20
-1612.138257231073
 30
0.0
 11
2987.680473019653
 21
-1612.134211877187
 31
0.0
  0
LINE
  5
184
330
1F
100
AcDbEntity
  8
MILLING_NORMAL
100
AcDbLine
 10
2987.680473019653
 20
-1612.134211877187
 30
0.0
 11
2987.646586266636
 21
-1612.131353904604
 31
0.0
  0
LINE
  5
185
330
1F
100
AcDbEntity
  8
MILLING_NORMAL
100
AcDbLine
 10
2987.646586266636
 20
-1612.131353904604
 30
0.0
 11
2987.612910884184
 21
-1612.129659422975
 31
0.0
  0
LINE
  5
186
330
1F
100
AcDbEntity
  8
MILLING_NORMAL
100
AcDbLine
 10
2987.612910884184
 20
-1612.129659422975
 30
0.0
 11
2987.579501877141
 21
-1612.129101161877
 31
0.0
  0
LINE
  5
187
330
1F
100
AcDbEntity
  8
MILLING_NORMAL
100
AcDbLine
 10
2987.579501877141
 20
-1612.129101161877
 30
0.0
 11
2986.345024064374
 21
-1612.129100547946
 31
0.0
  0
ARC
  5
188
330
1F
100
AcDbEntity
  8
MILLING_NORMAL
100
AcDbCircle
 10
2986.345025059019
 20
-1610.12910054794
 30
0.0
 40
2.000000000005834
100
AcDbArc
 50
216.6830805420879
 51
269.999971505513
  0
ARC
  5
189
330
1F
100
AcDbEntity
  8
MILLING_NORMAL
100
AcDbCircle
 10
2972.711839560739
 20
-1620.284702606235
 30
0.0
 40
14.9999999999047
100
AcDbArc
 50
36.68308054195529
 51
53.31686246917084
  0
ARC
  5
18A
330
1F
100
AcDbEntity
  8
MILLING_NORMAL
100
AcDbCircle
 10
2982.867455179186
 20
-1606.651527209165
 30
0.0
 40
2.000000000004774
100
AcDbArc
 50
179.9999715056758
 51
233.3168624690821
  0
LINE
  5
18B
330
1F
100
AcDbEntity
  8
MILLING_NORMAL
100
AcDbLine
 10
2980.867455179181
 20
-1606.651526214526
 30
0.0
 11
2980.867455793114
 21
-1605.417048401757
 31
0.0
  0
LINE
  5
18C
330
1F
100
AcDbEntity
  8
MILLING_NORMAL
100
AcDbLine
 10
2980.867455793114
 20
-1605.417048401757
 30
0.0
 11
2980.866897548667
 21
-1605.38363937893
 31
0.0
  0
LINE
  5
18D
330
1F
100
AcDbEntity
  8
MILLING_NORMAL
100
AcDbLine
 10
2980.866897548667
 20
-1605.38363937893
 30
0.0
 11
2980.865203084611
 21
-1605.349963980834
 31
0.0
  0
LINE
  5
18E
330
1F
100
AcDbEntity
  8
MILLING_NORMAL
100
AcDbLine
 10
2980.865203084611
 20
-1605.349963980834
 30
0.0
 11
2980.862345130554
 21
-1605.316077212307
 31
0.0
  0
LINE
  5
18F
330
1F
100
AcDbEntity
  8
MILLING_NORMAL
100
AcDbLine
 10
2980.862345130554
 20
-1605.316077212307
 30
0.0
 11
2980.858299796173
 21
-1605.282036773223
 31
0.0
  0
LINE
  5
190
330
1F
100
AcDbEntity
  8
MILLING_NORMAL
100
AcDbLine
 10
2980.858299796173
 20
-1605.282036773223
 30
0.0
 11
2980.853046862758
 21
-1605.247902811883
 31
0.0
  0
LINE
  5
191
330
1F
100
AcDbEntity
  8
MILLING_NORMAL
100
AcDbLine
 10
2980.853046862758
 20
-1605.247902811883
 30
0.0
 11
2980.846570054439
 21
-1605.213737643224
 31
0.0
  0
LINE
  5
192
330
1F
100
AcDbEntity
  8
MILLING_NORMAL
100
AcDbLine
 10
2980.846570054439
 20
-1605.213737643224
 30
0.0
 11
2980.842868750275
 21
-1605.196663345102
 31
0.0
  0
LINE
  5
193
330
1F
100
AcDbEntity
  8
MILLING_NORMAL
100
AcDbLine
 10
2980.842868750275
 20
-1605.196663345102
 30
0.0
 11
2980.838857284373
 21
-1605.179605433685
 31
0.0
  0
LINE
  5
194
330
1F
100
AcDbEntity
  8
MILLING_NORMAL
100
AcDbLine
 10
2980.838857284373
 20
-1605.179605433685
 30
0.0
 11
2980.834534835959
 21
-1605.162572162297
 31
0.0
  0
LINE
  5
195
330
1F
100
AcDbEntity
  8
MILLING_NORMAL
100
AcDbLine
 10
2980.834534835959
 20
-1605.162572162297
 30
0.0
 11
2980.829900871322
 21
-1605.145571855183
 31
0.0
  0
LINE
  5
196
330
1F
100
AcDbEntity
  8
MILLING_NORMAL
100
AcDbLine
 10
2980.829900871322
 20
-1605.145571855183
 30
0.0
 11
2980.824955148666
 21
-1605.128612895244
 31
0.0
  0
LINE
  5
197
330
1F
100
AcDbEntity
  8
MILLING_NORMAL
100
AcDbLine
 10
2980.824955148666
 20
-1605.128612895244
 30
0.0
 11
2980.819697722337
 21
-1605.111703711424
 31
0.0
  0
LINE
  5
198
330
1F
100
AcDbEntity
  8
MILLING_NORMAL
100
AcDbLine
 10
2980.819697722337
 20
-1605.111703711424
 30
0.0
 11
2980.814128946416
 21
-1605.094852765796
 31
0.0
  0
LINE
  5
199
330
1F
100
AcDbEntity
  8
MILLING_NORMAL
100
AcDbLine
 10
2980.814128946416
 20
-1605.094852765796
 30
0.0
 11
2980.808249477624
 21
-1605.078068540383
 31
0.0
  0
LINE
  5
19A
330
1F
100
AcDbEntity
  8
MILLING_NORMAL
100
AcDbLine
 10
2980.808249477624
 20
-1605.078068540383
 30
0.0
 11
2980.80206027756
 21
-1605.061359523752
 31
0.0
  0
LINE
  5
19B
330
1F
100
AcDbEntity
  8
MILLING_NORMAL
100
AcDbLine
 10
2980.80206027756
 20
-1605.061359523752
 30
0.0
 11
2980.79556261421
 21
-1605.044734197424
 31
0.0
  0
LINE
  5
19C
330
1F
100
AcDbEntity
  8
MILLING_NORMAL
100
AcDbLine
 10
2980.79556261421
 20
-1605.044734197424
 30
0.0
 11
2980.788758062747
 21
-1605.02820102214
 31
0.0
  0
LINE
  5
19D
330
1F
100
AcDbEntity
  8
MILLING_NORMAL
100
AcDbLine
 10
2980.788758062747
 20
-1605.02820102214
 30
0.0
 11
2980.781648505589
 21
-1605.011768424039
 31
0.0
  0
LINE
  5
19E
330
1F
100
AcDbEntity
  8
MILLING_NORMAL
100
AcDbLine
 10
2980.781648505589
 20
-1605.011768424039
 30
0.0
 11
2980.77423613172
 21
-1604.99544478078
 31
0.0
  0
LINE
  5
19F
330
1F
100
AcDbEntity
  8
MILLING_NORMAL
100
AcDbLine
 10
2980.77423613172
 20
-1604.99544478078
 30
0.0
 11
2980.766523435253
 21
-1604.979238407658
 31
0.0
  0
LINE
  5
1A0
330
1F
100
AcDbEntity
  8
MILLING_NORMAL
100
AcDbLine
 10
2980.766523435253
 20
-1604.979238407658
 30
0.0
 11
2980.758513213246
 21
-1604.963157543775
 31
0.0
  0
LINE
  5
1A1
330
1F
100
AcDbEntity
  8
MILLING_NORMAL
100
AcDbLine
 10
2980.758513213246
 20
-1604.963157543775
 30
0.0
 11
2980.750208562768
 21
-1604.947210338285
 31
0.0
  0
LINE
  5
1A2
330
1F
100
AcDbEntity
  8
MILLING_NORMAL
100
AcDbLine
 10
2980.750208562768
 20
-1604.947210338285
 30
0.0
 11
2980.741612877216
 21
-1604.931404836793
 31
0.0
  0
LINE
  5
1A3
330
1F
100
AcDbEntity
  8
MILLING_NORMAL
100
AcDbLine
 10
2980.741612877216
 20
-1604.931404836793
 30
0.0
 11
2980.732729841895
 21
-1604.915748967932
 31
0.0
  0
LINE
  5
1A4
330
1F
100
AcDbEntity
  8
MILLING_NORMAL
100
AcDbLine
 10
2980.732729841895
 20
-1604.915748967932
 30
0.0
 11
2980.723563428866
 21
-1604.900250530171
 31
0.0
  0
LINE
  5
1A5
330
1F
100
AcDbEntity
  8
MILLING_NORMAL
100
AcDbLine
 10
2980.723563428866
 20
-1604.900250530171
 30
0.0
 11
2980.714117891093
 21
-1604.884917178907
 31
0.0
  0
LINE
  5
1A6
330
1F
100
AcDbEntity
  8
MILLING_NORMAL
100
AcDbLine
 10
2980.714117891093
 20
-1604.884917178907
 30
0.0
 11
2980.704397755883
 21
-1604.869756413877
 31
0.0
  0
LINE
  5
1A7
330
1F
100
AcDbEntity
  8
MILLING_NORMAL
100
AcDbLine
 10
2980.704397755883
 20
-1604.869756413877
 30
0.0
 11
2980.694407817656
 21
-1604.85477556693
 31
0.0
  0
LINE
  5
1A8
330
1F
100
AcDbEntity
  8
MILLING_NORMAL
100
AcDbLine
 10
2980.694407817656
 20
-1604.85477556693
 30
0.0
 11
2980.68415313007
 21
-1604.839981790222
 31
0.0
  0
LINE
  5
1A9
330
1F
100
AcDbEntity
  8
MILLING_NORMAL
100
AcDbLine
 10
2980.68415313007
 20
-1604.839981790222
 30
0.0
 11
2980.673638997522
 21
-1604.825382044843
 31
0.0
  0
LINE
  5
1AA
330
1F
100
AcDbEntity
  8
MILLING_NORMAL
100
AcDbLine
 10
2980.673638997522
 20
-1604.825382044843
 30
0.0
 11
2980.66287096605
 21
-1604.810983089939
 31
0.0
  0
LINE
  5
1AB
330
1F
100
AcDbEntity
  8
MILLING_NORMAL
100
AcDbLine
 10
2980.66287096605
 20
-1604.810983089939
 30
0.0
 11
2980.651854813687
 21
-1604.796791472356
 31
0.0
  0
LINE
  5
1AC
330
1F
100
AcDbEntity
  8
MILLING_NORMAL
100
AcDbLine
 10
2980.651854813687
 20
-1604.796791472356
 30
0.0
 11
2980.64059654028
 21
-1604.782813516833
 31
0.0
  0
LINE
  5
1AD
330
1F
100
AcDbEntity
  8
MILLING_NORMAL
100
AcDbLine
 10
2980.64059654028
 20
-1604.782813516833
 30
0.0
 11
2980.629102356826
 21
-1604.769055316785
 31
0.0
  0
LINE
  5
1AE
330
1F
100
AcDbEntity
  8
MILLING_NORMAL
100
AcDbLine
 10
2980.629102356826
 20
-1604.769055316785
 30
0.0
 11
2980.617378674365
 21
-1604.755522725695
 31
0.0
  0
LINE
  5
1AF
330
1F
100
AcDbEntity
  8
MILLING_NORMAL
100
AcDbLine
 10
2980.617378674365
 20
-1604.755522725695
 30
0.0
 11
2980.60543209245
 21
-1604.742221349146
 31
0.0
  0
LINE
  5
1B0
330
1F
100
AcDbEntity
  8
MILLING_NORMAL
100
AcDbLine
 10
2980.60543209245
 20
-1604.742221349146
 30
0.0
 11
2980.593269387268
 21
-1604.729156537509
 31
0.0
  0
LINE
  5
1B1
330
1F
100
AcDbEntity
  8
MILLING_NORMAL
100
AcDbLine
 10
2980.593269387268
 20
-1604.729156537509
 30
0.0
 11
2980.580897499431
 21
-1604.716333379313
 31
0.0
  0
LINE
  5
1B2
330
1F
100
AcDbEntity
  8
MILLING_NORMAL
100
AcDbLine
 10
2980.580897499431
 20
-1604.716333379313
 30
0.0
 11
2980.568323521489
 21
-1604.703756695299
 31
0.0
  0
LINE
  5
1B3
330
1F
100
AcDbEntity
  8
MILLING_NORMAL
100
AcDbLine
 10
2980.568323521489
 20
-1604.703756695299
 30
0.0
 11
2980.555554685217
 21
-1604.691431033183
 31
0.0
  0
LINE
  5
1B4
330
1F
100
AcDbEntity
  8
MILLING_NORMAL
100
AcDbLine
 10
2980.555554685217
 20
-1604.691431033183
 30
0.0
 11
2980.542598348704
 21
-1604.679360663134
 31
0.0
  0
LINE
  5
1B5
330
1F
100
AcDbEntity
  8
MILLING_NORMAL
100
AcDbLine
 10
2980.542598348704
 20
-1604.679360663134
 30
0.0
 11
2980.529461983314
 21
-1604.667549573962
 31
0.0
  0
LINE
  5
1B6
330
1F
100
AcDbEntity
  8
MILLING_NORMAL
100
AcDbLine
 10
2980.529461983314
 20
-1604.667549573962
 30
0.0
 11
2980.516153160547
 21
-1604.656001470031
 31
0.0
  0
LINE
  5
1B7
330
1F
100
AcDbEntity
  8
MILLING_NORMAL
100
AcDbLine
 10
2980.516153160547
 20
-1604.656001470031
 30
0.0
 11
2980.502679538837
 21
-1604.644719768891
 31
0.0
  0
LINE
  5
1B8
330
1F
100
AcDbEntity
  8
MILLING_NORMAL
100
AcDbLine
 10
2980.502679538837
 20
-1604.644719768891
 30
0.0
 11
2980.489048850366
 21
-1604.633707599618
 31
0.0
  0
LINE
  5
1B9
330
1F
100
AcDbEntity
  8
MILLING_NORMAL
100
AcDbLine
 10
2980.489048850366
 20
-1604.633707599618
 30
0.0
 11
2980.475268887899
 21
-1604.622967801866
 31
0.0
  0
LINE
  5
1BA
330
1F
100
AcDbEntity
  8
MILLING_NORMAL
100
AcDbLine
 10
2980.475268887899
 20
-1604.622967801866
 30
0.0
 11
2980.447292536604
 21
-1604.602315231582
 31
0.0
  0
LINE
  5
1BB
330
1F
100
AcDbEntity
  8
MILLING_NORMAL
100
AcDbLine
 10
2980.447292536604
 20
-1604.602315231582
 30
0.0
 11
2980.418813545094
 21
-1604.582778994081
 31
0.0
  0
LINE
  5
1BC
330
1F
100
AcDbEntity
  8
MILLING_NORMAL
100
AcDbLine
 10
2980.418813545094
 20
-1604.582778994081
 30
0.0
 11
2980.389895121847
 21
-1604.56437144785
 31
0.0
  0
LINE
  5
1BD
330
1F
100
AcDbEntity
  8
MILLING_NORMAL
100
AcDbLine
 10
2980.389895121847
 20
-1604.56437144785
 30
0.0
 11
2980.36060023294
 21
-1604.547100458986
 31
0.0
  0
LINE
  5
1BE
330
1F
100
AcDbEntity
  8
MILLING_NORMAL
100
AcDbLine
 10
2980.36060023294
 20
-1604.547100458986
 30
0.0
 11
2980.330991230524
 21
-1604.530969523386
 31
0.0
  0
LINE
  5
1BF
330
1F
100
AcDbEntity
  8
MILLING_NORMAL
100
AcDbLine
 10
2980.330991230524
 20
-1604.530969523386
 30
0.0
 11
2980.301129504168
 21
-1604.515977922504
 31
0.0
  0
LINE
  5
1C0
330
1F
100
AcDbEntity
  8
MILLING_NORMAL
100
AcDbLine
 10
2980.301129504168
 20
-1604.515977922504
 30
0.0
 11
2979.869674169637
 21
-1604.315500885004
 31
0.0
  0
LINE
  5
1C1
330
1F
100
AcDbEntity
  8
MILLING_NORMAL
100
AcDbLine
 10
2979.869674169637
 20
-1604.315500885004
 30
0.0
 11
2979.43035960021
 21
-1604.125758083078
 31
0.0
  0
LINE
  5
1C2
330
1F
100
AcDbEntity
  8
MILLING_NORMAL
100
AcDbLine
 10
2979.43035960021
 20
-1604.125758083078
 30
0.0
 11
2978.983569440628
 21
-1603.947156784217
 31
0.0
  0
LINE
  5
1C3
330
1F
100
AcDbEntity
  8
MILLING_NORMAL
100
AcDbLine
 10
2978.983569440628
 20
-1603.947156784217
 30
0.0
 11
2978.529713538498
 21
-1603.780086859647
 31
0.0
  0
LINE
  5
1C4
330
1F
100
AcDbEntity
  8
MILLING_NORMAL
100
AcDbLine
 10
2978.529713538498
 20
-1603.780086859647
 30
0.0
 11
2978.069227019844
 21
-1603.624918771405
 31
0.0
  0
LINE
  5
1C5
330
1F
100
AcDbEntity
  8
MILLING_NORMAL
100
AcDbLine
 10
2978.069227019844
 20
-1603.624918771405
 30
0.0
 11
2977.60256918485
 21
-1603.482001612857
 31
0.0
  0
LINE
  5
1C6
330
1F
100
AcDbEntity
  8
MILLING_NORMAL
100
AcDbLine
 10
2977.60256918485
 20
-1603.482001612857
 30
0.0
 11
2977.130222226762
 21
-1603.351661220996
 31
0.0
  0
LINE
  5
1C7
330
1F
100
AcDbEntity
  8
MILLING_NORMAL
100
AcDbLine
 10
2977.130222226762
 20
-1603.351661220996
 30
0.0
 11
2976.652689779045
 21
-1603.234198378734
 31
0.0
  0
LINE
  5
1C8
330
1F
100
AcDbEntity
  8
MILLING_NORMAL
100
AcDbLine
 10
2976.652689779045
 20
-1603.234198378734
 30
0.0
 11
2976.170495297984
 21
-1603.129887125062
 31
0.0
  0
LINE
  5
1C9
330
1F
100
AcDbEntity
  8
MILLING_NORMAL
100
AcDbLine
 10
2976.170495297984
 20
-1603.129887125062
 30
0.0
 11
2975.684180290036
 21
-1603.038973190285
 31
0.0
  0
LINE
  5
1CA
330
1F
100
AcDbEntity
  8
MILLING_NORMAL
100
AcDbLine
 10
2975.684180290036
 20
-1603.038973190285
 30
0.0
 11
2975.19430239524
 21
-1602.961672572636
 31
0.0
  0
LINE
  5
1CB
330
1F
100
AcDbEntity
  8
MILLING_NORMAL
100
AcDbLine
 10
2975.19430239524
 20
-1602.961672572636
 30
0.0
 11
2974.701433339932
 21
-1602.898170271402
 31
0.0
  0
LINE
  5
1CC
330
1F
100
AcDbEntity
  8
MILLING_NORMAL
100
AcDbLine
 10
2974.701433339932
 20
-1602.898170271402
 30
0.0
 11
2974.206156773819
 21
-1602.848619190225
 31
0.0
  0
LINE
  5
1CD
330
1F
100
AcDbEntity
  8
MILLING_NORMAL
100
AcDbLine
 10
2974.206156773819
 20
-1602.848619190225
 30
0.0
 11
2973.709066008031
 21
-1602.813139222617
 31
0.0
  0
LINE
  5
1CE
330
1F
100
AcDbEntity
  8
MILLING_NORMAL
100
AcDbLine
 10
2973.709066008031
 20
-1602.813139222617
 30
0.0
 11
2973.210761672196
 21
-1602.791816529818
 31
0.0
  0
LINE
  5
1CF
330
1F
100
AcDbEntity
  8
MILLING_NORMAL
100
AcDbLine
 10
2973.210761672196
 20
-1602.791816529818
 30
0.0
 11
2972.711849309753
 21
-1602.784703019075
 31
0.0
  0
LINE
  5
1D0
330
1F
100
AcDbEntity
  8
MILLING_NORMAL
100
AcDbLine
 10
2972.711849309753
 20
-1602.784703019075
 30
0.0
 11
2972.212936931563
 21
-1602.791816028232
 31
0.0
  0
LINE
  5
1D1
330
1F
100
AcDbEntity
  8
MILLING_NORMAL
100
AcDbLine
 10
2972.212936931563
 20
-1602.791816028232
 30
0.0
 11
2971.714632548531
 21
-1602.813138220188
 31
0.0
  0
LINE
  5
1D2
330
1F
100
AcDbEntity
  8
MILLING_NORMAL
100
AcDbLine
 10
2971.714632548531
 20
-1602.813138220188
 30
0.0
 11
2971.217541704222
 21
-1602.848617688436
 31
0.0
  0
LINE
  5
1D3
330
1F
100
AcDbEntity
  8
MILLING_NORMAL
100
AcDbLine
 10
2971.217541704222
 20
-1602.848617688436
 30
0.0
 11
2970.722265028473
 21
-1602.898168272469
 31
0.0
  0
LINE
  5
1D4
330
1F
100
AcDbEntity
  8
MILLING_NORMAL
100
AcDbLine
 10
2970.722265028473
 20
-1602.898168272469
 30
0.0
 11
2970.229395832705
 21
-1602.961670079498
 31
0.0
  0
LINE
  5
1D5
330
1F
100
AcDbEntity
  8
MILLING_NORMAL
100
AcDbLine
 10
2970.229395832705
 20
-1602.961670079498
 30
0.0
 11
2969.739517766994
 21
-1603.038970206588
 31
0.0
  0
LINE
  5
1D6
330
1F
100
AcDbEntity
  8
MILLING_NORMAL
100
AcDbLine
 10
2969.739517766994
 20
-1603.038970206588
 30
0.0
 11
2969.253202558129
 21
-1603.129883655146
 31
0.0
  0
LINE
  5
1D7
330
1F
100
AcDbEntity
  8
MILLING_NORMAL
100
AcDbLine
 10
2969.253202558129
 20
-1603.129883655146
 30
0.0
 11
2968.771007846669
 21
-1603.234194427607
 31
0.0
  0
LINE
  5
1D8
330
1F
100
AcDbEntity
  8
MILLING_NORMAL
100
AcDbLine
 10
2968.771007846669
 20
-1603.234194427607
 30
0.0
 11
2968.293475139664
 21
-1603.351656794316
 31
0.0
  0
LINE
  5
1D9
330
1F
100
AcDbEntity
  8
MILLING_NORMAL
100
AcDbLine
 10
2968.293475139664
 20
-1603.351656794316
 30
0.0
 11
2967.821127894065
 21
-1603.481996716904
 31
0.0
  0
LINE
  5
1DA
330
1F
100
AcDbEntity
  8
MILLING_NORMAL
100
AcDbLine
 10
2967.821127894065
 20
-1603.481996716904
 30
0.0
 11
2967.35446974406
 21
-1603.624913413054
 31
0.0
  0
LINE
  5
1DB
330
1F
100
AcDbEntity
  8
MILLING_NORMAL
100
AcDbLine
 10
2967.35446974406
 20
-1603.624913413054
 30
0.0
 11
2966.893982883679
 21
-1603.780081046338
 31
0.0
  0
LINE
  5
1DC
330
1F
100
AcDbEntity
  8
MILLING_NORMAL
100
AcDbLine
 10
2966.893982883679
 20
-1603.780081046338
 30
0.0
 11
2966.440126613945
 21
-1603.94715052392
 31
0.0
  0
LINE
  5
1DD
330
1F
100
AcDbEntity
  8
MILLING_NORMAL
100
AcDbLine
 10
2966.440126613945
 20
-1603.94715052392
 30
0.0
 11
2965.993336061771
 21
-1604.125751384263
 31
0.0
  0
LINE
  5
1DE
330
1F
100
AcDbEntity
  8
MILLING_NORMAL
100
AcDbLine
 10
2965.993336061771
 20
-1604.125751384263
 30
0.0
 11
2965.554021075695
 21
-1604.315493756604
 31
0.0
  0
LINE
  5
1DF
330
1F
100
AcDbEntity
  8
MILLING_NORMAL
100
AcDbLine
 10
2965.554021075695
 20
-1604.315493756604
 30
0.0
 11
2965.12256530143
 21
-1604.515970373878
 31
0.0
  0
LINE
  5
1E0
330
1F
100
AcDbEntity
  8
MILLING_NORMAL
100
AcDbLine
 10
2965.12256530143
 20
-1604.515970373878
 30
0.0
 11
2965.09270354598
 21
-1604.530961951978
 31
0.0
  0
LINE
  5
1E1
330
1F
100
AcDbEntity
  8
MILLING_NORMAL
100
AcDbLine
 10
2965.09270354598
 20
-1604.530961951978
 30
0.0
 11
2965.063094513604
 21
-1604.547092865117
 31
0.0
  0
LINE
  5
1E2
330
1F
100
AcDbEntity
  8
MILLING_NORMAL
100
AcDbLine
 10
2965.063094513604
 20
-1604.547092865117
 30
0.0
 11
2965.033799593965
 21
-1604.564363831876
 31
0.0
  0
LINE
  5
1E3
330
1F
100
AcDbEntity
  8
MILLING_NORMAL
100
AcDbLine
 10
2965.033799593965
 20
-1604.564363831876
 30
0.0
 11
2965.004881139303
 21
-1604.582771356386
 31
0.0
  0
LINE
  5
1E4
330
1F
100
AcDbEntity
  8
MILLING_NORMAL
100
AcDbLine
 10
2965.004881139303
 20
-1604.582771356386
 30
0.0
 11
2964.976402115794
 21
-1604.602307572579
 31
0.0
  0
LINE
  5
1E5
330
1F
100
AcDbEntity
  8
MILLING_NORMAL
100
AcDbLine
 10
2964.976402115794
 20
-1604.602307572579
 30
0.0
 11
2964.94842573202
 21
-1604.622960121989
 31
0.0
  0
LINE
  5
1E6
330
1F
100
AcDbEntity
  8
MILLING_NORMAL
100
AcDbLine
 10
2964.94842573202
 20
-1604.622960121989
 30
0.0
 11
2964.934645753168
 21
-1604.63369990947
 31
0.0
  0
LINE
  5
1E7
330
1F
100
AcDbEntity
  8
MILLING_NORMAL
100
AcDbLine
 10
2964.934645753168
 20
-1604.63369990947
 30
0.0
 11
2964.92101504823
 21
-1604.644712068586
 31
0.0
  0
LINE
  5
1E8
330
1F
100
AcDbEntity
  8
MILLING_NORMAL
100
AcDbLine
 10
2964.92101504823
 20
-1604.644712068586
 30
0.0
 11
2964.907541409988
 21
-1604.655993759684
 31
0.0
  0
LINE
  5
1E9
330
1F
100
AcDbEntity
  8
MILLING_NORMAL
100
AcDbLine
 10
2964.907541409988
 20
-1604.655993759684
 30
0.0
 11
2964.894232570635
 21
-1604.667541853687
 31
0.0
  0
LINE
  5
1EA
330
1F
100
AcDbEntity
  8
MILLING_NORMAL
100
AcDbLine
 10
2964.894232570635
 20
-1604.667541853687
 30
0.0
 11
2964.881096188623
 21
-1604.679352933049
 31
0.0
  0
LINE
  5
1EB
330
1F
100
AcDbEntity
  8
MILLING_NORMAL
100
AcDbLine
 10
2964.881096188623
 20
-1604.679352933049
 30
0.0
 11
2964.868139835459
 21
-1604.691423293403
 31
0.0
  0
LINE
  5
1EC
330
1F
100
AcDbEntity
  8
MILLING_NORMAL
100
AcDbLine
 10
2964.868139835459
 20
-1604.691423293403
 30
0.0
 11
2964.855370982526
 21
-1604.703748945939
 31
0.0
  0
LINE
  5
1ED
330
1F
100
AcDbEntity
  8
MILLING_NORMAL
100
AcDbLine
 10
2964.855370982526
 20
-1604.703748945939
 30
0.0
 11
2964.842796987924
 21
-1604.716325620488
 31
0.0
  0
LINE
  5
1EE
330
1F
100
AcDbEntity
  8
MILLING_NORMAL
100
AcDbLine
 10
2964.842796987924
 20
-1604.716325620488
 30
0.0
 11
2964.830425083444
 21
-1604.729148769333
 31
0.0
  0
LINE
  5
1EF
330
1F
100
AcDbEntity
  8
MILLING_NORMAL
100
AcDbLine
 10
2964.830425083444
 20
-1604.729148769333
 30
0.0
 11
2964.818262361648
 21
-1604.74221357173
 31
0.0
  0
LINE
  5
1F0
330
1F
100
AcDbEntity
  8
MILLING_NORMAL
100
AcDbLine
 10
2964.818262361648
 20
-1604.74221357173
 30
0.0
 11
2964.806315763162
 21
-1604.755514939152
 31
0.0
  0
LINE
  5
1F1
330
1F
100
AcDbEntity
  8
MILLING_NORMAL
100
AcDbLine
 10
2964.806315763162
 20
-1604.755514939152
 30
0.0
 11
2964.794592064186
 21
-1604.769047521223
 31
0.0
  0
LINE
  5
1F2
330
1F
100
AcDbEntity
  8
MILLING_NORMAL
100
AcDbLine
 10
2964.794592064186
 20
-1604.769047521223
 30
0.0
 11
2964.783097864286
 21
-1604.782805712358
 31
0.0
  0
LINE
  5
1F3
330
1F
100
AcDbEntity
  8
MILLING_NORMAL
100
AcDbLine
 10
2964.783097864286
 20
-1604.782805712358
 30
0.0
 11
2964.771839574515
 21
-1604.796783659072
 31
0.0
  0
LINE
  5
1F4
330
1F
100
AcDbEntity
  8
MILLING_NORMAL
100
AcDbLine
 10
2964.771839574515
 20
-1604.796783659072
 30
0.0
 11
2964.760823405881
 21
-1604.810975267947
 31
0.0
  0
LINE
  5
1F5
330
1F
100
AcDbEntity
  8
MILLING_NORMAL
100
AcDbLine
 10
2964.760823405881
 20
-1604.810975267947
 30
0.0
 11
2964.750055358244
 21
-1604.825374214241
 31
0.0
  0
LINE
  5
1F6
330
1F
100
AcDbEntity
  8
MILLING_NORMAL
100
AcDbLine
 10
2964.750055358244
 20
-1604.825374214241
 30
0.0
 11
2964.739541209651
 21
-1604.839973951105
 31
0.0
  0
LINE
  5
1F7
330
1F
100
AcDbEntity
  8
MILLING_NORMAL
100
AcDbLine
 10
2964.739541209651
 20
-1604.839973951105
 30
0.0
 11
2964.729286506149
 21
-1604.854767719389
 31
0.0
  0
LINE
  5
1F8
330
1F
100
AcDbEntity
  8
MILLING_NORMAL
100
AcDbLine
 10
2964.729286506149
 20
-1604.854767719389
 30
0.0
 11
2964.719296552146
 21
-1604.869748557997
 31
0.0
  0
LINE
  5
1F9
330
1F
100
AcDbEntity
  8
MILLING_NORMAL
100
AcDbLine
 10
2964.719296552146
 20
-1604.869748557997
 30
0.0
 11
2964.70957640131
 21
-1604.884909314772
 31
0.0
  0
LINE
  5
1FA
330
1F
100
AcDbEntity
  8
MILLING_NORMAL
100
AcDbLine
 10
2964.70957640131
 20
-1604.884909314772
 30
0.0
 11
2964.700130848073
 21
-1604.900242657859
 31
0.0
  0
LINE
  5
1FB
330
1F
100
AcDbEntity
  8
MILLING_NORMAL
100
AcDbLine
 10
2964.700130848073
 20
-1604.900242657859
 30
0.0
 11
2964.690964419752
 21
-1604.915741087517
 31
0.0
  0
LINE
  5
1FC
330
1F
100
AcDbEntity
  8
MILLING_NORMAL
100
AcDbLine
 10
2964.690964419752
 20
-1604.915741087517
 30
0.0
 11
2964.682081369318
 21
-1604.931396948345
 31
0.0
  0
LINE
  5
1FD
330
1F
100
AcDbEntity
  8
MILLING_NORMAL
100
AcDbLine
 10
2964.682081369318
 20
-1604.931396948345
 30
0.0
 11
2964.673485668842
 21
-1604.947202441868
 31
0.0
  0
LINE
  5
1FE
330
1F
100
AcDbEntity
  8
MILLING_NORMAL
100
AcDbLine
 10
2964.673485668842
 20
-1604.947202441868
 30
0.0
 11
2964.665181003639
 21
-1604.963149639449
 31
0.0
  0
LINE
  5
1FF
330
1F
100
AcDbEntity
  8
MILLING_NORMAL
100
AcDbLine
 10
2964.665181003639
 20
-1604.963149639449
 30
0.0
 11
2964.657170767111
 21
-1604.979230495478
 31
0.0
  0
LINE
  5
200
330
1F
100
AcDbEntity
  8
MILLING_NORMAL
100
AcDbLine
 10
2964.657170767111
 20
-1604.979230495478
 30
0.0
 11
2964.649458056335
 21
-1604.995436860796
 31
0.0
  0
LINE
  5
201
330
1F
100
AcDbEntity
  8
MILLING_NORMAL
100
AcDbLine
 10
2964.649458056335
 20
-1604.995436860796
 30
0.0
 11
2964.642045668377
 21
-1605.011760496297
 31
0.0
  0
LINE
  5
202
330
1F
100
AcDbEntity
  8
MILLING_NORMAL
100
AcDbLine
 10
2964.642045668377
 20
-1605.011760496297
 30
0.0
 11
2964.634936097355
 21
-1605.02819308668
 31
0.0
  0
LINE
  5
203
330
1F
100
AcDbEntity
  8
MILLING_NORMAL
100
AcDbLine
 10
2964.634936097355
 20
-1605.02819308668
 30
0.0
 11
2964.628131532258
 21
-1605.04472625428
 31
0.0
  0
LINE
  5
204
330
1F
100
AcDbEntity
  8
MILLING_NORMAL
100
AcDbLine
 10
2964.628131532258
 20
-1605.04472625428
 30
0.0
 11
2964.621633855509
 21
-1605.061351572957
 31
0.0
  0
LINE
  5
205
330
1F
100
AcDbEntity
  8
MILLING_NORMAL
100
AcDbLine
 10
2964.621633855509
 20
-1605.061351572957
 30
0.0
 11
2964.615444642287
 21
-1605.07806058196
 31
0.0
  0
LINE
  5
206
330
1F
100
AcDbEntity
  8
MILLING_NORMAL
100
AcDbLine
 10
2964.615444642287
 20
-1605.07806058196
 30
0.0
 11
2964.609565160582
 21
-1605.094844799766
 31
0.0
  0
LINE
  5
207
330
1F
100
AcDbEntity
  8
MILLING_NORMAL
100
AcDbLine
 10
2964.609565160582
 20
-1605.094844799766
 30
0.0
 11
2964.603996371994
 21
-1605.111695737803
 31
0.0
  0
LINE
  5
208
330
1F
100
AcDbEntity
  8
MILLING_NORMAL
100
AcDbLine
 10
2964.603996371994
 20
-1605.111695737803
 30
0.0
 11
2964.598738933248
 21
-1605.128604914044
 31
0.0
  0
LINE
  5
209
330
1F
100
AcDbEntity
  8
MILLING_NORMAL
100
AcDbLine
 10
2964.598738933248
 20
-1605.128604914044
 30
0.0
 11
2964.593793198426
 21
-1605.145563866411
 31
0.0
  0
LINE
  5
20A
330
1F
100
AcDbEntity
  8
MILLING_NORMAL
100
AcDbLine
 10
2964.593793198426
 20
-1605.145563866411
 30
0.0
 11
2964.589159221879
 21
-1605.162564165954
 31
0.0
  0
LINE
  5
20B
330
1F
100
AcDbEntity
  8
MILLING_NORMAL
100
AcDbLine
 10
2964.589159221879
 20
-1605.162564165954
 30
0.0
 11
2964.58483676181
 21
-1605.179597429771
 31
0.0
  0
LINE
  5
20C
330
1F
100
AcDbEntity
  8
MILLING_NORMAL
100
AcDbLine
 10
2964.58483676181
 20
-1605.179597429771
 30
0.0
 11
2964.580825284509
 21
-1605.196655333611
 31
0.0
  0
LINE
  5
20D
330
1F
100
AcDbEntity
  8
MILLING_NORMAL
100
AcDbLine
 10
2964.580825284509
 20
-1605.196655333611
 30
0.0
 11
2964.5771239692
 21
-1605.213729624146
 31
0.0
  0
LINE
  5
20E
330
1F
100
AcDbEntity
  8
MILLING_NORMAL
100
AcDbLine
 10
2964.5771239692
 20
-1605.213729624146
 30
0.0
 11
2964.570647139362
 21
-1605.247894777589
 31
0.0
  0
LINE
  5
20F
330
1F
100
AcDbEntity
  8
MILLING_NORMAL
100
AcDbLine
 10
2964.570647139362
 20
-1605.247894777589
 30
0.0
 11
2964.565394185441
 21
-1605.282028723637
 31
0.0
  0
LINE
  5
210
330
1F
100
AcDbEntity
  8
MILLING_NORMAL
100
AcDbLine
 10
2964.565394185441
 20
-1605.282028723637
 30
0.0
 11
2964.561348831555
 21
-1605.316069147328
 31
0.0
  0
LINE
  5
211
330
1F
100
AcDbEntity
  8
MILLING_NORMAL
100
AcDbLine
 10
2964.561348831555
 20
-1605.316069147328
 30
0.0
 11
2964.558490858971
 21
-1605.349955900344
 31
0.0
  0
LINE
  5
212
330
1F
100
AcDbEntity
  8
MILLING_NORMAL
100
AcDbLine
 10
2964.558490858971
 20
-1605.349955900344
 30
0.0
 11
2964.556796377343
 21
-1605.383631282797
 31
0.0
  0
LINE
  5
213
330
1F
100
AcDbEntity
  8
MILLING_NORMAL
100
AcDbLine
 10
2964.556796377343
 20
-1605.383631282797
 30
0.0
 11
2964.556238116245
 21
-1605.417040289839
 31
0.0
  0
LINE
  5
214
330
1F
100
AcDbEntity
  8
MILLING_NORMAL
100
AcDbLine
 10
2964.556238116245
 20
-1605.417040289839
 30
0.0
 11
2964.556237502315
 21
-1606.651518102607
 31
0.0
  0
ARC
  5
215
330
1F
100
AcDbEntity
  8
MILLING_NORMAL
100
AcDbCircle
 10
2962.556237502295
 20
-1606.651517107953
 30
0.0
 40
2.000000000020377
100
AcDbArc
 50
306.6830805423122
 51
359.9999715052785
  0
ARC
  5
216
330
1F
100
AcDbEntity
  8
MILLING_NORMAL
100
AcDbCircle
 10
2972.711839557744
 20
-1620.284702602496
 30
0.0
 40
14.99999999519347
100
AcDbArc
 50
126.6830805417382
 51
128.990965548537
  0
LINE
  5
217
330
1F
100
AcDbEntity
  8
MILLING_NORMAL
100
AcDbLine
 10
2963.273871928767
 20
-1608.626024851989
 30
0.0
 11
2962.571814692688
 21
-1609.194356322287
 31
0.0
  0
LINE
  5
218
330
1F
100
AcDbEntity
  8
MILLING_NORMAL
100
AcDbLine
 10
2962.571814692688
 20
-1609.194356322287
 30
0.0
 11
2956.157353115367
 21
-1614.383406556225
 31
0.0
  0
LINE
  5
219
330
1F
100
AcDbEntity
  8
MILLING_NORMAL
100
AcDbLine
 10
2956.157353115367
 20
-1614.383406556225
 30
0.0
 11
2953.690393357319
 21
-1616.40986264569
 31
0.0
  0
LINE
  5
21A
330
1F
100
AcDbEntity
  8
MILLING_NORMAL
100
AcDbLine
 10
2953.690393357319
 20
-1616.40986264569
 30
0.0
 11
2951.446040179839
 21
-1618.311958353709
 31
0.0
  0
LINE
  5
21B
330
1F
100
AcDbEntity
  8
MILLING_NORMAL
100
AcDbLine
 10
2951.446040179839
 20
-1618.311958353709
 30
0.0
 11
2950.274638504548
 21
-1619.36119933302
 31
0.0
  0
LINE
  5
21C
330
1F
100
AcDbEntity
  8
MILLING_NORMAL
100
AcDbLine
 10
2950.274638504548
 20
-1619.36119933302
 30
0.0
 11
2949.457310040664
 21
-1620.134357944583
 31
0.0
  0
LINE
  5
21D
330
1F
100
AcDbEntity
  8
MILLING_NORMAL
100
AcDbLine
 10
2949.457310040664
 20
-1620.134357944583
 30
0.0
 11
2948.180951681565
 21
-1621.418651582746
 31
0.0
  0
LINE
  5
21E
330
1F
100
AcDbEntity
  8
MILLING_NORMAL
100
AcDbLine
 10
2948.180951681565
 20
-1621.418651582746
 30
0.0
 11
2947.011150664392
 21
-1622.653015801571
 31
0.0
  0
LINE
  5
21F
330
1F
100
AcDbEntity
  8
MILLING_NORMAL
100
AcDbLine
 10
2947.011150664392
 20
-1622.653015801571
 30
0.0
 11
2944.407994185706
 21
-1625.408572704806
 31
0.0
  0
LINE
  5
220
330
1F
100
AcDbEntity
  8
MILLING_NORMAL
100
AcDbLine
 10
2944.407994185706
 20
-1625.408572704806
 30
0.0
 11
2943.673074457234
 21
-1626.153261313947
 31
0.0
  0
LINE
  5
221
330
1F
100
AcDbEntity
  8
MILLING_NORMAL
100
AcDbLine
 10
2943.673074457234
 20
-1626.153261313947
 30
0.0
 11
2942.923258143389
 21
-1626.878173166294
 31
0.0
  0
LINE
  5
222
330
1F
100
AcDbEntity
  8
MILLING_NORMAL
100
AcDbLine
 10
2942.923258143389
 20
-1626.878173166294
 30
0.0
 11
2942.553782870969
 21
-1627.215197540096
 31
0.0
  0
LINE
  5
223
330
1F
100
AcDbEntity
  8
MILLING_NORMAL
100
AcDbLine
 10
2942.553782870969
 20
-1627.215197540096
 30
0.0
 11
2942.373522231055
 21
-1627.372572434093
 31
0.0
  0
LINE
  5
224
330
1F
100
AcDbEntity
  8
MILLING_NORMAL
100
AcDbLine
 10
2942.373522231055
 20
-1627.372572434093
 30
0.0
 11
2942.197895132691
 21
-1627.520084779035
 31
0.0
  0
LINE
  5
225
330
1F
100
AcDbEntity
  8
MILLING_NORMAL
100
AcDbLine
 10
2942.197895132691
 20
-1627.520084779035
 30
0.0
 11
2942.028414807906
 21
-1627.655541855838
 31
0.0
  0
LINE
  5
226
330
1F
100
AcDbEntity
  8
MILLING_NORMAL
100
AcDbLine
 10
2942.028414807906
 20
-1627.655541855838
 30
0.0
 11
2941.94652284098
 21
-1627.717972807273
 31
0.0
  0
LINE
  5
227
330
1F
100
AcDbEntity
  8
MILLING_NORMAL
100
AcDbLine
 10
2941.94652284098
 20
-1627.717972807273
 30
0.0
 11
2941.866855104981
 21
-1627.776411454734
 31
0.0
  0
LINE
  5
228
330
1F
100
AcDbEntity
  8
MILLING_NORMAL
100
AcDbLine
 10
2941.866855104981
 20
-1627.776411454734
 30
0.0
 11
2941.78968016179
 21
-1627.830480909968
 31
0.0
  0
LINE
  5
229
330
1F
100
AcDbEntity
  8
MILLING_NORMAL
100
AcDbLine
 10
2941.78968016179
 20
-1627.830480909968
 30
0.0
 11
2941.715287726212
 21
-1627.879777285139
 31
0.0
  0
LINE
  5
22A
330
1F
100
AcDbEntity
  8
MILLING_NORMAL
100
AcDbLine
 10
2941.715287726212
 20
-1627.879777285139
 30
0.0
 11
2941.643990035484
 21
-1627.923868102971
 31
0.0
  0
LINE
  5
22B
330
1F
100
AcDbEntity
  8
MILLING_NORMAL
100
AcDbLine
 10
2941.643990035484
 20
-1627.923868102971
 30
0.0
 11
2941.609605801098
 21
-1627.943818060208
 31
0.0
  0
LINE
  5
22C
330
1F
100
AcDbEntity
  8
MILLING_NORMAL
100
AcDbLine
 10
2941.609605801098
 20
-1627.943818060208
 30
0.0
 11
2941.57612327172
 21
-1627.96229066386
 31
0.0
  0
LINE
  5
22D
330
1F
100
AcDbEntity
  8
MILLING_NORMAL
100
AcDbLine
 10
2941.57612327172
 20
-1627.96229066386
 30
0.0
 11
2940.27215648757
 21
-1628.795278442078
 31
0.0
  0
LINE
  5
22E
330
1F
100
AcDbEntity
  8
MILLING_NORMAL
100
AcDbLine
 10
2940.27215648757
 20
-1628.795278442078
 30
0.0
 11
2938.017905567458
 21
-1630.285180864104
 31
0.0
  0
LINE
  5
22F
330
1F
100
AcDbEntity
  8
MILLING_NORMAL
100
AcDbLine
 10
2938.017905567458
 20
-1630.285180864104
 30
0.0
 11
2923.75454348105
 21
-1639.847451196212
 31
0.0
  0
LINE
  5
230
330
1F
100
AcDbEntity
  8
MILLING_NORMAL
100
AcDbLine
 10
2923.75454348105
 20
-1639.847451196212
 30
0.0
 11
2919.184334990206
 21
-1642.855968543919
 31
0.0
  0
LINE
  5
231
330
1F
100
AcDbEntity
  8
MILLING_NORMAL
100
AcDbLine
 10
2919.184334990206
 20
-1642.855968543919
 30
0.0
 11
2916.099386080571
 21
-1644.826987794592
 31
0.0
  0
LINE
  5
232
330
1F
100
AcDbEntity
  8
MILLING_NORMAL
100
AcDbLine
 10
2916.099386080571
 20
-1644.826987794592
 30
0.0
 11
2914.180792718961
 21
-1645.990901110461
 31
0.0
  0
LINE
  5
233
330
1F
100
AcDbEntity
  8
MILLING_NORMAL
100
AcDbLine
 10
2914.180792718961
 20
-1645.990901110461
 30
0.0
 11
2913.796702319914
 21
-1646.206806124769
 31
0.0
  0
LINE
  5
234
330
1F
100
AcDbEntity
  8
MILLING_NORMAL
100
AcDbLine
 10
2913.796702319914
 20
-1646.206806124769
 30
0.0
 11
2913.374510953141
 21
-1646.42992422544
 31
0.0
  0
LINE
  5
235
330
1F
100
AcDbEntity
  8
MILLING_NORMAL
100
AcDbLine
 10
2913.374510953141
 20
-1646.42992422544
 30
0.0
 11
2912.472879453943
 21
-1646.877120531439
 31
0.0
  0
LINE
  5
236
330
1F
100
AcDbEntity
  8
MILLING_NORMAL
100
AcDbLine
 10
2912.472879453943
 20
-1646.877120531439
 30
0.0
 11
2911.557303209348
 21
-1647.304652953374
 31
0.0
  0
LINE
  5
237
330
1F
100
AcDbEntity
  8
MILLING_NORMAL
100
AcDbLine
 10
2911.557303209348
 20
-1647.304652953374
 30
0.0
 11
2910.669587651853
 21
-1647.700268187841
 31
0.0
  0
LINE
  5
238
330
1F
100
AcDbEntity
  8
MILLING_NORMAL
100
AcDbLine
 10
2910.669587651853
 20
-1647.700268187841
 30
0.0
 11
2909.032216310042
 21
-1648.386971894018
 31
0.0
  0
LINE
  5
239
330
1F
100
AcDbEntity
  8
MILLING_NORMAL
100
AcDbLine
 10
2909.032216310042
 20
-1648.386971894018
 30
0.0
 11
2907.556899744878
 21
-1648.953498348171
 31
0.0
  0
LINE
  5
23A
330
1F
100
AcDbEntity
  8
MILLING_NORMAL
100
AcDbLine
 10
2907.556899744878
 20
-1648.953498348171
 30
0.0
 11
2906.847684270325
 21
-1649.203904362436
 31
0.0
  0
LINE
  5
23B
330
1F
100
AcDbEntity
  8
MILLING_NORMAL
100
AcDbLine
 10
2906.847684270325
 20
-1649.203904362436
 30
0.0
 11
2906.127830295898
 21
-1649.440557085673
 31
0.0
  0
LINE
  5
23C
330
1F
100
AcDbEntity
  8
MILLING_NORMAL
100
AcDbLine
 10
2906.127830295898
 20
-1649.440557085673
 30
0.0
 11
2905.361342881842
 21
-1649.671408381276
 31
0.0
  0
LINE
  5
23D
330
1F
100
AcDbEntity
  8
MILLING_NORMAL
100
AcDbLine
 10
2905.361342881842
 20
-1649.671408381276
 30
0.0
 11
2904.487991918382
 21
-1649.908012379859
 31
0.0
  0
LINE
  5
23E
330
1F
100
AcDbEntity
  8
MILLING_NORMAL
100
AcDbLine
 10
2904.487991918382
 20
-1649.908012379859
 30
0.0
 11
2903.391996430551
 21
-1650.170605279748
 31
0.0
  0
LINE
  5
23F
330
1F
100
AcDbEntity
  8
MILLING_NORMAL
100
AcDbLine
 10
2903.391996430551
 20
-1650.170605279748
 30
0.0
 11
2901.806340005176
 21
-1650.503570092156
 31
0.0
  0
LINE
  5
240
330
1F
100
AcDbEntity
  8
MILLING_NORMAL
100
AcDbLine
 10
2901.806340005176
 20
-1650.503570092156
 30
0.0
 11
2898.919674324755
 21
-1651.038856728546
 31
0.0
  0
LINE
  5
241
330
1F
100
AcDbEntity
  8
MILLING_NORMAL
100
AcDbLine
 10
2898.919674324755
 20
-1651.038856728546
 30
0.0
 11
2896.117474424643
 21
-1651.523116499256
 31
0.0
  0
LINE
  5
242
330
1F
100
AcDbEntity
  8
MILLING_NORMAL
100
AcDbLine
 10
2896.117474424643
 20
-1651.523116499256
 30
0.0
 11
2890.449208314656
 21
-1652.467994306193
 31
0.0
  0
ARC
  5
243
330
1F
100
AcDbEntity
  8
MILLING_NORMAL
100
AcDbCircle
 10
2904.370145939165
 20
-1658.701808802552
 30
0.0
 40
15.25296520419801
100
AcDbArc
 50
155.8771009518658
 51
180.0000000004433
  0
LINE
  5
244
330
1F
100
AcDbEntity
  8
MILLING_NORMAL
100
AcDbLine
 10
2889.117180734966
 20
-1658.70180880267
 30
0.0
 11
2889.116903218057
 21
-1665.102014138522
 31
0.0
  0
LINE
  5
245
330
1F
100
AcDbEntity
  8
MILLING_NORMAL
100
AcDbLine
 10
2889.116903218057
 20
-1665.102014138522
 30
0.0
 11
2897.597129095335
 21
-1665.102698970172
 31
0.0
  0
ARC
  5
246
330
1F
100
AcDbEntity
  8
MILLING_NORMAL
100
AcDbCircle
 10
2897.580682414428
 20
-1670.151335070001
 30
0.0
 40
5.048662888508388
100
AcDbArc
 50
57.14174868943761
 51
89.81335116040776
  0
LINE
  5
247
330
1F
100
AcDbEntity
  8
MILLING_NORMAL
100
AcDbLine
 10
2900.319897648815
 20
-1665.910380358912
 30
0.0
 11
2909.340723003947
 21
-1671.774550839649
 31
0.0
  0
ARC
  5
248
330
1F
100
AcDbEntity
  8
MILLING_NORMAL
100
AcDbCircle
 10
2906.615574135001
 20
-1675.966634288495
 30
0.0
 40
5.000000000000125
100
AcDbArc
 50
359.9950716134004
 51
56.9733017084939
  0
LINE
  5
249
330
1F
100
AcDbEntity
  8
MILLING_NORMAL
100
AcDbLine
 10
2911.615574116504
 20
-1675.967064371359
 30
0.0
 11
2911.614543217961
 21
-1687.951884616154
 31
0.0
  0
LINE
  5
24A
330
1F
100
AcDbEntity
  8
MILLING_NORMAL
100
AcDbLine
 10
2911.614543217961
 20
-1687.951884616154
 30
0.0
 11
2924.000000000002
 21
-1687.95181887081
 31
0.0
  0
LINE
  5
24B
330
1F
100
AcDbEntity
  8
MILLING_NORMAL
100
AcDbLine
 10
2924.000000000002
 20
-1687.95181887081
 30
0.0
 11
2924.152550085605
 21
-1686.418140385122
 31
0.0
  0
LINE
  5
24C
330
1F
100
AcDbEntity
  8
MILLING_NORMAL
100
AcDbLine
 10
2924.152550085605
 20
-1686.418140385122
 30
0.0
 11
2924.319278465386
 21
-1685.12952961371
 31
0.0
  0
LINE
  5
24D
330
1F
100
AcDbEntity
  8
MILLING_NORMAL
100
AcDbLine
 10
2924.319278465386
 20
-1685.12952961371
 30
0.0
 11
2924.498027858943
 21
-1684.0281824745
 31
0.0
  0
LINE
  5
24E
330
1F
100
AcDbEntity
  8
MILLING_NORMAL
100
AcDbLine
 10
2924.498027858943
 20
-1684.0281824745
 30
0.0
 11
2924.591428546042
 21
-1683.534367732072
 31
0.0
  0
LINE
  5
24F
330
1F
100
AcDbEntity
  8
MILLING_NORMAL
100
AcDbLine
 10
2924.591428546042
 20
-1683.534367732072
 30
0.0
 11
2924.687319299607
 21
-1683.072860246756
 31
0.0
  0
LINE
  5
250
330
1F
100
AcDbEntity
  8
MILLING_NORMAL
100
AcDbLine
 10
2924.687319299607
 20
-1683.072860246756
 30
0.0
 11
2924.78558479197
 21
-1682.640184278485
 31
0.0
  0
LINE
  5
251
330
1F
100
AcDbEntity
  8
MILLING_NORMAL
100
AcDbLine
 10
2924.78558479197
 20
-1682.640184278485
 30
0.0
 11
2924.886129133645
 21
-1682.233325942802
 31
0.0
  0
LINE
  5
252
330
1F
100
AcDbEntity
  8
MILLING_NORMAL
100
AcDbLine
 10
2924.886129133645
 20
-1682.233325942802
 30
0.0
 11
2924.988872885436
 21
-1681.849658023935
 31
0.0
  0
LINE
  5
253
330
1F
100
AcDbEntity
  8
MILLING_NORMAL
100
AcDbLine
 10
2924.988872885436
 20
-1681.849658023935
 30
0.0
 11
2925.093750643532
 21
-1681.486878957109
 31
0.0
  0
LINE
  5
254
330
1F
100
AcDbEntity
  8
MILLING_NORMAL
100
AcDbLine
 10
2925.093750643532
 20
-1681.486878957109
 30
0.0
 11
2925.200709075998
 21
-1681.142962955869
 31
0.0
  0
LINE
  5
255
330
1F
100
AcDbEntity
  8
MILLING_NORMAL
100
AcDbLine
 10
2925.200709075998
 20
-1681.142962955869
 30
0.0
 11
2925.309705317862
 21
-1680.816118975786
 31
0.0
  0
LINE
  5
256
330
1F
100
AcDbEntity
  8
MILLING_NORMAL
100
AcDbLine
 10
2925.309705317862
 20
-1680.816118975786
 30
0.0
 11
2925.420705653394
 21
-1680.504756736413
 31
0.0
  0
LINE
  5
257
330
1F
100
AcDbEntity
  8
MILLING_NORMAL
100
AcDbLine
 10
2925.420705653394
 20
-1680.504756736413
 30
0.0
 11
2925.533684430198
 21
-1680.207458420565
 31
0.0
  0
LINE
  5
258
330
1F
100
AcDbEntity
  8
MILLING_NORMAL
100
AcDbLine
 10
2925.533684430198
 20
-1680.207458420565
 30
0.0
 11
2925.648623161824
 21
-1679.922954970001
 31
0.0
  0
LINE
  5
259
330
1F
100
AcDbEntity
  8
MILLING_NORMAL
100
AcDbLine
 10
2925.648623161824
 20
-1679.922954970001
 30
0.0
 11
2925.76550978482
 21
-1679.650106125253
 31
0.0
  0
LINE
  5
25A
330
1F
100
AcDbEntity
  8
MILLING_NORMAL
100
AcDbLine
 10
2925.76550978482
 20
-1679.650106125253
 30
0.0
 11
2925.884338043283
 21
-1679.387883532891
 31
0.0
  0
LINE
  5
25B
330
1F
100
AcDbEntity
  8
MILLING_NORMAL
100
AcDbLine
 10
2925.884338043283
 20
-1679.387883532891
 30
0.0
 11
2926.005106979417
 21
-1679.13535637942
 31
0.0
  0
LINE
  5
25C
330
1F
100
AcDbEntity
  8
MILLING_NORMAL
100
AcDbLine
 10
2926.005106979417
 20
-1679.13535637942
 30
0.0
 11
2926.12782051293
 21
-1678.891679116874
 31
0.0
  0
LINE
  5
25D
330
1F
100
AcDbEntity
  8
MILLING_NORMAL
100
AcDbLine
 10
2926.12782051293
 20
-1678.891679116874
 30
0.0
 11
2926.252487095454
 21
-1678.6560809283
 31
0.0
  0
LINE
  5
25E
330
1F
100
AcDbEntity
  8
MILLING_NORMAL
100
AcDbLine
 10
2926.252487095454
 20
-1678.6560809283
 30
0.0
 11
2926.379119428882
 21
-1678.427856646883
 31
0.0
  0
LINE
  5
25F
330
1F
100
AcDbEntity
  8
MILLING_NORMAL
100
AcDbLine
 10
2926.379119428882
 20
-1678.427856646883
 30
0.0
 11
2926.507734238608
 21
-1678.206358894625
 31
0.0
  0
LINE
  5
260
330
1F
100
AcDbEntity
  8
MILLING_NORMAL
100
AcDbLine
 10
2926.507734238608
 20
-1678.206358894625
 30
0.0
 11
2926.638352094413
 21
-1677.990991248085
 31
0.0
  0
LINE
  5
261
330
1F
100
AcDbEntity
  8
MILLING_NORMAL
100
AcDbLine
 10
2926.638352094413
 20
-1677.990991248085
 30
0.0
 11
2926.770997273102
 21
-1677.781202272122
 31
0.0
  0
LINE
  5
262
330
1F
100
AcDbEntity
  8
MILLING_NORMAL
100
AcDbLine
 10
2926.770997273102
 20
-1677.781202272122
 30
0.0
 11
2926.905697658163
 21
-1677.57648028961
 31
0.0
  0
LINE
  5
263
330
1F
100
AcDbEntity
  8
MILLING_NORMAL
100
AcDbLine
 10
2926.905697658163
 20
-1677.57648028961
 30
0.0
 11
2927.042484672623
 21
-1677.376348776897
 31
0.0
  0
LINE
  5
264
330
1F
100
AcDbEntity
  8
MILLING_NORMAL
100
AcDbLine
 10
2927.042484672623
 20
-1677.376348776897
 30
0.0
 11
2927.322461785611
 21
-1676.988102862594
 31
0.0
  0
LINE
  5
265
330
1F
100
AcDbEntity
  8
MILLING_NORMAL
100
AcDbLine
 10
2927.322461785611
 20
-1676.988102862594
 30
0.0
 11
2927.611250063847
 21
-1676.613211581317
 31
0.0
  0
LINE
  5
266
330
1F
100
AcDbEntity
  8
MILLING_NORMAL
100
AcDbLine
 10
2927.611250063847
 20
-1676.613211581317
 30
0.0
 11
2927.909227978304
 21
-1676.248765870861
 31
0.0
  0
LINE
  5
267
330
1F
100
AcDbEntity
  8
MILLING_NORMAL
100
AcDbLine
 10
2927.909227978304
 20
-1676.248765870861
 30
0.0
 11
2928.21683347439
 21
-1675.892120475406
 31
0.0
  0
LINE
  5
268
330
1F
100
AcDbEntity
  8
MILLING_NORMAL
100
AcDbLine
 10
2928.21683347439
 20
-1675.892120475406
 30
0.0
 11
2928.534567918891
 21
-1675.540827497608
 31
0.0
  0
LINE
  5
269
330
1F
100
AcDbEntity
  8
MILLING_NORMAL
100
AcDbLine
 10
2928.534567918891
 20
-1675.540827497608
 30
0.0
 11
2928.86300157572
 21
-1675.192579809521
 31
0.0
  0
LINE
  5
26A
330
1F
100
AcDbEntity
  8
MILLING_NORMAL
100
AcDbLine
 10
2928.86300157572
 20
-1675.192579809521
 30
0.0
 11
2929.554636629434
 21
-1674.496402252478
 31
0.0
  0
LINE
  5
26B
330
1F
100
AcDbEntity
  8
MILLING_NORMAL
100
AcDbLine
 10
2929.554636629434
 20
-1674.496402252478
 30
0.0
 11
2930.297997634653
 21
-1673.786157678983
 31
0.0
  0
LINE
  5
26C
330
1F
100
AcDbEntity
  8
MILLING_NORMAL
100
AcDbLine
 10
2930.297997634653
 20
-1673.786157678983
 30
0.0
 11
2933.991136435036
 21
-1670.401708874126
 31
0.0
  0
ARC
  5
26D
330
1F
100
AcDbEntity
  8
MILLING_NORMAL
100
AcDbCircle
 10
4158.905952196958
 20
-3031.296969145137
 30
0.0
 40
1830.970293396691
100
AcDbArc
 50
130.9884907088965
 51
131.9897496871548
  0
LINE
  5
26E
330
1F
100
AcDbEntity
  8
MILLING_NORMAL
100
AcDbLine
 10
2957.958962951356
 20
-1649.204879477054
 30
0.0
 11
2957.978651013782
 21
-1649.187670840948
 31
0.0
  0
LINE
  5
26F
330
1F
100
AcDbEntity
  8
MILLING_NORMAL
100
AcDbLine
 10
2957.978651013782
 20
-1649.187670840948
 30
0.0
 11
2957.999497421893
 21
-1649.170089077882
 31
0.0
  0
LINE
  5
270
330
1F
100
AcDbEntity
  8
MILLING_NORMAL
100
AcDbLine
 10
2957.999497421893
 20
-1649.170089077882
 30
0.0
 11
2958.044462624598
 21
-1649.133872103161
 31
0.0
  0
LINE
  5
271
330
1F
100
AcDbEntity
  8
MILLING_NORMAL
100
AcDbLine
 10
2958.044462624598
 20
-1649.133872103161
 30
0.0
 11
2958.093480759833
 21
-1649.096351408913
 31
0.0
  0
LINE
  5
272
330
1F
100
AcDbEntity
  8
MILLING_NORMAL
100
AcDbLine
 10
2958.093480759833
 20
-1649.096351408913
 30
0.0
 11
2958.146213986029
 21
-1649.05763676034
 31
0.0
  0
LINE
  5
273
330
1F
100
AcDbEntity
  8
MILLING_NORMAL
100
AcDbLine
 10
2958.146213986029
 20
-1649.05763676034
 30
0.0
 11
2958.261644231156
 21
-1648.977008988015
 31
0.0
  0
LINE
  5
274
330
1F
100
AcDbEntity
  8
MILLING_NORMAL
100
AcDbLine
 10
2958.261644231156
 20
-1648.977008988015
 30
0.0
 11
2958.388673672966
 21
-1648.892662693097
 31
0.0
  0
LINE
  5
275
330
1F
100
AcDbEntity
  8
MILLING_NORMAL
100
AcDbLine
 10
2958.388673672966
 20
-1648.892662693097
 30
0.0
 11
2958.671035311242
 21
-1648.714911822254
 31
0.0
  0
LINE
  5
276
330
1F
100
AcDbEntity
  8
MILLING_NORMAL
100
AcDbLine
 10
2958.671035311242
 20
-1648.714911822254
 30
0.0
 11
2958.982938665507
 21
-1648.527714897205
 31
0.0
  0
LINE
  5
277
330
1F
100
AcDbEntity
  8
MILLING_NORMAL
100
AcDbLine
 10
2958.982938665507
 20
-1648.527714897205
 30
0.0
 11
2960.408250898701
 21
-1647.721558725251
 31
0.0
  0
LINE
  5
278
330
1F
100
AcDbEntity
  8
MILLING_NORMAL
100
AcDbLine
 10
2960.408250898701
 20
-1647.721558725251
 30
0.0
 11
2963.621719317951
 21
-1645.970216148501
 31
0.0
  0
LINE
  5
279
330
1F
100
AcDbEntity
  8
MILLING_NORMAL
100
AcDbLine
 10
2963.621719317951
 20
-1645.970216148501
 30
0.0
 11
2965.331891470184
 21
-1645.020386024681
 31
0.0
  0
LINE
  5
27A
330
1F
100
AcDbEntity
  8
MILLING_NORMAL
100
AcDbLine
 10
2965.331891470184
 20
-1645.020386024681
 30
0.0
 11
2967.173804583321
 21
-1643.944798584229
 31
0.0
  0
LINE
  5
27B
330
1F
100
AcDbEntity
  8
MILLING_NORMAL
100
AcDbLine
 10
2967.173804583321
 20
-1643.944798584229
 30
0.0
 11
2968.207432338811
 21
-1643.299696293837
 31
0.0
  0
LINE
  5
27C
330
1F
100
AcDbEntity
  8
MILLING_NORMAL
100
AcDbLine
 10
2968.207432338811
 20
-1643.299696293837
 30
0.0
 11
2968.780014258183
 21
-1642.924687243024
 31
0.0
  0
LINE
  5
27D
330
1F
100
AcDbEntity
  8
MILLING_NORMAL
100
AcDbLine
 10
2968.780014258183
 20
-1642.924687243024
 30
0.0
 11
2969.412833766188
 21
-1642.493408734927
 31
0.0
  0
LINE
  5
27E
330
1F
100
AcDbEntity
  8
MILLING_NORMAL
100
AcDbLine
 10
2969.412833766188
 20
-1642.493408734927
 30
0.0
 11
2970.138160596328
 21
-1641.976100442701
 31
0.0
  0
LINE
  5
27F
330
1F
100
AcDbEntity
  8
MILLING_NORMAL
100
AcDbLine
 10
2970.138160596328
 20
-1641.976100442701
 30
0.0
 11
2971.015209621811
 21
-1641.318186288748
 31
0.0
  0
LINE
  5
280
330
1F
100
AcDbEntity
  8
MILLING_NORMAL
100
AcDbLine
 10
2971.015209621811
 20
-1641.318186288748
 30
0.0
 11
2972.165593633357
 21
-1640.407615806325
 31
0.0
  0
LINE
  5
281
330
1F
100
AcDbEntity
  8
MILLING_NORMAL
100
AcDbLine
 10
2972.165593633357
 20
-1640.407615806325
 30
0.0
 11
2973.884781418213
 21
-1638.972192003348
 31
0.0
  0
LINE
  5
282
330
1F
100
AcDbEntity
  8
MILLING_NORMAL
100
AcDbLine
 10
2973.884781418213
 20
-1638.972192003348
 30
0.0
 11
2985.363597631911
 21
-1629.058680309483
 31
0.0
  0
LINE
  5
283
330
1F
100
AcDbEntity
  8
MILLING_NORMAL
100
AcDbLine
 10
2985.363597631911
 20
-1629.058680309483
 30
0.0
 11
2985.591721337155
 21
-1628.869844090046
 31
0.0
  0
LINE
  5
284
330
1F
100
AcDbEntity
  8
MILLING_NORMAL
100
AcDbLine
 10
2985.591721337155
 20
-1628.869844090046
 30
0.0
 11
2985.664905894834
 21
-1628.812329272062
 31
0.0
  0
LINE
  5
285
330
1F
100
AcDbEntity
  8
MILLING_NORMAL
100
AcDbLine
 10
2985.664905894834
 20
-1628.812329272062
 30
0.0
 11
2985.692314858874
 21
-1628.7919319988
 31
0.0
  0
LINE
  5
286
330
1F
100
AcDbEntity
  8
MILLING_NORMAL
100
AcDbLine
 10
2985.692314858874
 20
-1628.7919319988
 30
0.0
 11
2985.70386147716
 21
-1628.783707845009
 31
0.0
  0
LINE
  5
287
330
1F
100
AcDbEntity
  8
MILLING_NORMAL
100
AcDbLine
 10
2985.70386147716
 20
-1628.783707845009
 30
0.0
 11
2985.714023261389
 21
-1628.776754979585
 31
0.0
  0
LINE
  5
288
330
1F
100
AcDbEntity
  8
MILLING_NORMAL
100
AcDbLine
 10
2985.714023261389
 20
-1628.776754979585
 30
0.0
 11
2985.744397933063
 21
-1628.75687998609
 31
0.0
  0
LINE
  5
289
330
1F
100
AcDbEntity
  8
MILLING_NORMAL
100
AcDbLine
 10
2985.744397933063
 20
-1628.75687998609
 30
0.0
 11
2985.775206435553
 21
-1628.737511400789
 31
0.0
  0
LINE
  5
28A
330
1F
100
AcDbEntity
  8
MILLING_NORMAL
100
AcDbLine
 10
2985.775206435553
 20
-1628.737511400789
 30
0.0
 11
2985.806436329528
 21
-1628.718662775922
 31
0.0
  0
LINE
  5
28B
330
1F
100
AcDbEntity
  8
MILLING_NORMAL
100
AcDbLine
 10
2985.806436329528
 20
-1628.718662775922
 30
0.0
 11
2985.838074629106
 21
-1628.70034726362
 31
0.0
  0
LINE
  5
28C
330
1F
100
AcDbEntity
  8
MILLING_NORMAL
100
AcDbLine
 10
2985.838074629106
 20
-1628.70034726362
 30
0.0
 11
2985.870107817632
 21
-1628.682577588991
 31
0.0
  0
LINE
  5
28D
330
1F
100
AcDbEntity
  8
MILLING_NORMAL
100
AcDbLine
 10
2985.870107817632
 20
-1628.682577588991
 30
0.0
 11
2985.902521865035
 21
-1628.665366023925
 31
0.0
  0
LINE
  5
28E
330
1F
100
AcDbEntity
  8
MILLING_NORMAL
100
AcDbLine
 10
2985.902521865035
 20
-1628.665366023925
 30
0.0
 11
2985.9353022467
 21
-1628.648724361752
 31
0.0
  0
LINE
  5
28F
330
1F
100
AcDbEntity
  8
MILLING_NORMAL
100
AcDbLine
 10
2985.9353022467
 20
-1628.648724361752
 30
0.0
 11
2985.968433963824
 21
-1628.632663892825
 31
0.0
  0
LINE
  5
290
330
1F
100
AcDbEntity
  8
MILLING_NORMAL
100
AcDbLine
 10
2985.968433963824
 20
-1628.632663892825
 30
0.0
 11
2986.001901565192
 21
-1628.617195381152
 31
0.0
  0
LINE
  5
291
330
1F
100
AcDbEntity
  8
MILLING_NORMAL
100
AcDbLine
 10
2986.001901565192
 20
-1628.617195381152
 30
0.0
 11
2986.035689170317
 21
-1628.60232904216
 31
0.0
  0
LINE
  5
292
330
1F
100
AcDbEntity
  8
MILLING_NORMAL
100
AcDbLine
 10
2986.035689170317
 20
-1628.60232904216
 30
0.0
 11
2986.069780493869
 21
-1628.588074521679
 31
0.0
  0
LINE
  5
293
330
1F
100
AcDbEntity
  8
MILLING_NORMAL
100
AcDbLine
 10
2986.069780493869
 20
-1628.588074521679
 30
0.0
 11
2986.104158871331
 21
-1628.574440876248
 31
0.0
  0
LINE
  5
294
330
1F
100
AcDbEntity
  8
MILLING_NORMAL
100
AcDbLine
 10
2986.104158871331
 20
-1628.574440876248
 30
0.0
 11
2986.138807285769
 21
-1628.561436554808
 31
0.0
  0
LINE
  5
295
330
1F
100
AcDbEntity
  8
MILLING_NORMAL
100
AcDbLine
 10
2986.138807285769
 20
-1628.561436554808
 30
0.0
 11
2986.173708395671
 21
-1628.549069381868
 31
0.0
  0
LINE
  5
296
330
1F
100
AcDbEntity
  8
MILLING_NORMAL
100
AcDbLine
 10
2986.173708395671
 20
-1628.549069381868
 30
0.0
 11
2986.20884456371
 21
-1628.537346542207
 31
0.0
  0
LINE
  5
297
330
1F
100
AcDbEntity
  8
MILLING_NORMAL
100
AcDbLine
 10
2986.20884456371
 20
-1628.537346542207
 30
0.0
 11
2986.244197886382
 21
-1628.526274567172
 31
0.0
  0
LINE
  5
298
330
1F
100
AcDbEntity
  8
MILLING_NORMAL
100
AcDbLine
 10
2986.244197886382
 20
-1628.526274567172
 30
0.0
 11
2986.279750224369
 21
-1628.515859322635
 31
0.0
  0
LINE
  5
299
330
1F
100
AcDbEntity
  8
MILLING_NORMAL
100
AcDbLine
 10
2986.279750224369
 20
-1628.515859322635
 30
0.0
 11
2986.315483233555
 21
-1628.506105998648
 31
0.0
  0
LINE
  5
29A
330
1F
100
AcDbEntity
  8
MILLING_NORMAL
100
AcDbLine
 10
2986.315483233555
 20
-1628.506105998648
 30
0.0
 11
2986.351378396557
 21
-1628.497019100832
 31
0.0
  0
LINE
  5
29B
330
1F
100
AcDbEntity
  8
MILLING_NORMAL
100
AcDbLine
 10
2986.351378396557
 20
-1628.497019100832
 30
0.0
 11
2986.387417054679
 21
-1628.488602443539
 31
0.0
  0
LINE
  5
29C
330
1F
100
AcDbEntity
  8
MILLING_NORMAL
100
AcDbLine
 10
2986.387417054679
 20
-1628.488602443539
 30
0.0
 11
2986.423580440157
 21
-1628.4808591448
 31
0.0
  0
LINE
  5
29D
330
1F
100
AcDbEntity
  8
MILLING_NORMAL
100
AcDbLine
 10
2986.423580440157
 20
-1628.4808591448
 30
0.0
 11
2986.459849708586
 21
-1628.473791623076
 31
0.0
  0
LINE
  5
29E
330
1F
100
AcDbEntity
  8
MILLING_NORMAL
100
AcDbLine
 10
2986.459849708586
 20
-1628.473791623076
 30
0.0
 11
2986.496205971413
 21
-1628.467401595816
 31
0.0
  0
LINE
  5
29F
330
1F
100
AcDbEntity
  8
MILLING_NORMAL
100
AcDbLine
 10
2986.496205971413
 20
-1628.467401595816
 30
0.0
 11
2986.532630328369
 21
-1628.461690079817
 31
0.0
  0
LINE
  5
2A0
330
1F
100
AcDbEntity
  8
MILLING_NORMAL
100
AcDbLine
 10
2986.532630328369
 20
-1628.461690079817
 30
0.0
 11
2986.569103899743
 21
-1628.456657393368
 31
0.0
  0
LINE
  5
2A1
330
1F
100
AcDbEntity
  8
MILLING_NORMAL
100
AcDbLine
 10
2986.569103899743
 20
-1628.456657393368
 30
0.0
 11
2986.605607858368
 21
-1628.452303160166
 31
0.0
  0
LINE
  5
2A2
330
1F
100
AcDbEntity
  8
MILLING_NORMAL
100
AcDbLine
 10
2986.605607858368
 20
-1628.452303160166
 30
0.0
 11
2986.642123461203
 21
-1628.44862631497
 31
0.0
  0
LINE
  5
2A3
330
1F
100
AcDbEntity
  8
MILLING_NORMAL
100
AcDbLine
 10
2986.642123461203
 20
-1628.44862631497
 30
0.0
 11
2986.678632080432
 21
-1628.44562511095
 31
0.0
  0
LINE
  5
2A4
330
1F
100
AcDbEntity
  8
MILLING_NORMAL
100
AcDbLine
 10
2986.678632080432
 20
-1628.44562511095
 30
0.0
 11
2986.715115233937
 21
-1628.443297128694
 31
0.0
  0
LINE
  5
2A5
330
1F
100
AcDbEntity
  8
MILLING_NORMAL
100
AcDbLine
 10
2986.715115233937
 20
-1628.443297128694
 30
0.0
 11
2986.751554615071
 21
-1628.441639286813
 31
0.0
  0
LINE
  5
2A6
330
1F
100
AcDbEntity
  8
MILLING_NORMAL
100
AcDbLine
 10
2986.751554615071
 20
-1628.441639286813
 30
0.0
 11
2986.787932121629
 21
-1628.440647854096
 31
0.0
  0
LINE
  5
2A7
330
1F
100
AcDbEntity
  8
MILLING_NORMAL
100
AcDbLine
 10
2986.787932121629
 20
-1628.440647854096
 30
0.0
 11
2986.82422988392
 21
-1628.440318463136
 31
0.0
  0
CIRCLE
  5
2A8
330
1F
100
AcDbEntity
  8
MILLING_NORMAL
100
AcDbCircle
 10
2904.370145939179
 20
-1658.701808802557
 30
0.0
 40
1.550000000000032
  0
CIRCLE
  5
2A9
330
1F
100
AcDbEntity
  8
MILLING_NORMAL
100
AcDbCircle
 10
2917.782867974411
 20
-1678.192998527199
 30
0.0
 40
1.549999999999123
  0
ARC
  5
2AA
330
1F
100
AcDbEntity
  8
MILLING_NORMAL
100
AcDbCircle
 10
2964.707666626296
 20
-1619.620708936206
 30
0.0
 40
1.549999568128953
100
AcDbArc
 50
264.9953326781265
 51
84.99535047542132
  0
LINE
  5
2AB
330
1F
100
AcDbEntity
  8
MILLING_NORMAL
100
AcDbLine
 10
2963.078161892731
 20
-1621.033944320307
 30
0.0
 11
2964.572449480423
 21
-1621.164799278337
 31
0.0
  0
ARC
  5
2AC
330
1F
100
AcDbEntity
  8
MILLING_NORMAL
100
AcDbCircle
 10
2963.213378832333
 20
-1619.489853526589
 30
0.0
 40
1.549999999999625
100
AcDbArc
 50
84.99533482228698
 51
264.9953417301286
  0
LINE
  5
2AD
330
1F
100
AcDbEntity
  8
MILLING_NORMAL
100
AcDbLine
 10
2964.842883292542
 20
-1618.076618552074
 30
0.0
 11
2963.348595958097
 21
-1617.945762749173
 31
0.0
  0
LINE
  5
2AE
330
1F
100
AcDbEntity
  8
MILLING_NORMAL
100
AcDbLine
 10
2973.392366544353
 20
-1629.917626007374
 30
0.0
 11
2973.523221502424
 21
-1628.423338419685
 31
0.0
  0
ARC
  5
2AF
330
1F
100
AcDbEntity
  8
MILLING_NORMAL
100
AcDbCircle
 10
2971.848275750639
 20
-1629.782409067732
 30
0.0
 40
1.549999999999483
100
AcDbArc
 50
174.9953348207088
 51
354.9953417286266
  0
LINE
  5
2B0
330
1F
100
AcDbEntity
  8
MILLING_NORMAL
100
AcDbLine
 10
2970.435040776114
 20
-1628.152904608131
 30
0.0
 11
2970.304184973227
 21
-1629.647191941925
 31
0.0
  0
ARC
  5
2B1
330
1F
100
AcDbEntity
  8
MILLING_NORMAL
100
AcDbCircle
 10
2971.979131160297
 20
-1628.28812127377
 30
0.0
 40
1.549999568129018
100
AcDbArc
 50
354.9953326765574
 51
174.99535049794
  0
LINE
  5
2B2
330
1F
100
AcDbEntity
  8
MILLING_NORMAL
100
AcDbLine
 10
2982.276167478571
 20
-1619.603263626802
 30
0.0
 11
2980.781879890882
 21
-1619.472408668733
 31
0.0
  0
ARC
  5
2B3
330
1F
100
AcDbEntity
  8
MILLING_NORMAL
100
AcDbCircle
 10
2982.140950538927
 20
-1621.147354420517
 30
0.0
 40
1.550000000000556
100
AcDbArc
 50
264.9953348207376
 51
84.99534172857923
  0
LINE
  5
2B4
330
1F
100
AcDbEntity
  8
MILLING_NORMAL
100
AcDbLine
 10
2980.51144607933
 20
-1622.560589395044
 30
0.0
 11
2982.005733413121
 21
-1622.69144519793
 31
0.0
  0
ARC
  5
2B5
330
1F
100
AcDbEntity
  8
MILLING_NORMAL
100
AcDbCircle
 10
2980.646662744968
 20
-1621.016499010859
 30
0.0
 40
1.549999568127767
100
AcDbArc
 50
84.99533267660404
 51
264.9953504979615
  0
ARC
  5
2B6
330
1F
100
AcDbEntity
  8
MILLING_NORMAL
100
AcDbCircle
 10
2973.50589584197
 20
-1610.854679628129
 30
0.0
 40
1.550000000000678
100
AcDbArc
 50
354.9953348223241
 51
174.9953417300562
  0
LINE
  5
2B7
330
1F
100
AcDbEntity
  8
MILLING_NORMAL
100
AcDbLine
 10
2974.919130816542
 20
-1612.48418408769
 30
0.0
 11
2975.049986619387
 21
-1610.989896753892
 31
0.0
  0
ARC
  5
2B8
330
1F
100
AcDbEntity
  8
MILLING_NORMAL
100
AcDbCircle
 10
2973.375040432353
 20
-1612.348967422093
 30
0.0
 40
1.549999568128206
100
AcDbArc
 50
174.9953326780566
 51
354.9953504994978
  0
LINE
  5
2B9
330
1F
100
AcDbEntity
  8
MILLING_NORMAL
100
AcDbLine
 10
2971.961805048252
 20
-1610.719462688525
 30
0.0
 11
2971.830950090223
 21
-1612.213750276218
 31
0.0
  0
ENDSEC
  0
SECTION
  2
OBJECTS
  0
DICTIONARY
  5
C
330
0
100
AcDbDictionary
  3
ACAD_GROUP
350
D
  3
ACAD_LAYOUT
350
1A
  3
ACAD_MATERIAL
350
43
  3
ACAD_MLEADERSTYLE
350
6B
  3
ACAD_MLINESTYLE
350
17
  3
ACAD_PLOTSETTINGS
350
19
  3
ACAD_SCALELIST
350
47
  3
ACAD_VISUALSTYLE
350
2A
  3
ACDBHEADERROUNDTRIPXREC
350
2BA
  3
ACDBVARIABLEDICTIONARY
350
2DB
  0
DICTIONARY
  5
2E2
330
8
100
AcDbDictionary
280
     1
  3
ACAD_XREC_ROUNDTRIP
360
2E3
  0
DICTIONARY
  5
D
102
{ACAD_REACTORS
330
C
102
}
330
C
100
AcDbDictionary
  0
DICTIONARY
  5
1A
102
{ACAD_REACTORS
330
C
102
}
330
C
100
AcDbDictionary
  0
DICTIONARY
  5
43
102
{ACAD_REACTORS
330
C
102
}
330
C
100
AcDbDictionary
  3
BYBLOCK
350
45
  3
BYLAYER
350
44
  3
GLOBAL
350
46
  0
DICTIONARY
  5
6B
102
{ACAD_REACTORS
330
C
102
}
330
C
100
AcDbDictionary
  3
STANDARD
350
6C
  0
DICTIONARY
  5
17
102
{ACAD_REACTORS
330
C
102
}
330
C
100
AcDbDictionary
  3
STANDARD
350
18
  0
DICTIONARY
  5
19
102
{ACAD_REACTORS
330
C
102
}
330
C
100
AcDbDictionary
  0
DICTIONARY
  5
47
102
{ACAD_REACTORS
330
C
102
}
330
C
100
AcDbDictionary
  3
A0
350
48
  3
A1
350
49
  3
A2
350
4A
  3
A3
350
4B
  3
A4
350
4C
  3
A5
350
4D
  3
A6
350
4E
  3
A7
350
4F
  3
A8
350
50
  3
A9
350
51
  3
B0
350
52
  3
B1
350
53
  3
B2
350
54
  3
B3
350
55
  3
B4
350
56
  3
B5
350
57
  3
B6
350
58
  3
B7
350
59
  3
B8
350
5A
  3
B9
350
5B
  3
C0
350
5C
  3
C1
350
5D
  3
C2
350
5E
  3
C3
350
5F
  3
C4
350
60
  3
C5
350
61
  3
C6
350
62
  3
C7
350
63
  3
C8
350
64
  3
C9
350
65
  3
D0
350
66
  3
D1
350
67
  3
D2
350
68
  0
DICTIONARY
  5
2A
102
{ACAD_REACTORS
330
C
102
}
330
C
100
AcDbDictionary
  3
2DWIREFRAME
350
2F
  3
BASIC
350
32
  3
BRIGHTEN
350
36
  3
COLORCHANGE
350
3A
  3
CONCEPTUAL
350
34
  3
DIM
350
35
  3
EDGECOLOROFF
350
3D
  3
FACEPATTERN
350
39
  3
FLAT
350
2B
  3
FLATWITHEDGES
350
2C
  3
GOURAUD
350
2D
  3
GOURAUDWITHEDGES
350
2E
  3
HIDDEN
350
31
  3
JITTEROFF
350
3B
  3
LINEPATTERN
350
38
  3
OVERHANGOFF
350
3C
  3
REALISTIC
350
33
  3
SHADED
350
42
  3
SHADED_WITH_EDGES
350
41
  3
SHADES_OF_GRAY
350
3E
  3
SKETCHY
350
3F
  3
THICKEN
350
37
  3
WIREFRAME
350
30
  3
X-RAY
350
40
  0
DICTIONARY
  5
2BA
102
{ACAD_REACTORS
330
C
102
}
330
C
100
AcDbDictionary
  3
CEPSNID
350
2C4
  3
CEPSNTYPE
350
2C3
  3
DIMSTYLEDATA
350
2DA
  3
FINGERPRINTGUID
350
2C5
  3
HYPERLINKBASE
350
2BD
  3
INSUNITS
350
2C2
  3
LAYOUTDICT
350
2BF
  3
LWETCUNION
350
2C1
  3
PLOTSETDICT
350
2C0
  3
PSVPSCALE
350
2C7
  3
PUCSBASE
350
2CA
  3
PUCSORGBACK
350
2D0
  3
PUCSORGBOTTOM
350
2CC
  3
PUCSORGFRONT
350
2CF
  3
PUCSORGLEFT
350
2CD
  3
PUCSORGRIGHT
350
2CE
  3
PUCSORGTOP
350
2CB
  3
PUCSORTHOREF
350
2C8
  3
PUCSORTHOVIEW
350
2C9
  3
STYLESHEET
350
2BE
  3
TSTACKALIGN
350
2BB
  3
TSTACKSIZE
350
2BC
  3
UCSBASE
350
2D3
  3
UCSORGBACK
350
2D9
  3
UCSORGBOTTOM
350
2D5
  3
UCSORGFRONT
350
2D8
  3
UCSORGLEFT
350
2D6
  3
UCSORGRIGHT
350
2D7
  3
UCSORGTOP
350
2D4
  3
UCSORTHOREF
350
2D1
  3
UCSORTHOVIEW
350
2D2
  3
VERSIONGUID
350
2C6
  0
DICTIONARY
  5
2DB
102
{ACAD_REACTORS
330
C
102
}
330
C
100
AcDbDictionary
  3
CANNOSCALE
350
2E4
  3
CMLEADERSTYLE
350
2DD
  3
CTABLESTYLE
350
2DC
  3
DIMASSOC
350
2E0
  3
HIDETEXT
350
2E1
  3
MSLTSCALE
350
2E5
  0
XRECORD
  5
2E3
102
{ACAD_REACTORS
330
2E2
102
}
330
2E2
100
AcDbXrecord
102
VTR_0.000_0.000_1.000_1.000_GRIDDISPLAY
 70
     3
102
VTR_0.000_0.000_1.000_1.000_GRIDMAJOR
 70
     5
102
VTR_0.000_0.000_1.000_1.000_DEFAULTLIGHTING
280
     1
102
VTR_0.000_0.000_1.000_1.000_DEFAULTLIGHTINGTYPE
 70
     1
102
VTR_0.000_0.000_1.000_1.000_BRIGHTNESS
141
0.0
102
VTR_0.000_0.000_1.000_1.000_CONTRAST
142
0.0
  0
MATERIAL
  5
45
102
{ACAD_REACTORS
330
43
102
}
102
{ACAD_XDICTIONARY
360
2E8
102
}
330
43
100
AcDbMaterial
  1
BYBLOCK
  0
MATERIAL
  5
44
102
{ACAD_REACTORS
330
43
102
}
102
{ACAD_XDICTIONARY
360
2E6
102
}
330
43
100
AcDbMaterial
  1
BYLAYER
  0
MATERIAL
  5
46
102
{ACAD_REACTORS
330
43
102
}
102
{ACAD_XDICTIONARY
360
2EA
102
}
330
43
100
AcDbMaterial
  1
GLOBAL
  0
ACAD_PROXY_OBJECT
  5
6C
102
{ACAD_REACTORS
330
6B
102
}
330
6B
100
AcDbProxyObject
 90
      499
 91
      505
 93
      610
310
40901902A4063FBFFFFFE056BD1B81E855B9FC0AD7A3703D0AD73F4214DD185B99185C9900AD7A3703D0AC73F90141901A02B5E8DC0F42B1CFC02B5E8DC0F42B1CFE5764000000000000300FC0
340
14
340
0
340
11
340
0
 94
        0
1001
ACAD_MLEADERVER
1070
     2
  0
MLINESTYLE
  5
18
102
{ACAD_REACTORS
330
17
102
}
330
17
100
AcDbMlineStyle
  2
Standard
 70
     0
  3

 62
   256
 51
90.0
 52
90.0
 71
     2
 49
0.5
 62
   256
  6
BYLAYER
 49
-0.5
 62
   256
  6
BYLAYER
  0
ACAD_PROXY_OBJECT
  5
48
102
{ACAD_REACTORS
330
47
102
}
330
47
100
AcDbProxyObject
 90
      499
 91
      503
 93
       41
310
903313A31580
  0
ACAD_PROXY_OBJECT
  5
49
102
{ACAD_REACTORS
330
47
102
}
330
47
100
AcDbProxyObject
 90
      499
 91
      503
 93
      105
310
903313A324000000000000004000
  0
ACAD_PROXY_OBJECT
  5
4A
102
{ACAD_REACTORS
330
47
102
}
330
47
100
AcDbProxyObject
 90
      499
 91
      503
 93
      105
310
903313A344000000000000104000
  0
ACAD_PROXY_OBJECT
  5
4B
102
{ACAD_REACTORS
330
47
102
}
330
47
100
AcDbProxyObject
 90
      499
 91
      503
 93
      105
310
903313A354000000000000144000
  0
ACAD_PROXY_OBJECT
  5
4C
102
{ACAD_REACTORS
330
47
102
}
330
47
100
AcDbProxyObject
 90
      499
 91
      503
 93
      105
310
903313A384000000000000204000
  0
ACAD_PROXY_OBJECT
  5
4D
102
{ACAD_REACTORS
330
47
102
}
330
47
100
AcDbProxyObject
 90
      499
 91
      503
 93
      113
310
904313A31304000000000000244000
  0
ACAD_PROXY_OBJECT
  5
4E
102
{ACAD_REACTORS
330
47
102
}
330
47
100
AcDbProxyObject
 90
      499
 91
      503
 93
      113
310
904313A31364000000000000304000
  0
ACAD_PROXY_OBJECT
  5
4F
102
{ACAD_REACTORS
330
47
102
}
330
47
100
AcDbProxyObject
 90
      499
 91
      503
 93
      113
310
904313A32304000000000000344000
  0
ACAD_PROXY_OBJECT
  5
50
102
{ACAD_REACTORS
330
47
102
}
330
47
100
AcDbProxyObject
 90
      499
 91
      503
 93
      113
310
904313A333040000000000003E4000
  0
ACAD_PROXY_OBJECT
  5
51
102
{ACAD_REACTORS
330
47
102
}
330
47
100
AcDbProxyObject
 90
      499
 91
      503
 93
      113
310
904313A34304000000000000444000
  0
ACAD_PROXY_OBJECT
  5
52
102
{ACAD_REACTORS
330
47
102
}
330
47
100
AcDbProxyObject
 90
      499
 91
      503
 93
      113
310
904313A35304000000000000494000
  0
ACAD_PROXY_OBJECT
  5
53
102
{ACAD_REACTORS
330
47
102
}
330
47
100
AcDbProxyObject
 90
      499
 91
      503
 93
      121
310
905313A3130304000000000000594000
  0
ACAD_PROXY_OBJECT
  5
54
102
{ACAD_REACTORS
330
47
102
}
330
47
100
AcDbProxyObject
 90
      499
 91
      503
 93
      105
310
903323A310000000000000010100
  0
ACAD_PROXY_OBJECT
  5
55
102
{ACAD_REACTORS
330
47
102
}
330
47
100
AcDbProxyObject
 90
      499
 91
      503
 93
      105
310
903343A310000000000000410100
  0
ACAD_PROXY_OBJECT
  5
56
102
{ACAD_REACTORS
330
47
102
}
330
47
100
AcDbProxyObject
 90
      499
 91
      503
 93
      105
310
903383A310000000000000810100
  0
ACAD_PROXY_OBJECT
  5
57
102
{ACAD_REACTORS
330
47
102
}
330
47
100
AcDbProxyObject
 90
      499
 91
      503
 93
      113
310
90431303A310000000000000910100
  0
ACAD_PROXY_OBJECT
  5
58
102
{ACAD_REACTORS
330
47
102
}
330
47
100
AcDbProxyObject
 90
      499
 91
      503
 93
      121
310
9053130303A310000000000001650100
  0
ACAD_PROXY_OBJECT
  5
59
102
{ACAD_REACTORS
330
47
102
}
330
47
100
AcDbProxyObject
 90
      499
 91
      503
 93
      257
310
90E312F31323822203D2031272D3022000000000000200FC000000000000284000
  0
ACAD_PROXY_OBJECT
  5
5A
102
{ACAD_REACTORS
330
47
102
}
330
47
100
AcDbProxyObject
 90
      499
 91
      503
 93
      249
310
90D312F363422203D2031272D3022000000000000240FC000000000000284000
  0
ACAD_PROXY_OBJECT
  5
5B
102
{ACAD_REACTORS
330
47
102
}
330
47
100
AcDbProxyObject
 90
      499
 91
      503
 93
      249
310
90D312F333222203D2031272D3022000000000000280FC000000000000284000
  0
ACAD_PROXY_OBJECT
  5
5C
102
{ACAD_REACTORS
330
47
102
}
330
47
100
AcDbProxyObject
 90
      499
 91
      503
 93
      249
310
90D312F313622203D2031272D30220000000000002C0FC000000000000284000
  0
ACAD_PROXY_OBJECT
  5
5D
102
{ACAD_REACTORS
330
47
102
}
330
47
100
AcDbProxyObject
 90
      499
 91
      503
 93
      249
310
90D332F333222203D2031272D30220000000000002E0FC000000000000284000
  0
ACAD_PROXY_OBJECT
  5
5E
102
{ACAD_REACTORS
330
47
102
}
330
47
100
AcDbProxyObject
 90
      499
 91
      503
 93
      241
310
90C312F3822203D2031272D3022000000000000300FC000000000000284000
  0
ACAD_PROXY_OBJECT
  5
5F
102
{ACAD_REACTORS
330
47
102
}
330
47
100
AcDbProxyObject
 90
      499
 91
      503
 93
      249
310
90D332F313622203D2031272D3022000000000000320FC000000000000284000
  0
ACAD_PROXY_OBJECT
  5
60
102
{ACAD_REACTORS
330
47
102
}
330
47
100
AcDbProxyObject
 90
      499
 91
      503
 93
      241
310
90C312F3422203D2031272D3022000000000000340FC000000000000284000
  0
ACAD_PROXY_OBJECT
  5
61
102
{ACAD_REACTORS
330
47
102
}
330
47
100
AcDbProxyObject
 90
      499
 91
      503
 93
      241
310
90C332F3822203D2031272D3022000000000000360FC000000000000284000
  0
ACAD_PROXY_OBJECT
  5
62
102
{ACAD_REACTORS
330
47
102
}
330
47
100
AcDbProxyObject
 90
      499
 91
      503
 93
      241
310
90C312F3222203D2031272D3022000000000000380FC000000000000284000
  0
ACAD_PROXY_OBJECT
  5
63
102
{ACAD_REACTORS
330
47
102
}
330
47
100
AcDbProxyObject
 90
      499
 91
      503
 93
      241
310
90C332F3422203D2031272D30220000000000003A0FC000000000000284000
  0
ACAD_PROXY_OBJECT
  5
64
102
{ACAD_REACTORS
330
47
102
}
330
47
100
AcDbProxyObject
 90
      499
 91
      503
 93
      161
310
90A3122203D2031272D30224000000000000284000
  0
ACAD_PROXY_OBJECT
  5
65
102
{ACAD_REACTORS
330
47
102
}
330
47
100
AcDbProxyObject
 90
      499
 91
      503
 93
      257
310
90E312D312F3222203D2031272D30220000000000003E0FC000000000000284000
  0
ACAD_PROXY_OBJECT
  5
66
102
{ACAD_REACTORS
330
47
102
}
330
47
100
AcDbProxyObject
 90
      499
 91
      503
 93
      225
310
90A3322203D2031272D302200000000000002100000000000000284000
  0
ACAD_PROXY_OBJECT
  5
67
102
{ACAD_REACTORS
330
47
102
}
330
47
100
AcDbProxyObject
 90
      499
 91
      503
 93
      225
310
90A3622203D2031272D302200000000000006100000000000000284000
  0
ACAD_PROXY_OBJECT
  5
68
102
{ACAD_REACTORS
330
47
102
}
330
47
100
AcDbProxyObject
 90
      499
 91
      503
 93
      249
310
90D31272D3022203D2031272D30220000000000000A100000000000000284000
  0
ACAD_PROXY_OBJECT
  5
2F
102
{ACAD_REACTORS
330
2A
102
}
330
2A
100
AcDbProxyObject
 90
      499
 91
      501
 93
      436
310
42CC9915DA5C99599C985B595049028333333333333E33F0000000000000F90107901411070040501600405405064090741402480A0340
1001
ACAD
1000
AcDbSavedByObjectVersion
1070
     0
  0
ACAD_PROXY_OBJECT
  5
32
102
{ACAD_REACTORS
330
2A
102
}
330
2A
100
AcDbProxyObject
 90
      499
 91
      501
 93
      388
310
4150985CDA58D07406404333333333333E33F0000000000000F90107A41107004050150841D405064090741402480A0350
1001
ACAD
1000
AcDbSavedByObjectVersion
1070
     0
  0
ACAD_PROXY_OBJECT
  5
36
102
{ACAD_REACTORS
330
2A
102
}
330
2A
100
AcDbProxyObject
 90
      499
 91
      501
 93
      428
310
42109C9A59DA1D195B90C409028333333333333E33F0000000000000F9010790141107004050150841D405064090741402480A029950
1001
ACAD
1000
AcDbSavedByObjectVersion
1070
     0
  0
ACAD_PROXY_OBJECT
  5
3A
102
{ACAD_REACTORS
330
2A
102
}
330
2A
100
AcDbProxyObject
 90
      499
 91
      501
 93
      452
310
42D0DBDB1BDC90DA185B99D95104090240C333333333333E33F0000000000000F90108901411070040501508421405064090741402480A0350
1001
ACAD
1000
AcDbSavedByObjectVersion
1070
     0
  0
ACAD_PROXY_OBJECT
  5
34
102
{ACAD_REACTORS
330
2A
102
}
330
2A
100
AcDbProxyObject
 90
      499
 91
      501
 93
      500
310
4290DBDB98D95C1D1D585B10940D028333333333333E33F0000000000000F90107902409070040501000000000018199010841D405064090740C02480A0340
1001
ACAD
1000
AcDbSavedByObjectVersion
1070
     0
  0
ACAD_PROXY_OBJECT
  5
35
102
{ACAD_REACTORS
330
2A
102
}
330
2A
100
AcDbProxyObject
 90
      499
 91
      501
 93
      412
310
40D11A5B50B409028333333333333E33F0000000000000F9010790141107004050150841D405064090741402480A02677FFFFFD0
1001
ACAD
1000
AcDbSavedByObjectVersion
1070
     0
  0
ACAD_PROXY_OBJECT
  5
3D
102
{ACAD_REACTORS
330
2A
102
}
330
2A
100
AcDbProxyObject
 90
      499
 91
      501
 93
      452
310
43115919D950DBDB1BDC93D999916409028333333333333E33F0000000000000F9010790141107004050150841D405064090741402480A0350
1001
ACAD
1000
AcDbSavedByObjectVersion
1070
     0
  0
ACAD_PROXY_OBJECT
  5
39
102
{ACAD_REACTORS
330
2A
102
}
330
2A
100
AcDbProxyObject
 90
      499
 91
      501
 93
      444
310
42D19858D95C185D1D195C9B90F409028333333333333E33F0000000000000F9010790141107004050150841D405064090741402480A0350
1001
ACAD
1000
AcDbSavedByObjectVersion
1070
     0
  0
ACAD_PROXY_OBJECT
  5
2B
102
{ACAD_REACTORS
330
2A
102
}
330
2A
100
AcDbProxyObject
 90
      499
 91
      501
 93
      380
310
41119B185D240901404333333333333E33F0000000000000F9010740A907004050150841D405064090741402480A1B50
1001
ACAD
1000
AcDbSavedByObjectVersion
1070
     0
  0
ACAD_PROXY_OBJECT
  5
2C
102
{ACAD_REACTORS
330
2A
102
}
330
2A
100
AcDbProxyObject
 90
      499
 91
      501
 93
      468
310
43519B185D15DA5D1A115919D95CD0140901404333333333333E33F0000000000000F90107409019070040501600405405064090741402480A1B50
1001
ACAD
1000
AcDbSavedByObjectVersion
1070
     0
  0
ACAD_PROXY_OBJECT
  5
2D
102
{ACAD_REACTORS
330
2A
102
}
330
2A
100
AcDbProxyObject
 90
      499
 91
      501
 93
      404
310
41D1DBDD5C985D5910240902404333333333333E33F0000000000000F9010740A9070040501641D405064090741402480A1B50
1001
ACAD
1000
AcDbSavedByObjectVersion
1070
     0
  0
ACAD_PROXY_OBJECT
  5
2E
102
{ACAD_REACTORS
330
2A
102
}
330
2A
100
AcDbProxyObject
 90
      499
 91
      501
 93
      492
310
4411DBDD5C985D5915DA5D1A115919D95CD0340902404333333333333E33F0000000000000F90107409019070040501600405405064090741402480A1B50
1001
ACAD
1000
AcDbSavedByObjectVersion
1070
     0
  0
ACAD_PROXY_OBJECT
  5
31
102
{ACAD_REACTORS
330
2A
102
}
330
2A
100
AcDbProxyObject
 90
      499
 91
      501
 93
      476
310
41921A5919195B90640502408333333333333E33F0000000000000F901079024090700405020000000000001110200405405064090740C02480A0340
1001
ACAD
1000
AcDbSavedByObjectVersion
1070
     0
  0
ACAD_PROXY_OBJECT
  5
3B
102
{ACAD_REACTORS
330
2A
102
}
330
2A
100
AcDbProxyObject
 90
      499
 91
      501
 93
      428
310
42529A5D1D195C93D999914409028333333333333E33F0000000000000F9010790141107004050150A41D405064090741402480A0350
1001
ACAD
1000
AcDbSavedByObjectVersion
1070
     0
  0
ACAD_PROXY_OBJECT
  5
38
102
{ACAD_REACTORS
330
2A
102
}
330
2A
100
AcDbProxyObject
 90
      499
 91
      501
 93
      444
310
42D31A5B995C185D1D195C9B90E409028333333333333E33F0000000000000F9010790141107004050750841D405064090741402483A0350
1001
ACAD
1000
AcDbSavedByObjectVersion
1070
     0
  0
ACAD_PROXY_OBJECT
  5
3C
102
{ACAD_REACTORS
330
2A
102
}
330
2A
100
AcDbProxyObject
 90
      499
 91
      501
 93
      444
310
42D3DD995C9A185B99D3D999915409028333333333333E33F0000000000000F9010790141107004050150941D405064090741402480A0350
1001
ACAD
1000
AcDbSavedByObjectVersion
1070
     0
  0
ACAD_PROXY_OBJECT
  5
33
102
{ACAD_REACTORS
330
2A
102
}
330
2A
100
AcDbProxyObject
 90
      499
 91
      501
 93
      428
310
425499585B1A5CDD1A58D08409038333333333333E33F0000000000000F9010740A907004050150800405405064090740C02480A1B40
1001
ACAD
1000
AcDbSavedByObjectVersion
1070
     0
  0
ACAD_PROXY_OBJECT
  5
42
102
{ACAD_REACTORS
330
2A
102
}
330
2A
100
AcDbProxyObject
 90
      499
 91
      501
 93
      420
310
4194DA1859195911B40902404333333333333E33F0000000000000F9010740A41107004050150800405405064090840C02480A0B40
1001
ACAD
1000
AcDbSavedByObjectVersion
1070
     0
  0
ACAD_PROXY_OBJECT
  5
41
102
{ACAD_REACTORS
330
2A
102
}
330
2A
100
AcDbProxyObject
 90
      499
 91
      501
 93
      516
310
4454DA18591959081DDA5D1A08195919D95CD1A40902404333333333333E33F0000000000000F901074090142907004050250800405405064090740C02480A0B40
1001
ACAD
1000
AcDbSavedByObjectVersion
1070
     0
  0
ACAD_PROXY_OBJECT
  5
3E
102
{ACAD_REACTORS
330
2A
102
}
330
2A
100
AcDbProxyObject
 90
      499
 91
      501
 93
      532
310
4394DA1859195CC81BD98811DC985E5174090240C333333333333E33F0000000000000F901079024090741D01000000000000111010841D405064090740C02480A0340
1001
ACAD
1000
AcDbSavedByObjectVersion
1070
     0
  0
ACAD_PROXY_OBJECT
  5
3F
102
{ACAD_REACTORS
330
2A
102
}
330
2A
100
AcDbProxyObject
 90
      499
 91
      501
 93
      476
310
41D4DAD95D18DA1E51840502408333333333333E33F0000000000000F901079024090741D01000000000000111010B41D405064090741802480A0340
1001
ACAD
1000
AcDbSavedByObjectVersion
1070
     0
  0
ACAD_PROXY_OBJECT
  5
37
102
{ACAD_REACTORS
330
2A
102
}
330
2A
100
AcDbProxyObject
 90
      499
 91
      501
 93
      412
310
41D51A1A58DAD95B90D409028333333333333E33F0000000000000F9010790141107004050150C41D405064090741402480A0350
1001
ACAD
1000
AcDbSavedByObjectVersion
1070
     0
  0
ACAD_PROXY_OBJECT
  5
30
102
{ACAD_REACTORS
330
2A
102
}
330
2A
100
AcDbProxyObject
 90
      499
 91
      501
 93
      420
310
4255DA5C99599C985B595059028333333333333E33F0000000000000F90107901411070040501600405405064090740C02480A0340
1001
ACAD
1000
AcDbSavedByObjectVersion
1070
     0
  0
ACAD_PROXY_OBJECT
  5
40
102
{ACAD_REACTORS
330
2A
102
}
330
2A
100
AcDbProxyObject
 90
      499
 91
      501
 93
      404
310
41560B54985E51940902404000000000000E03F0000000000000F9010740501907004050150841D405064090740C02480A1B40
1001
ACAD
1000
AcDbSavedByObjectVersion
1070
     0
  0
XRECORD
  5
2C4
102
{ACAD_REACTORS
330
2BA
102
}
330
2BA
100
AcDbXrecord
340
0
  0
XRECORD
  5
2C3
102
{ACAD_REACTORS
330
2BA
102
}
330
2BA
100
AcDbXrecord
 90
        0
  0
XRECORD
  5
2DA
102
{ACAD_REACTORS
330
2BA
102
}
330
2BA
100
AcDbXrecord
1000
DSTYLE
1002
{
1070
   279
 70
     2
1070
   340
340
11
1002
}
  0
XRECORD
  5
2C5
102
{ACAD_REACTORS
330
2BA
102
}
330
2BA
100
AcDbXrecord
  1
{9D218941-44E6-40F8-83D3-E95F5C70C61E}
  0
XRECORD
  5
2BD
102
{ACAD_REACTORS
330
2BA
102
}
330
2BA
100
AcDbXrecord
  1

  0
XRECORD
  5
2C2
102
{ACAD_REACTORS
330
2BA
102
}
330
2BA
100
AcDbXrecord
 90
        4
  0
XRECORD
  5
2BF
102
{ACAD_REACTORS
330
2BA
102
}
330
2BA
100
AcDbXrecord
340
1A
  0
XRECORD
  5
2C1
102
{ACAD_REACTORS
330
2BA
102
}
330
2BA
100
AcDbXrecord
 90
    10781
  0
XRECORD
  5
2C0
102
{ACAD_REACTORS
330
2BA
102
}
330
2BA
100
AcDbXrecord
340
19
  0
XRECORD
  5
2C7
102
{ACAD_REACTORS
330
2BA
102
}
330
2BA
100
AcDbXrecord
 40
0.0
  0
XRECORD
  5
2CA
102
{ACAD_REACTORS
330
2BA
102
}
330
2BA
100
AcDbXrecord
340
0
  0
XRECORD
  5
2D0
102
{ACAD_REACTORS
330
2BA
102
}
330
2BA
100
AcDbXrecord
 10
0.0
 20
0.0
 30
0.0
  0
XRECORD
  5
2CC
102
{ACAD_REACTORS
330
2BA
102
}
330
2BA
100
AcDbXrecord
 10
0.0
 20
0.0
 30
0.0
  0
XRECORD
  5
2CF
102
{ACAD_REACTORS
330
2BA
102
}
330
2BA
100
AcDbXrecord
 10
0.0
 20
0.0
 30
0.0
  0
XRECORD
  5
2CD
102
{ACAD_REACTORS
330
2BA
102
}
330
2BA
100
AcDbXrecord
 10
0.0
 20
0.0
 30
0.0
  0
XRECORD
  5
2CE
102
{ACAD_REACTORS
330
2BA
102
}
330
2BA
100
AcDbXrecord
 10
0.0
 20
0.0
 30
0.0
  0
XRECORD
  5
2CB
102
{ACAD_REACTORS
330
2BA
102
}
330
2BA
100
AcDbXrecord
 10
0.0
 20
0.0
 30
0.0
  0
XRECORD
  5
2C8
102
{ACAD_REACTORS
330
2BA
102
}
330
2BA
100
AcDbXrecord
340
0
  0
XRECORD
  5
2C9
102
{ACAD_REACTORS
330
2BA
102
}
330
2BA
100
AcDbXrecord
 70
     0
  0
XRECORD
  5
2BE
102
{ACAD_REACTORS
330
2BA
102
}
330
2BA
100
AcDbXrecord
  1

  0
XRECORD
  5
2BB
102
{ACAD_REACTORS
330
2BA
102
}
330
2BA
100
AcDbXrecord
 90
        1
  0
XRECORD
  5
2BC
102
{ACAD_REACTORS
330
2BA
102
}
330
2BA
100
AcDbXrecord
 90
       70
  0
XRECORD
  5
2D3
102
{ACAD_REACTORS
330
2BA
102
}
330
2BA
100
AcDbXrecord
340
0
  0
XRECORD
  5
2D9
102
{ACAD_REACTORS
330
2BA
102
}
330
2BA
100
AcDbXrecord
 10
0.0
 20
0.0
 30
0.0
  0
XRECORD
  5
2D5
102
{ACAD_REACTORS
330
2BA
102
}
330
2BA
100
AcDbXrecord
 10
0.0
 20
0.0
 30
0.0
  0
XRECORD
  5
2D8
102
{ACAD_REACTORS
330
2BA
102
}
330
2BA
100
AcDbXrecord
 10
0.0
 20
0.0
 30
0.0
  0
XRECORD
  5
2D6
102
{ACAD_REACTORS
330
2BA
102
}
330
2BA
100
AcDbXrecord
 10
0.0
 20
0.0
 30
0.0
  0
XRECORD
  5
2D7
102
{ACAD_REACTORS
330
2BA
102
}
330
2BA
100
AcDbXrecord
 10
0.0
 20
0.0
 30
0.0
  0
XRECORD
  5
2D4
102
{ACAD_REACTORS
330
2BA
102
}
330
2BA
100
AcDbXrecord
 10
0.0
 20
0.0
 30
0.0
  0
XRECORD
  5
2D1
102
{ACAD_REACTORS
330
2BA
102
}
330
2BA
100
AcDbXrecord
340
0
  0
XRECORD
  5
2D2
102
{ACAD_REACTORS
330
2BA
102
}
330
2BA
100
AcDbXrecord
 70
     0
  0
XRECORD
  5
2C6
102
{ACAD_REACTORS
330
2BA
102
}
330
2BA
100
AcDbXrecord
  1
{FAEB1C32-E019-11D5-929B-00C0DF256EC4}
  0
DICTIONARYVAR
  5
2E4
102
{ACAD_REACTORS
330
2DB
102
}
330
2DB
100
DictionaryVariables
280
     0
  1
1:1
  0
DICTIONARYVAR
  5
2DD
102
{ACAD_REACTORS
330
2DB
102
}
330
2DB
100
DictionaryVariables
280
     0
  1
Standard
  0
DICTIONARYVAR
  5
2DC
102
{ACAD_REACTORS
330
2DB
102
}
330
2DB
100
DictionaryVariables
280
     0
  1
Standard
  0
DICTIONARYVAR
  5
2E0
102
{ACAD_REACTORS
330
2DB
102
}
330
2DB
100
DictionaryVariables
280
     0
  1
2
  0
DICTIONARYVAR
  5
2E1
102
{ACAD_REACTORS
330
2DB
102
}
330
2DB
100
DictionaryVariables
280
     0
  1
1
  0
DICTIONARYVAR
  5
2E5
102
{ACAD_REACTORS
330
2DB
102
}
330
2DB
100
DictionaryVariables
280
     0
  1
1
  0
DICTIONARY
  5
2E8
330
45
100
AcDbDictionary
280
     1
  3
ACAD_XREC_ROUNDTRIP
360
2E9
  0
DICTIONARY
  5
2E6
330
44
100
AcDbDictionary
280
     1
  3
ACAD_XREC_ROUNDTRIP
360
2E7
  0
DICTIONARY
  5
2EA
330
46
100
AcDbDictionary
280
     1
  3
ACAD_XREC_ROUNDTRIP
360
2EB
  0
XRECORD
  5
2E9
102
{ACAD_REACTORS
330
2E8
102
}
330
2E8
100
AcDbXrecord
102
MATERIAL
148
0.0
149
0.0
149
0.0
 93
        0
 94
      127
282
     0
 72
     1
 77
     1
171
     1
175
     1
179
     1
273
     0
  0
XRECORD
  5
2E7
102
{ACAD_REACTORS
330
2E6
102
}
330
2E6
100
AcDbXrecord
102
MATERIAL
148
0.0
149
0.0
149
0.0
 93
        0
 94
      127
282
     0
 72
     1
 77
     1
171
     1
175
     1
179
     1
273
     0
  0
XRECORD
  5
2EB
102
{ACAD_REACTORS
330
2EA
102
}
330
2EA
100
AcDbXrecord
102
MATERIAL
148
0.0
149
0.0
149
0.0
 93
        0
 94
      127
282
     0
 72
     1
 77
     1
171
     1
175
     1
179
     1
273
     0
  0
ENDSEC
  0
EOF
