0
SECTION
2
HEADER
9
$INSUNITS
70
4
9
$ACADVER
1
AC1014
9
$HANDSEED
5
FFFF
0
ENDSEC
0
SECTION
2
TABLES
0
TABLE
2
VPORT
5
8
100
AcDbSymbolTable
0
ENDTAB
0
TABLE
2
LTYPE
5
5
100
AcDbSymbolTable
0
LTYPE
5
14
100
AcDbSymbolTableRecord
100
AcDbLinetypeTableRecord
2
BYBLOCK
70
0
0
LTYPE
5
15
100
AcDbSymbolTableRecord
100
AcDbLinetypeTableRecord
2
BYLAYER
70
0
0
ENDTAB
0
TABLE
2
LAYER
5
2
100
AcDbSymbolTable
70
2
0
LAYER
5
50
100
AcDbSymbolTableRecord
100
AcDbLayerTableRecord
2
0
70
0
6
CONTINUOUS
0
ENDTAB
0
TABLE
2
STYLE
5
3
100
AcDbSymbolTable
70
1
0
STYLE
5
11
100
AcDbSymbolTableRecord
100
AcDbTextStyleTableRecord
2
STANDARD
70
0
0
ENDTAB
0
TABLE
2
VIEW
5
6
100
AcDbSymbolTable
70
0
0
ENDTAB
0
TABLE
2
UCS
5
7
100
AcDbSymbolTable
70
0
0
ENDTAB
0
TABLE
2
APPID
5
9
100
AcDbSymbolTable
70
2
0
APPID
5
12
100
AcDbSymbolTableRecord
100
AcDbRegAppTableRecord
2
ACAD
70
0
0
ENDTAB
0
TABLE
2
DIMSTYLE
5
A
100
AcDbSymbolTable
70
1
0
ENDTAB
0
TABLE
2
BLOCK_RECORD
5
1
100
AcDbSymbolTable
70
1
0
BLOCK_RECORD
5
1F
100
AcDbSymbolTableRecord
100
AcDbBlockTableRecord
2
*MODEL_SPACE
0
BLOCK_RECORD
5
1B
100
AcDbSymbolTableRecord
100
AcDbBlockTableRecord
2
*PAPER_SPACE
0
ENDTAB
0
ENDSEC
0
SECTION
2
BLOCKS
0
BLOCK
5
20
100
AcDbEntity
100
AcDbBlockBegin
2
*MODEL_SPACE
0
ENDBLK
5
21
100
AcDbEntity
100
AcDbBlockEnd
0
BLOCK
5
1C
100
AcDbEntity
100
AcDbBlockBegin
2
*PAPER_SPACE
0
ENDBLK
5
1D
100
AcDbEntity
100
AcDbBlockEnd
0
ENDSEC
0
SECTION
2
ENTITIES
0
ARC
5
100
100
AcDbEntity
8
0
100
AcDbCircle
10
-3.9450000150000033
20
-19.124999992999999
30
0
40
0.49999999999999933
100
AcDbArc
50
180
51
270.00000000000011
0
LINE
5
101
100
AcDbEntity
8
0
100
AcDbLine
10
-3.9450000150000024
20
-19.624999992999999
30
0
11
3.9449999999999981
21
-19.624999992999999
31
0
0
ARC
5
102
100
AcDbEntity
8
0
100
AcDbCircle
10
3.9449999999999967
20
-19.124999992999999
30
0
40
0.50000000000000044
100
AcDbArc
50
-89.999999999999844
51
0
0
LINE
5
103
100
AcDbEntity
8
0
100
AcDbLine
10
4.4449999999999976
20
-19.124999992999999
30
0
11
4.4449999999999985
21
-18.125000000744365
31
0
0
ARC
5
104
100
AcDbEntity
8
0
100
AcDbCircle
10
5.4449999999999985
20
-18.125000000744361
30
0
40
0.99999999999999978
100
AcDbArc
50
0
51
180
0
LINE
5
105
100
AcDbEntity
8
0
100
AcDbLine
10
6.4449999999999985
20
-18.125000000744365
30
0
11
15.0151442648
21
-18.125000000744365
31
0
0
ARC
5
106
100
AcDbEntity
8
0
100
AcDbCircle
10
15.015144256633139
20
-17.125000004033094
30
0
40
1.0000000065999992
100
AcDbArc
50
-89.999999532073332
51
22.438052124152495
0
LINE
5
107
100
AcDbEntity
8
0
100
AcDbLine
10
15.939437007449524
20
-16.743315687201424
30
0
11
12.367856999168982
21
-8.0943212012038828
31
0
0
ARC
5
108
100
AcDbEntity
8
0
100
AcDbCircle
10
26.232248226165783
20
-2.3690565200763798
30
0
40
14.999999997400009
100
AcDbArc
50
157.49999993431024
51
202.43805192364761
0
LINE
5
109
100
AcDbEntity
8
0
100
AcDbLine
10
12.374055240226591
20
3.3711949832978156
30
0
11
16.400000004000002
21
13.090685430661534
31
0
0
LINE
5
110
100
AcDbEntity
8
0
100
AcDbLine
10
16.400000004000002
20
13.090685430661534
30
0
11
16.400000004000002
21
19.625000009000004
31
0
0
ARC
5
111
100
AcDbEntity
8
0
100
AcDbCircle
10
15.900000004000008
20
19.625000009000008
30
0
40
0.49999999999999378
100
AcDbArc
50
0
51
90.000000000000611
0
LINE
5
112
100
AcDbEntity
8
0
100
AcDbLine
10
15.900000004000002
20
20.125000009000004
30
0
11
11.4999999964
21
20.125000009000004
31
0
0
ARC
5
113
100
AcDbEntity
8
0
100
AcDbCircle
10
11.499999996399994
20
19.625000009000008
30
0
40
0.499999999999996
100
AcDbArc
50
89.999999999999389
51
180
0
LINE
5
114
100
AcDbEntity
8
0
100
AcDbLine
10
10.999999996399998
20
19.625000009000004
30
0
11
10.999999987933332
21
18.1249999958
31
0
0
ARC
5
115
100
AcDbEntity
8
0
100
AcDbCircle
10
9.9999999897999992
20
18.125000012199994
30
0
40
0.99999998119999944
100
AcDbArc
50
180.00000085377366
51
359.99999914622634
0
LINE
5
116
100
AcDbEntity
8
0
100
AcDbLine
10
9.0000000086000007
20
18.1249999958
30
0
11
6.3499999999999996
21
18.1249999958
31
0
0
LINE
5
117
100
AcDbEntity
8
0
100
AcDbLine
10
6.3499999999999996
20
18.1249999958
30
0
11
6.3499999999999996
21
8.8899999999999988
31
0
0
ARC
5
118
100
AcDbEntity
8
0
100
AcDbCircle
10
-1.7038443003230801e-22
20
8.8900000122000016
30
0
40
6.3499999999999988
100
AcDbArc
50
180
51
360
0
LINE
5
119
100
AcDbEntity
8
0
100
AcDbLine
10
-6.3499999999999988
20
8.8900000000000006
30
0
11
-6.3499999999999996
21
18.1249999958
31
0
0
LINE
5
120
100
AcDbEntity
8
0
100
AcDbLine
10
-6.3499999999999996
20
18.1249999958
30
0
11
-8.9999999954846874
21
18.1249999958
31
0
0
ARC
5
121
100
AcDbEntity
8
0
100
AcDbCircle
10
-9.9999999897999992
20
18.125000012199994
30
0
40
1.0000000065999994
100
AcDbArc
50
180
51
360
0
LINE
5
122
100
AcDbEntity
8
0
100
AcDbLine
10
-10.999999996399998
20
18.1249999958
30
0
11
-10.9999999964
21
19.625000009000004
31
0
0
ARC
5
123
100
AcDbEntity
8
0
100
AcDbCircle
10
-11.499999996399996
20
19.625000009000004
30
0
40
0.499999999999996
100
AcDbArc
50
0
51
90.000000000000611
0
LINE
5
124
100
AcDbEntity
8
0
100
AcDbLine
10
-11.499999996400001
20
20.125000009000004
30
0
11
-15.900000004000001
21
20.125000009000004
31
0
0
ARC
5
125
100
AcDbEntity
8
0
100
AcDbCircle
10
-15.900000004000006
20
19.625000009000004
30
0
40
0.49999999999999822
100
AcDbArc
50
89.999999999999389
51
180
0
LINE
5
126
100
AcDbEntity
8
0
100
AcDbLine
10
-16.400000004000002
20
19.625000009000004
30
0
11
-16.400000004000002
21
13.090685430661539
31
0
0
LINE
5
127
100
AcDbEntity
8
0
100
AcDbLine
10
-16.400000004000002
20
13.090685430661539
30
0
11
-12.374055239721189
21
3.371194983507162
31
0
0
ARC
5
128
100
AcDbEntity
8
0
100
AcDbCircle
10
-26.232248233727287
20
-2.3690564975327231
30
0
40
14.999999997399975
100
AcDbArc
50
-22.438051992214728
51
22.499999975081149
0
LINE
5
129
100
AcDbEntity
8
0
100
AcDbLine
10
-12.367857003973343
20
-8.0943211992199338
30
0
11
-15.939437010155427
21
-16.743315686084028
31
0
0
ARC
5
130
100
AcDbEntity
8
0
100
AcDbCircle
10
-15.015144260448789
20
-17.124999990263014
30
0
40
1.0000000066000005
100
AcDbArc
50
157.5619485216404
51
269.99999975069397
0
LINE
5
131
100
AcDbEntity
8
0
100
AcDbLine
10
-15.0151442648
20
-18.124999996863014
30
0
11
-6.4450000150000015
21
-18.124999996795967
31
0
0
ARC
5
132
100
AcDbEntity
8
0
100
AcDbCircle
10
-5.4450000150000033
20
-18.124999996795964
30
0
40
1.0000000000000009
100
AcDbArc
50
0
51
180
0
LINE
5
133
100
AcDbEntity
8
0
100
AcDbLine
10
-4.4450000150000024
20
-18.124999996863014
30
0
11
-4.4450000150000024
21
-19.124999992999999
31
0
0
CIRCLE
5
134
100
AcDbEntity
8
0
100
AcDbCircle
10
-1.2200001009432526e-08
20
-12.124999999999988
30
0
40
3.2500000023999998
0
ARC
5
135
100
AcDbEntity
8
0
100
AcDbCircle
10
5.0799999877999991
20
-2.2860000000000005
30
0
40
1.5874999999999995
100
AcDbArc
50
-89.999999559679637
51
89.999999559679637
0
LINE
5
136
100
AcDbEntity
8
0
100
AcDbLine
10
5.0800000000000001
20
-3.8734999999999999
30
0
11
-5.0800000000000001
21
-3.8735000000000008
31
0
0
ARC
5
137
100
AcDbEntity
8
0
100
AcDbCircle
10
-5.0799999877999946
20
-2.2860000000000023
30
0
40
1.5874999999999997
100
AcDbArc
50
90.000000440320505
51
269.99999955967945
0
LINE
5
138
100
AcDbEntity
8
0
100
AcDbLine
10
-5.0800000000000001
20
-0.69850000000000279
30
0
11
5.0800000000000001
21
-0.69850000000000056
31
0
0
CIRCLE
5
139
100
AcDbEntity
8
0
100
AcDbCircle
10
6.0959999877999991
20
-6.8580000000000023
30
0
40
1.2699999999999991
0
CIRCLE
5
140
100
AcDbEntity
8
0
100
AcDbCircle
10
-6.0960000122000011
20
-6.8579999999999961
30
0
40
1.2699999999999991
0
ENDSEC
0
SECTION
2
OBJECTS
0
DICTIONARY
5
C
100
AcDbDictionary
3
ACAD_GROUP
350
D
3
ACAD_MLINESTYLE
350
17
0
DICTIONARY
5
D
100
AcDbDictionary
0
DICTIONARY
5
1A
330
C
100
AcDbDictionary
0
DICTIONARY
5
17
100
AcDbDictionary
0
ENDSEC
0
EOF
