999
dxflib 3.12.2.0
  0
SECTION
  2
HEADER
  9
$ACADVER
  1
AC1015
  9
$HANDSEED
  5
FFFF
  9
$ANGBASE
 50
0.0
  9
$ANGDIR
 70
0
  9
$ATTMODE
 70
1
  9
$AUNITS
 70
0
  9
$AUPREC
 70
0
  9
$CECOLOR
 62
256
  9
$CELTSCALE
 40
1.0
  9
$CHAMFERA
 40
0.0
  9
$CHAMFERB
 40
0.0
  9
$CHAMFERC
 40
0.0
  9
$CHAMFERD
 40
0.0
  9
$CMLJUST
 70
0
  9
$CMLSCALE
 40
1.0
  9
$DIMADEC
 70
0
  9
$DIMALT
 70
0
  9
$DIMALTD
 70
2
  9
$DIMALTF
 40
25.399999999999999
  9
$DIMALTRND
 40
0.0
  9
$DIMALTTD
 70
2
  9
$DIMALTTZ
 70
0
  9
$DIMALTU
 70
2
  9
$DIMALTZ
 70
0
  9
$DIMAPOST
  1

  9
$DIMASZ
 40
2.5
  9
$DIMATFIT
 70
3
  9
$DIMAUNIT
 70
0
  9
$DIMAZIN
 70
2
  9
$DIMBLK
  1

  9
$DIMBLK1
  1

  9
$DIMBLK2
  1

  9
$DIMCEN
 40
0.09
  9
$DIMCLRD
 70
0
  9
$DIMCLRE
 70
0
  9
$DIMCLRT
 70
0
  9
$DIMDEC
 70
4
  9
$DIMDLE
 40
0.0
  9
$DIMDLI
 40
0.38
  9
$DIMDSEP
 70
46
  9
$DIMEXE
 40
1.25
  9
$DIMEXO
 40
0.625
  9
$DIMFRAC
 70
0
  9
$DIMGAP
 40
0.625
  9
$DIMJUST
 70
0
  9
$DIMLDRBLK
  1

  9
$DIMLFAC
 40
1.0
  9
$DIMLIM
 70
0
  9
$DIMLUNIT
 70
2
  9
$DIMLWD
 70
-2
  9
$DIMLWE
 70
-2
  9
$DIMPOST
  1

  9
$DIMRND
 40
0.0
  9
$DIMSAH
 70
0
  9
$DIMSCALE
 40
1.0
  9
$DIMSD1
 70
0
  9
$DIMSD2
 70
0
  9
$DIMSE1
 70
0
  9
$DIMSE2
 70
0
  9
$DIMSOXD
 70
0
  9
$DIMTAD
 70
0
  9
$DIMTDEC
 70
4
  9
$DIMTFAC
 40
1.0
  9
$DIMTIH
 70
1
  9
$DIMTIX
 70
0
  9
$DIMTM
 40
0.0
  9
$DIMTOFL
 70
0
  9
$DIMTOH
 70
1
  9
$DIMTOL
 70
0
  9
$DIMTOLJ
 70
1
  9
$DIMTP
 40
0.0
  9
$DIMTSZ
 40
0.0
  9
$DIMTVP
 40
0.0
  9
$DIMTXSTY
  7
Standard
  9
$DIMTXT
 40
2.5
  9
$DIMTZIN
 70
0
  9
$DIMUPT
 70
0
  9
$DIMZIN
 70
8
  9
$DISPSILH
 70
0
  9
$DWGCODEPAGE
  3
ANSI_1252
  9
$ELEVATION
 40
0.0
  9
$EXTMAX
 10
19.0
 20
110.0
 30
0.0
  9
$EXTMIN
 10
-19.1230474629687
 20
-110.0
 30
0.0
  9
$FILLETRAD
 40
0.0
  9
$FILLMODE
 70
1
  9
$INSBASE
 10
0.0
 20
0.0
 30
0.0
  9
$INSUNITS
 70
4
  9
$LIMCHECK
 70
0
  9
$LIMMAX
 10
12.0
 20
9.0
  9
$LIMMIN
 10
0.0
 20
0.0
  9
$LTSCALE
 40
1.0
  9
$LUNITS
 70
2
  9
$LUPREC
 70
4
  9
$MAXACTVP
 70
64
  9
$MEASUREMENT
 70
0
  9
$MIRRTEXT
 70
0
  9
$ORTHOMODE
 70
0
  9
$PDMODE
 70
0
  9
$PDSIZE
 40
0
  9
$PELEVATION
 40
0.0
  9
$PEXTMAX
 10
-100000000000000000000.0
 20
-100000000000000000000.0
 30
-100000000000000000000.0
  9
$PEXTMIN
 10
100000000000000000000.0
 20
100000000000000000000.0
 30
100000000000000000000.0
  9
$PINSBASE
 10
0.0
 20
0.0
 30
0.0
  9
$PLIMCHECK
 70
0
  9
$PLIMMAX
 10
12.0
 20
9.0
  9
$PLIMMIN
 10
0.0
 20
0.0
  9
$PLINEGEN
 70
0
  9
$PLINEWID
 40
0.0
  9
$PROXYGRAPHICS
 70
1
  9
$PSLTSCALE
 70
1
  9
$PUCSNAME
  2

  9
$PUCSORG
 10
0.0
 20
0.0
 30
0.0
  9
$PUCSXDIR
 10
1.0
 20
0.0
 30
0.0
  9
$PUCSYDIR
 10
0.0
 20
1.0
 30
0.0
  9
$QTEXTMODE
 70
0
  9
$REGENMODE
 70
1
  9
$SHADEDGE
 70
3
  9
$SHADEDIF
 70
70
  9
$SKETCHINC
 40
0.1
  9
$SKPOLY
 70
0
  9
$SPLFRAME
 70
0
  9
$SPLINESEGS
 70
8
  9
$SPLINETYPE
 70
6
  9
$SURFTAB1
 70
6
  9
$SURFTAB2
 70
6
  9
$SURFTYPE
 70
6
  9
$SURFU
 70
6
  9
$SURFV
 70
6
  9
$TEXTSIZE
 40
2.5
  9
$TEXTSTYLE
  7
Standard
  9
$THICKNESS
 40
0.0
  9
$TILEMODE
 70
1
  9
$TRACEWID
 40
0.05
  9
$TREEDEPTH
 70
3020
  9
$UCSNAME
  2

  9
$UCSORG
 10
0.0
 20
0.0
 30
0.0
  9
$UCSXDIR
 10
1.0
 20
0.0
 30
0.0
  9
$UCSYDIR
 10
0.0
 20
1.0
 30
0.0
  9
$UNITMODE
 70
0
  9
$USERI1
 70
0
  9
$USERI2
 70
0
  9
$USERI3
 70
0
  9
$USERI4
 70
0
  9
$USERI5
 70
0
  9
$USERR1
 40
0.0
  9
$USERR2
 40
0.0
  9
$USERR3
 40
0.0
  9
$USERR4
 40
0.0
  9
$USERR5
 40
0.0
  9
$USRTIMER
 70
1
  9
$VISRETAIN
 70
1
  0
ENDSEC
  0
SECTION
  2
TABLES
  0
TABLE
  2
VPORT
  5
8
100
AcDbSymbolTable
 70
1
  0
VPORT
  5
30
100
AcDbSymbolTableRecord
100
AcDbViewportTableRecord
  2
*Active
 70
0
 10
0.0
 20
0.0
 11
1.0
 21
1.0
 12
286.30555555555549
 22
148.5
 13
0.0
 23
0.0
 14
10.0
 24
10.0
 15
10.0
 25
10.0
 16
0.0
 26
0.0
 36
1.0
 17
0.0
 27
0.0
 37
0.0
 40
297.0
 41
1.92798353909465
 42
50.0
 43
0.0
 44
0.0
 50
0.0
 51
0.0
 71
0
 72
100
 73
1
 74
3
 75
1
 76
1
 77
0
 78
0
281
0
 65
1
110
0.0
120
0.0
130
0.0
111
1.0
121
0.0
131
0.0
112
0.0
122
1.0
132
0.0
 79
0
146
0.0
  0
ENDTAB
  0
TABLE
  2
LTYPE
  5
5
100
AcDbSymbolTable
 70
50
  0
LTYPE
  5
16
100
AcDbSymbolTableRecord
100
AcDbLinetypeTableRecord
  2
Continuous
 70
0
  3
Solid line
 72
65
 73
0
 40
0.0
  0
LTYPE
  5
31
100
AcDbSymbolTableRecord
100
AcDbLinetypeTableRecord
  2
DASHED
 70
0
  3
Dashed __ __ __ __ __ __ __ __ __ __ __ __ __ _
 72
65
 73
2
 40
19.049999999999997
 49
12.699999999999999
 74
0
 49
-6.349999999999997
 74
0
  0
LTYPE
  5
32
100
AcDbSymbolTableRecord
100
AcDbLinetypeTableRecord
  2
DIVIDE
 70
0
  3
Divide ____ . . ____ . . ____ . . ____ . . ____
 72
65
 73
6
 40
31.749999999999996
 49
12.699999999999999
 74
0
 49
-6.299999999999998
 74
0
 49
0.1
 74
0
 49
-6.25
 74
0
 49
0.1
 74
0
 49
-6.299999999999998
 74
0
  0
LTYPE
  5
33
100
AcDbSymbolTableRecord
100
AcDbLinetypeTableRecord
  2
ACAD_ISO05W100
 70
0
  3
ISO long-dash double-dot ____ .. ____ .. ____ . 
 72
65
 73
6
 40
33.0
 49
24.0
 74
0
 49
-2.9500000000000002
 74
0
 49
0.1
 74
0
 49
-2.8999999999999999
 74
0
 49
0.1
 74
0
 49
-2.9500000000000002
 74
0
  0
LTYPE
  5
34
100
AcDbSymbolTableRecord
100
AcDbLinetypeTableRecord
  2
ACAD_ISO09W100
 70
0
  3
ISO long-dash double-short-dash ____ __ __ ____
 72
65
 73
6
 40
45.0
 49
24.0
 74
0
 49
-3.0
 74
0
 49
6.0
 74
0
 49
-3.0
 74
0
 49
6.0
 74
0
 49
-3.0
 74
0
  0
LTYPE
  5
35
100
AcDbSymbolTableRecord
100
AcDbLinetypeTableRecord
  2
HIDDEN2
 70
0
  3
Hidden (.5x) _ _ _ _ _ _ _ _ _ _ _ _ _ _ _ _ _ 
 72
65
 73
2
 40
4.7624999999999975
 49
3.174999999999998
 74
0
 49
-1.587499999999999
 74
0
  0
LTYPE
  5
36
100
AcDbSymbolTableRecord
100
AcDbLinetypeTableRecord
  2
ZIGZAG
 70
0
  3
Zig zag /\/\/\/\/\/\/\/\/\/\/\/\/\/\/\/\/\/\/\/\/\/\/\/
 72
65
 73
4
 40
20.32254
 49
0.00254
 74
0
 49
-5.0800000000000001
 74
0
 49
-10.16
 74
0
 49
-5.0800000000000001
 74
0
  0
LTYPE
  5
37
100
AcDbSymbolTableRecord
100
AcDbLinetypeTableRecord
  2
ACAD_ISO04W100
 70
0
  3
ISO long-dash dot ____ . ____ . ____ . ____ . _
 72
65
 73
4
 40
30.0
 49
24.0
 74
0
 49
-2.9500000000000002
 74
0
 49
0.1
 74
0
 49
-2.9500000000000002
 74
0
  0
LTYPE
  5
38
100
AcDbSymbolTableRecord
100
AcDbLinetypeTableRecord
  2
DOT2
 70
0
  3
Dot (.5x) ........................................
 72
65
 73
2
 40
3.1750000000000003
 49
0.1
 74
0
 49
-3.0750000000000002
 74
0
  0
LTYPE
  5
39
100
AcDbSymbolTableRecord
100
AcDbLinetypeTableRecord
  2
CENTERX2
 70
0
  3
Center (2x) ________  __  ________  __  _____
 72
65
 73
4
 40
101.60000000000001
 49
63.5
 74
0
 49
-12.699999999999999
 74
0
 49
12.699999999999999
 74
0
 49
-12.699999999999999
 74
0
  0
LTYPE
  5
3A
100
AcDbSymbolTableRecord
100
AcDbLinetypeTableRecord
  2
ACAD_ISO10W100
 70
0
  3
ISO dash dot __ . __ . __ . __ . __ . __ . __ . 
 72
65
 73
4
 40
18.0
 49
12.0
 74
0
 49
-2.9500000000000002
 74
0
 49
0.1
 74
0
 49
-2.9500000000000002
 74
0
  0
LTYPE
  5
3B
100
AcDbSymbolTableRecord
100
AcDbLinetypeTableRecord
  2
DASHDOT2
 70
0
  3
Dash dot (.5x) _._._._._._._._._._._._._._._.
 72
65
 73
4
 40
12.699999999999998
 49
6.349999999999997
 74
0
 49
-3.125
 74
0
 49
0.1
 74
0
 49
-3.125
 74
0
  0
LTYPE
  5
3C
100
AcDbSymbolTableRecord
100
AcDbLinetypeTableRecord
  2
ACAD_ISO02W100
 70
0
  3
ISO dash __ __ __ __ __ __ __ __ __ __ __ __ __
 72
65
 73
2
 40
15.0
 49
12.0
 74
0
 49
-3.0
 74
0
  0
LTYPE
  5
3D
100
AcDbSymbolTableRecord
100
AcDbLinetypeTableRecord
  2
CENTER
 70
0
  3
Center ____ _ ____ _ ____ _ ____ _ ____ _ ____
 72
65
 73
4
 40
50.799999999999983
 49
31.75
 74
0
 49
-6.349999999999997
 74
0
 49
6.349999999999997
 74
0
 49
-6.349999999999997
 74
0
  0
LTYPE
  5
3E
100
AcDbSymbolTableRecord
100
AcDbLinetypeTableRecord
  2
ACAD_ISO12W100
 70
0
  3
ISO dash double-dot __ . . __ . . __ . . __ . . 
 72
65
 73
6
 40
21.0
 49
12.0
 74
0
 49
-2.9500000000000002
 74
0
 49
0.1
 74
0
 49
-2.8999999999999999
 74
0
 49
0.1
 74
0
 49
-2.9500000000000002
 74
0
  0
LTYPE
  5
3F
100
AcDbSymbolTableRecord
100
AcDbLinetypeTableRecord
  2
ACAD_ISO07W100
 70
0
  3
ISO dot . . . . . . . . . . . . . . . . . . . . 
 72
65
 73
2
 40
3.0
 49
0.1
 74
0
 49
-2.8999999999999999
 74
0
  0
LTYPE
  5
40
100
AcDbSymbolTableRecord
100
AcDbLinetypeTableRecord
  2
DOT
 70
0
  3
Dot . . . . . . . . . . . . . . . . . . . . . . . .
 72
65
 73
2
 40
6.3499999999999996
 49
0.1
 74
0
 49
-6.25
 74
0
  0
LTYPE
  5
41
100
AcDbSymbolTableRecord
100
AcDbLinetypeTableRecord
  2
DASHED2
 70
0
  3
Dashed (.5x) _ _ _ _ _ _ _ _ _ _ _ _ _ _ _ _ _ 
 72
65
 73
2
 40
9.524999999999995
 49
6.349999999999997
 74
0
 49
-3.174999999999998
 74
0
  0
LTYPE
  5
15
100
AcDbSymbolTableRecord
100
AcDbLinetypeTableRecord
  2
ByLayer
 70
0
  3

 72
65
 73
0
 40
0.0
  0
LTYPE
  5
42
100
AcDbSymbolTableRecord
100
AcDbLinetypeTableRecord
  2
DRAINAGE2
 70
0
  3
Drainage reversed----<----<----<----
 72
65
 73
2
 40
10.16
 49
5.0800000000000001
 74
0
 49
5.0800000000000001
 74
0
  0
LTYPE
  5
43
100
AcDbSymbolTableRecord
100
AcDbLinetypeTableRecord
  2
DASHDOT
 70
0
  3
Dash dot __ . __ . __ . __ . __ . __ . __ . __
 72
65
 73
4
 40
25.399999999999995
 49
12.699999999999999
 74
0
 49
-6.299999999999998
 74
0
 49
0.1
 74
0
 49
-6.299999999999998
 74
0
  0
LTYPE
  5
44
100
AcDbSymbolTableRecord
100
AcDbLinetypeTableRecord
  2
ACAD_ISO06W100
 70
0
  3
ISO long-dash triple-dot ____ ... ____ ... ____
 72
65
 73
8
 40
36.000000000000007
 49
24.0
 74
0
 49
-2.9500000000000002
 74
0
 49
0.1
 74
0
 49
-2.8999999999999999
 74
0
 49
0.1
 74
0
 49
-2.8999999999999999
 74
0
 49
0.1
 74
0
 49
-2.9500000000000002
 74
0
  0
LTYPE
  5
45
100
AcDbSymbolTableRecord
100
AcDbLinetypeTableRecord
  2
ACAD_ISO14W100
 70
0
  3
ISO dash triple-dot __ . . . __ . . . __ . . . _
 72
65
 73
8
 40
24.0
 49
12.0
 74
0
 49
-2.9500000000000002
 74
0
 49
0.1
 74
0
 49
-2.8999999999999999
 74
0
 49
0.1
 74
0
 49
-2.8999999999999999
 74
0
 49
0.1
 74
0
 49
-2.9500000000000002
 74
0
  0
LTYPE
  5
46
100
AcDbSymbolTableRecord
100
AcDbLinetypeTableRecord
  2
PHANTOM
 70
0
  3
Phantom ______  __  __  ______  __  __  ______ 
 72
65
 73
6
 40
63.499999999999972
 49
31.75
 74
0
 49
-6.349999999999997
 74
0
 49
6.349999999999997
 74
0
 49
-6.349999999999997
 74
0
 49
6.349999999999997
 74
0
 49
-6.349999999999997
 74
0
  0
LTYPE
  5
47
100
AcDbSymbolTableRecord
100
AcDbLinetypeTableRecord
  2
HOT_WATER_SUPPLY
 70
0
  3
Hot water supply ---- HW ---- HW ---- HW ----
 72
65
 73
3
 40
22.859999999999999
 49
12.699999999999999
 74
0
 49
-5.0800000000000001
 74
0
 49
-5.0800000000000001
 74
0
  0
LTYPE
  5
48
100
AcDbSymbolTableRecord
100
AcDbLinetypeTableRecord
  2
HIDDENX2
 70
0
  3
Hidden (2x) ____ ____ ____ ____ ____ ____ ____ 
 72
65
 73
2
 40
19.049999999999997
 49
12.699999999999999
 74
0
 49
-6.349999999999997
 74
0
  0
LTYPE
  5
49
100
AcDbSymbolTableRecord
100
AcDbLinetypeTableRecord
  2
DIVIDEX2
 70
0
  3
Divide (2x) ________  .  .  ________  .  .  _
 72
65
 73
6
 40
63.5
 49
25.399999999999999
 74
0
 49
-12.65
 74
0
 49
0.1
 74
0
 49
-12.6
 74
0
 49
0.1
 74
0
 49
-12.65
 74
0
  0
LTYPE
  5
4A
100
AcDbSymbolTableRecord
100
AcDbLinetypeTableRecord
  2
ACAD_ISO08W100
 70
0
  3
ISO long-dash short-dash ____ __ ____ __ ____ _
 72
65
 73
4
 40
36.0
 49
24.0
 74
0
 49
-3.0
 74
0
 49
6.0
 74
0
 49
-3.0
 74
0
  0
LTYPE
  5
4B
100
AcDbSymbolTableRecord
100
AcDbLinetypeTableRecord
  2
BATTING
 70
0
  3
Batting SSSSSSSSSSSSSSSSSSSSSSSSSSSSSSSSSSSSSSSSSSSSSSS
 72
65
 73
4
 40
10.16254
 49
0.00254
 74
0
 49
-2.54
 74
0
 49
-5.0800000000000001
 74
0
 49
-2.54
 74
0
  0
LTYPE
  5
4C
100
AcDbSymbolTableRecord
100
AcDbLinetypeTableRecord
  2
HIDDEN
 70
0
  3
Hidden __ __ __ __ __ __ __ __ __ __ __ __ __ __
 72
65
 73
2
 40
9.524999999999995
 49
6.349999999999997
 74
0
 49
-3.174999999999998
 74
0
  0
LTYPE
  5
14
100
AcDbSymbolTableRecord
100
AcDbLinetypeTableRecord
  2
BYBLOCK
 70
0
  3

 72
65
 73
0
 40
0.0
  0
LTYPE
  5
4D
100
AcDbSymbolTableRecord
100
AcDbLinetypeTableRecord
  2
TRACKS
 70
0
  3
Tracks -|-|-|-|-|-|-|-|-|-|-|-|-|-|-|-|-|-|-|-|-|-|-|-|-
 72
65
 73
2
 40
7.6200000000000001
 49
3.8100000000000001
 74
0
 49
3.8100000000000001
 74
0
  0
LTYPE
  5
4E
100
AcDbSymbolTableRecord
100
AcDbLinetypeTableRecord
  2
ACAD_ISO15W100
 70
0
  3
ISO double-dash triple-dot __ __ . . . __ __ . .
 72
65
 73
10
 40
39.000000000000007
 49
12.0
 74
0
 49
-3.0
 74
0
 49
12.0
 74
0
 49
-2.9500000000000002
 74
0
 49
0.1
 74
0
 49
-2.8999999999999999
 74
0
 49
0.1
 74
0
 49
-2.8999999999999999
 74
0
 49
0.1
 74
0
 49
-2.9500000000000002
 74
0
  0
LTYPE
  5
4F
100
AcDbSymbolTableRecord
100
AcDbLinetypeTableRecord
  2
DASHEDX2
 70
0
  3
Dashed (2x) ____  ____  ____  ____  ____  ___
 72
65
 73
2
 40
38.099999999999994
 49
25.399999999999999
 74
0
 49
-12.699999999999999
 74
0
  0
LTYPE
  5
50
100
AcDbSymbolTableRecord
100
AcDbLinetypeTableRecord
  2
PHANTOMX2
 70
0
  3
Phantom (2x) ____________    ____    ____   _
 72
65
 73
6
 40
127.00000000000001
 49
63.5
 74
0
 49
-12.699999999999999
 74
0
 49
12.699999999999999
 74
0
 49
-12.699999999999999
 74
0
 49
12.699999999999999
 74
0
 49
-12.699999999999999
 74
0
  0
LTYPE
  5
51
100
AcDbSymbolTableRecord
100
AcDbLinetypeTableRecord
  2
DASHDOTX2
 70
0
  3
Dash dot (2x) ____  .  ____  .  ____  .  ___
 72
65
 73
4
 40
50.799999999999997
 49
25.399999999999999
 74
0
 49
-12.65
 74
0
 49
0.1
 74
0
 49
-12.65
 74
0
  0
LTYPE
  5
52
100
AcDbSymbolTableRecord
100
AcDbLinetypeTableRecord
  2
GAS_LINE
 70
0
  3
Gas line ----GAS----GAS----GAS----GAS----GAS----GAS--
 72
65
 73
3
 40
24.130000000000003
 49
12.699999999999999
 74
0
 49
-5.0800000000000001
 74
0
 49
-6.3499999999999996
 74
0
  0
LTYPE
  5
53
100
AcDbSymbolTableRecord
100
AcDbLinetypeTableRecord
  2
BORDERX2
 70
0
  3
Border (2x) ____  ____  .  ____  ____  .  ___
 72
65
 73
6
 40
88.899999999999991
 49
25.399999999999999
 74
0
 49
-12.699999999999999
 74
0
 49
25.399999999999999
 74
0
 49
-12.65
 74
0
 49
0.1
 74
0
 49
-12.65
 74
0
  0
LTYPE
  5
54
100
AcDbSymbolTableRecord
100
AcDbLinetypeTableRecord
  2
ACAD_ISO13W100
 70
0
  3
ISO double-dash double-dot __ __ . . __ __ . . _
 72
65
 73
8
 40
36.000000000000007
 49
12.0
 74
0
 49
-3.0
 74
0
 49
12.0
 74
0
 49
-2.9500000000000002
 74
0
 49
0.1
 74
0
 49
-2.8999999999999999
 74
0
 49
0.1
 74
0
 49
-2.9500000000000002
 74
0
  0
LTYPE
  5
55
100
AcDbSymbolTableRecord
100
AcDbLinetypeTableRecord
  2
FENCELINE1
 70
0
  3
Fenceline circle ----0-----0----0-----0----0-----0--
 72
65
 73
4
 40
36.829999999999998
 49
6.3499999999999996
 74
0
 49
-2.54
 74
0
 49
-2.54
 74
0
 49
25.399999999999999
 74
0
  0
LTYPE
  5
56
100
AcDbSymbolTableRecord
100
AcDbLinetypeTableRecord
  2
BORDER2
 70
0
  3
Border (.5x) __.__.__.__.__.__.__.__.__.__.__.
 72
65
 73
6
 40
22.224999999999994
 49
6.349999999999997
 74
0
 49
-3.174999999999998
 74
0
 49
6.349999999999997
 74
0
 49
-3.125
 74
0
 49
0.1
 74
0
 49
-3.125
 74
0
  0
LTYPE
  5
57
100
AcDbSymbolTableRecord
100
AcDbLinetypeTableRecord
  2
DOTX2
 70
0
  3
Dot (2x) .  .  .  .  .  .  .  .  .  .  .  .  .  .
 72
65
 73
2
 40
12.699999999999999
 49
0.1
 74
0
 49
-12.6
 74
0
  0
LTYPE
  5
58
100
AcDbSymbolTableRecord
100
AcDbLinetypeTableRecord
  2
DIVIDE2
 70
0
  3
Divide (.5x) __..__..__..__..__..__..__..__.._
 72
65
 73
6
 40
15.874999999999998
 49
6.349999999999997
 74
0
 49
-3.125
 74
0
 49
0.1
 74
0
 49
-3.0750000000000002
 74
0
 49
0.1
 74
0
 49
-3.125
 74
0
  0
LTYPE
  5
59
100
AcDbSymbolTableRecord
100
AcDbLinetypeTableRecord
  2
BORDER
 70
0
  3
Border __ __ . __ __ . __ __ . __ __ . __ __ .
 72
65
 73
6
 40
44.449999999999996
 49
12.699999999999999
 74
0
 49
-6.349999999999997
 74
0
 49
12.699999999999999
 74
0
 49
-6.299999999999998
 74
0
 49
0.1
 74
0
 49
-6.299999999999998
 74
0
  0
LTYPE
  5
5A
100
AcDbSymbolTableRecord
100
AcDbLinetypeTableRecord
  2
CENTER2
 70
0
  3
Center (.5x) ___ _ ___ _ ___ _ ___ _ ___ _ ___
 72
65
 73
4
 40
28.574999999999992
 49
19.050000000000001
 74
0
 49
-3.174999999999998
 74
0
 49
3.174999999999998
 74
0
 49
-3.174999999999998
 74
0
  0
LTYPE
  5
5B
100
AcDbSymbolTableRecord
100
AcDbLinetypeTableRecord
  2
PHANTOM2
 70
0
  3
Phantom (.5x) ___ _ _ ___ _ _ ___ _ _ ___ _ _
 72
65
 73
6
 40
31.749999999999986
 49
15.875
 74
0
 49
-3.174999999999998
 74
0
 49
3.174999999999998
 74
0
 49
-3.174999999999998
 74
0
 49
3.174999999999998
 74
0
 49
-3.174999999999998
 74
0
  0
LTYPE
  5
5C
100
AcDbSymbolTableRecord
100
AcDbLinetypeTableRecord
  2
ACAD_ISO03W100
 70
0
  3
ISO dash space __    __    __    __    __    __
 72
65
 73
2
 40
30.0
 49
12.0
 74
0
 49
-18.0
 74
0
  0
LTYPE
  5
5D
100
AcDbSymbolTableRecord
100
AcDbLinetypeTableRecord
  2
DRAINAGE
 70
0
  3
Drainage ---->---->---->----
 72
65
 73
2
 40
10.16
 49
5.0800000000000001
 74
0
 49
5.0800000000000001
 74
0
  0
LTYPE
  5
5E
100
AcDbSymbolTableRecord
100
AcDbLinetypeTableRecord
  2
ACAD_ISO11W100
 70
0
  3
ISO double-dash dot __ __ . __ __ . __ __ . __ _
 72
65
 73
6
 40
33.0
 49
12.0
 74
0
 49
-3.0
 74
0
 49
12.0
 74
0
 49
-2.9500000000000002
 74
0
 49
0.1
 74
0
 49
-2.9500000000000002
 74
0
  0
LTYPE
  5
5F
100
AcDbSymbolTableRecord
100
AcDbLinetypeTableRecord
  2
FENCELINE2
 70
0
  3
Fenceline square ----[]-----[]----[]-----[]----[]---
 72
65
 73
4
 40
36.829999999999998
 49
6.3499999999999996
 74
0
 49
-2.54
 74
0
 49
-2.54
 74
0
 49
25.399999999999999
 74
0
  0
ENDTAB
  0
TABLE
  2
LAYER
  5
2
100
AcDbSymbolTable
 70
1
  0
LAYER
  5
10
100
AcDbSymbolTableRecord
100
AcDbLayerTableRecord
  2
0
 70
0
 62
7
420
16777215
  6
Continuous
370
25
390
F
  0
ENDTAB
  0
TABLE
  2
STYLE
  5
3
100
AcDbSymbolTable
 70
1
  0
STYLE
  5
60
100
AcDbSymbolTableRecord
100
AcDbTextStyleTableRecord
  2
Standard
 70
0
 40
0.0
 41
1.0
 50
0.0
 71
0
 42
2.5
  3

  4

1001
ACAD
1000
txt
1071
0
  0
ENDTAB
  0
TABLE
  2
VIEW
  5
6
100
AcDbSymbolTable
 70
0
  0
ENDTAB
  0
TABLE
  2
UCS
  5
7
100
AcDbSymbolTable
 70
0
  0
ENDTAB
  0
TABLE
  2
APPID
  5
9
100
AcDbSymbolTable
 70
1
  0
APPID
  5
12
100
AcDbSymbolTableRecord
100
AcDbRegAppTableRecord
  2
ACAD
 70
0
  0
APPID
  5
61
100
AcDbSymbolTableRecord
100
AcDbRegAppTableRecord
  2
QCAD
 70
0
  0
ENDTAB
  0
TABLE
  2
DIMSTYLE
  5
A
100
AcDbSymbolTable
 70
1
100
AcDbDimStyleTable
 71
0
  0
DIMSTYLE
105
27
100
AcDbSymbolTableRecord
100
AcDbDimStyleTableRecord
  2
Standard
 41
2.5
 42
0.625
 43
3.75
 44
1.25
 70
0
 73
0
 74
0
 77
1
 78
8
140
2.5
141
2.5
143
0.03937007874016
147
0.625
171
3
172
1
271
2
272
2
274
3
278
44
283
0
284
8
340
60
  0
ENDTAB
  0
TABLE
  2
BLOCK_RECORD
  5
1
100
AcDbSymbolTable
 70
1
  0
BLOCK_RECORD
  5
1F
100
AcDbSymbolTableRecord
100
AcDbBlockTableRecord
  2
*Model_Space
340
22
  0
BLOCK_RECORD
  5
1B
100
AcDbSymbolTableRecord
100
AcDbBlockTableRecord
  2
*Paper_Space
340
1E
  0
BLOCK_RECORD
  5
23
100
AcDbSymbolTableRecord
100
AcDbBlockTableRecord
  2
*Paper_Space0
340
26
  0
ENDTAB
  0
ENDSEC
  0
SECTION
  2
BLOCKS
  0
BLOCK
  5
20
100
AcDbEntity
  8
0
100
AcDbBlockBegin
  2
*Model_Space
 70
0
 10
0.0
 20
0.0
 30
0.0
  3
*Model_Space
  1

  0
ENDBLK
  5
21
100
AcDbEntity
  8
0
100
AcDbBlockEnd
  0
BLOCK
  5
1C
100
AcDbEntity
 67
1
  8
0
100
AcDbBlockBegin
  2
*Paper_Space
 70
0
 10
0.0
 20
0.0
 30
0.0
  3
*Paper_Space
  1

  0
ENDBLK
  5
1D
100
AcDbEntity
 67
1
  8
0
100
AcDbBlockEnd
  0
BLOCK
  5
24
100
AcDbEntity
  8
0
100
AcDbBlockBegin
  2
*Paper_Space0
 70
0
 10
0.0
 20
0.0
 30
0.0
  3
*Paper_Space0
  1

  0
ENDBLK
  5
25
100
AcDbEntity
  8
0
100
AcDbBlockEnd
  0
ENDSEC
  0
SECTION
  2
ENTITIES
  0
ARC
  5
62
100
AcDbEntity
  8
0
 62
256
370
13
 48
1.0
  6
ByLayer
100
AcDbCircle
 10
-17.5
 20
108.5
 30
0.0
 40
1.5
100
AcDbArc
 50
90.0
 51
228.18968510422161
  0
ARC
  5
63
100
AcDbEntity
  8
0
 62
256
370
13
 48
1.0
  6
ByLayer
100
AcDbCircle
 10
17.5
 20
108.5
 30
0.0
 40
1.5
100
AcDbArc
 50
311.81031489577919
 51
90.0
  0
ARC
  5
64
100
AcDbEntity
  8
0
 62
256
370
13
 48
1.0
  6
ByLayer
100
AcDbCircle
 10
-20.5
 20
105.1458980337503
 30
0.0
 40
3.0
100
AcDbArc
 50
0.0
 51
48.189685104221361
  0
ARC
  5
65
100
AcDbEntity
  8
0
 62
256
370
13
 48
1.0
  6
ByLayer
100
AcDbCircle
 10
20.5
 20
105.1458980337504
 30
0.0
 40
3.0
100
AcDbArc
 50
131.8103148957793
 51
180.0
  0
LINE
  5
66
100
AcDbEntity
100
AcDbLine
  8
0
 62
256
370
13
 48
1.0
  6
ByLayer
 10
-17.5
 20
-110.0
 30
0.0
 11
-12.0777472107018
 21
-110.0
 31
0.0
  0
LINE
  5
67
100
AcDbEntity
100
AcDbLine
  8
0
 62
256
370
13
 48
1.0
  6
ByLayer
 10
12.077747210701769
 20
-110.0
 30
0.0
 11
17.5
 21
-110.0
 31
0.0
  0
ARC
  5
68
100
AcDbEntity
  8
0
 62
256
370
13
 48
1.0
  6
ByLayer
100
AcDbCircle
 10
-17.5
 20
-108.5
 30
0.0
 40
1.5
100
AcDbArc
 50
131.81031489577919
 51
270.0
  0
ARC
  5
69
100
AcDbEntity
  8
0
 62
256
370
13
 48
1.0
  6
ByLayer
100
AcDbCircle
 10
17.5
 20
-108.5
 30
0.0
 40
1.5
100
AcDbArc
 50
270.0
 51
48.189685104221532
  0
LINE
  5
6A
100
AcDbEntity
100
AcDbLine
  8
0
 62
256
370
13
 48
1.0
  6
ByLayer
 10
10.963575181639451
 20
-109.7854300726558
 30
0.0
 11
4.5364248183605964
 21
-107.2145699273442
 31
0.0
  0
LINE
  5
6B
100
AcDbEntity
100
AcDbLine
  8
0
 62
256
370
13
 48
1.0
  6
ByLayer
 10
-4.5364248183605751
 20
-107.2145699273442
 30
0.0
 11
-10.963575181639481
 21
-109.7854300726558
 31
0.0
  0
ARC
  5
6C
100
AcDbEntity
  8
0
 62
256
370
13
 48
1.0
  6
ByLayer
100
AcDbCircle
 10
-20.5
 20
-105.1458980337504
 30
0.0
 40
3.0
100
AcDbArc
 50
311.81031489577941
 51
0.0
  0
ARC
  5
6D
100
AcDbEntity
  8
0
 62
256
370
13
 48
1.0
  6
ByLayer
100
AcDbCircle
 10
-12.0777472107018
 20
-107.0
 30
0.0
 40
3.0
100
AcDbArc
 50
270.0
 51
291.80140948635182
  0
ARC
  5
6E
100
AcDbEntity
  8
0
 62
256
370
13
 48
1.0
  6
ByLayer
100
AcDbCircle
 10
-3.422252789298263
 20
-110.0
 30
0.0
 40
3.0
100
AcDbArc
 50
90.0
 51
111.8014094863518
  0
ARC
  5
6F
100
AcDbEntity
  8
0
 62
256
370
13
 48
1.0
  6
ByLayer
100
AcDbCircle
 10
3.422252789298283
 20
-110.0
 30
0.0
 40
3.0
100
AcDbArc
 50
68.198590513648156
 51
90.0
  0
ARC
  5
70
100
AcDbEntity
  8
0
 62
256
370
13
 48
1.0
  6
ByLayer
100
AcDbCircle
 10
12.077747210701769
 20
-107.0
 30
0.0
 40
3.0
100
AcDbArc
 50
248.19859051364838
 51
270.0
  0
ARC
  5
71
100
AcDbEntity
  8
0
 62
256
370
13
 48
1.0
  6
ByLayer
100
AcDbCircle
 10
20.5
 20
-105.1458980337503
 30
0.0
 40
3.0
100
AcDbArc
 50
180.0
 51
228.18968510422141
  0
LINE
  5
72
100
AcDbEntity
100
AcDbLine
  8
0
 62
256
370
13
 48
1.0
  6
ByLayer
 10
0.0000000000000093
 20
-107.0
 30
0.0
 11
0.0000000000000093
 21
-107.0
 31
0.0
  0
CIRCLE
  5
73
100
AcDbEntity
100
AcDbCircle
  8
0
 62
256
370
13
 48
1.0
  6
ByLayer
 10
12.0
 20
-46.0
 30
0.0
 40
1.5
  0
CIRCLE
  5
74
100
AcDbEntity
100
AcDbCircle
  8
0
 62
256
370
13
 48
1.0
  6
ByLayer
 10
-12.0
 20
-46.0
 30
0.0
 40
1.5
  0
LINE
  5
75
100
AcDbEntity
100
AcDbLine
  8
0
 62
256
370
13
 48
1.0
  6
ByLayer
 10
15.5
 20
77.5
 30
0.0
 11
15.5
 21
84.500000000000014
 31
0.0
  0
LINE
  5
76
100
AcDbEntity
100
AcDbLine
  8
0
 62
256
370
13
 48
1.0
  6
ByLayer
 10
-15.5
 20
84.500000000000014
 30
0.0
 11
-15.5
 21
77.5
 31
0.0
  0
LINE
  5
77
100
AcDbEntity
100
AcDbLine
  8
0
 62
256
370
13
 48
1.0
  6
ByLayer
 10
15.5
 20
90.171572875253759
 30
0.0
 11
15.5
 21
71.828427124746185
 31
0.0
  0
LINE
  5
78
100
AcDbEntity
100
AcDbLine
  8
0
 62
256
370
13
 48
1.0
  6
ByLayer
 10
17.5
 20
105.1458980337504
 30
0.0
 11
17.5
 21
93.828427124746185
 31
0.0
  0
LINE
  5
79
100
AcDbEntity
100
AcDbLine
  8
0
 62
256
370
13
 48
1.0
  6
ByLayer
 10
17.5
 20
68.171572875253815
 30
0.0
 11
17.5
 21
45.821493972538349
 31
0.0
  0
LINE
  5
7A
100
AcDbEntity
100
AcDbLine
  8
0
 62
256
370
13
 48
1.0
  6
ByLayer
 10
16.085786437626901
 20
91.585786437626936
 30
0.0
 11
16.914213562373089
 21
92.414213562373078
 31
0.0
  0
LINE
  5
7B
100
AcDbEntity
100
AcDbLine
  8
0
 62
256
370
13
 48
1.0
  6
ByLayer
 10
16.914213562373089
 20
69.585786437626894
 30
0.0
 11
16.085786437626901
 21
70.414213562373092
 31
0.0
  0
LINE
  5
7C
100
AcDbEntity
100
AcDbLine
  8
0
 62
256
370
13
 48
1.0
  6
ByLayer
 10
-15.5
 20
71.828427124746199
 30
0.0
 11
-15.5
 21
90.171572875253759
 31
0.0
  0
LINE
  5
7D
100
AcDbEntity
100
AcDbLine
  8
0
 62
256
370
13
 48
1.0
  6
ByLayer
 10
-16.085786437626901
 20
91.585786437626936
 30
0.0
 11
-16.914213562373082
 21
92.414213562373078
 31
0.0
  0
LINE
  5
7E
100
AcDbEntity
100
AcDbLine
  8
0
 62
256
370
13
 48
1.0
  6
ByLayer
 10
-16.914213562373082
 20
69.585786437626894
 30
0.0
 11
-16.08578643762689
 21
70.414213562373121
 31
0.0
  0
LINE
  5
7F
100
AcDbEntity
100
AcDbLine
  8
0
 62
256
370
13
 48
1.0
  6
ByLayer
 10
-17.5
 20
105.1458980337503
 30
0.0
 11
-17.499999999999989
 21
93.828427124746185
 31
0.0
  0
LINE
  5
80
100
AcDbEntity
100
AcDbLine
  8
0
 62
256
370
13
 48
1.0
  6
ByLayer
 10
-17.499999999999961
 20
45.82149397253842
 30
0.0
 11
-17.499999999999979
 21
68.171572875253815
 31
0.0
  0
ARC
  5
81
100
AcDbEntity
  8
0
 62
256
370
13
 48
1.0
  6
ByLayer
100
AcDbCircle
 10
-15.499999999999989
 20
93.828427124746185
 30
0.0
 40
2.0
100
AcDbArc
 50
180.0
 51
224.99999999999989
  0
ARC
  5
82
100
AcDbEntity
  8
0
 62
256
370
13
 48
1.0
  6
ByLayer
100
AcDbCircle
 10
-17.5
 20
90.171572875253759
 30
0.0
 40
2.0
100
AcDbArc
 50
0.0
 51
44.999999999999915
  0
ARC
  5
83
100
AcDbEntity
  8
0
 62
256
370
13
 48
1.0
  6
ByLayer
100
AcDbCircle
 10
-15.49999999999998
 20
68.171572875253815
 30
0.0
 40
2.0
100
AcDbArc
 50
135.0000000000002
 51
180.0
  0
ARC
  5
84
100
AcDbEntity
  8
0
 62
256
370
13
 48
1.0
  6
ByLayer
100
AcDbCircle
 10
-17.5
 20
71.828427124746199
 30
0.0
 40
2.0
100
AcDbArc
 50
315.00000000000023
 51
0.0
  0
ARC
  5
85
100
AcDbEntity
  8
0
 62
256
370
13
 48
1.0
  6
ByLayer
100
AcDbCircle
 10
15.5
 20
93.828427124746185
 30
0.0
 40
2.0
100
AcDbArc
 50
315.00000000000011
 51
0.0
  0
ARC
  5
86
100
AcDbEntity
  8
0
 62
256
370
13
 48
1.0
  6
ByLayer
100
AcDbCircle
 10
17.5
 20
90.171572875253759
 30
0.0
 40
2.0
100
AcDbArc
 50
135.0
 51
180.0
  0
ARC
  5
87
100
AcDbEntity
  8
0
 62
256
370
13
 48
1.0
  6
ByLayer
100
AcDbCircle
 10
17.5
 20
71.828427124746185
 30
0.0
 40
2.0
100
AcDbArc
 50
180.0
 51
225.0
  0
ARC
  5
88
100
AcDbEntity
  8
0
 62
256
370
13
 48
1.0
  6
ByLayer
100
AcDbCircle
 10
15.5
 20
68.171572875253815
 30
0.0
 40
2.0
100
AcDbArc
 50
0.0
 51
44.999999999999972
  0
LINE
  5
89
100
AcDbEntity
100
AcDbLine
  8
0
 62
256
370
13
 48
1.0
  6
ByLayer
 10
15.49999999999997
 20
-85.488853288293228
 30
0.0
 11
15.49999999999997
 21
-67.145707249492347
 31
0.0
  0
LINE
  5
8A
100
AcDbEntity
100
AcDbLine
  8
0
 62
256
370
13
 48
1.0
  6
ByLayer
 10
-17.5
 20
-45.821494033750263
 30
0.0
 11
-17.500000000000011
 21
-63.488852999999999
 31
0.0
  0
LINE
  5
8B
100
AcDbEntity
100
AcDbLine
  8
0
 62
256
370
13
 48
1.0
  6
ByLayer
 10
17.499999999999972
 20
-63.488852999999999
 30
0.0
 11
17.499999999999961
 21
-45.821494033750263
 31
0.0
  0
LINE
  5
8C
100
AcDbEntity
100
AcDbLine
  8
0
 62
256
370
13
 48
1.0
  6
ByLayer
 10
16.91421356237306
 20
-64.903066562373084
 30
0.0
 11
16.085786437626879
 21
-65.731493687119269
 31
0.0
  0
LINE
  5
8D
100
AcDbEntity
100
AcDbLine
  8
0
 62
256
370
-1
 48
1.0
  6
ByLayer
 10
-5.7149999038260386
 20
-97.325000006599936
 30
0.0
 11
5.7150000902204843
 21
-97.325000006599907
 31
0.0
  0
ARC
  5
8E
100
AcDbEntity
  8
0
 62
256
370
-1
 48
1.0
  6
ByLayer
100
AcDbCircle
 10
-5.7149999038260386
 20
-96.224999999999937
 30
0.0
 40
1.100000006600002
100
AcDbArc
 50
90.00000015313573
 51
270.00000015313572
  0
LINE
  5
8F
100
AcDbEntity
100
AcDbLine
  8
0
 62
256
370
-1
 48
1.0
  6
ByLayer
 10
5.7150000873172404
 20
-95.125
 30
0.0
 11
-5.714999906802781
 21
-95.125
 31
0.0
  0
ARC
  5
90
100
AcDbEntity
  8
0
 62
256
370
-1
 48
1.0
  6
ByLayer
100
AcDbCircle
 10
5.7150000873172404
 20
-96.225000003299954
 30
0.0
 40
1.100000003299952
100
AcDbArc
 50
270.00000015122146
 51
90.000000151221542
  0
LINE
  5
91
100
AcDbEntity
100
AcDbLine
  8
0
 62
256
370
13
 48
1.0
  6
ByLayer
 10
-16.085786437626915
 20
-65.731493687119297
 30
0.0
 11
-16.914213562373106
 21
-64.903066562373098
 31
0.0
  0
LINE
  5
92
100
AcDbEntity
100
AcDbLine
  8
0
 62
256
370
13
 48
1.0
  6
ByLayer
 10
-16.914213562373092
 20
-87.731493687119283
 30
0.0
 11
-16.085786437626922
 21
-86.903066562373098
 31
0.0
  0
LINE
  5
93
100
AcDbEntity
100
AcDbLine
  8
0
 62
256
370
13
 48
1.0
  6
ByLayer
 10
16.914213562373064
 20
-87.731493725920132
 30
0.0
 11
16.085786437626894
 21
-86.903066601173947
 31
0.0
  0
LINE
  5
94
100
AcDbEntity
100
AcDbLine
  8
0
 62
256
370
13
 48
1.0
  6
ByLayer
 10
-17.500000000000011
 20
-89.145707000000002
 30
0.0
 11
-17.5
 21
-105.1458980337504
 31
0.0
  0
LINE
  5
95
100
AcDbEntity
100
AcDbLine
  8
0
 62
256
370
13
 48
1.0
  6
ByLayer
 10
17.5
 20
-105.1458980337503
 30
0.0
 11
17.499999999999972
 21
-89.145707000000002
 31
0.0
  0
LINE
  5
96
100
AcDbEntity
100
AcDbLine
  8
0
 62
256
370
13
 48
1.0
  6
ByLayer
 10
-15.500000000000014
 20
-67.145707249492389
 30
0.0
 11
-15.500000000000014
 21
-85.488853000000006
 31
0.0
  0
ARC
  5
97
100
AcDbEntity
  8
0
 62
256
370
13
 48
1.0
  6
ByLayer
100
AcDbCircle
 10
-15.500000000000004
 20
-89.145707249492389
 30
0.0
 40
2.0
100
AcDbArc
 50
134.9999999999998
 51
180.0
  0
ARC
  5
98
100
AcDbEntity
  8
0
 62
256
370
13
 48
1.0
  6
ByLayer
100
AcDbCircle
 10
15.499999999999973
 20
-89.145707288293238
 30
0.0
 40
2.0
100
AcDbArc
 50
0.0
 51
45.000000000000199
  0
ARC
  5
99
100
AcDbEntity
  8
0
 62
256
370
13
 48
1.0
  6
ByLayer
100
AcDbCircle
 10
-17.500000000000014
 20
-85.488853000000006
 30
0.0
 40
2.0
100
AcDbArc
 50
314.99999999999989
 51
0.0
  0
ARC
  5
9A
100
AcDbEntity
  8
0
 62
256
370
13
 48
1.0
  6
ByLayer
100
AcDbCircle
 10
17.499999999999986
 20
-85.488853038800841
 30
0.0
 40
2.0
100
AcDbArc
 50
180.0
 51
225.00000000000011
  0
ARC
  5
9B
100
AcDbEntity
  8
0
 62
256
370
13
 48
1.0
  6
ByLayer
100
AcDbCircle
 10
-15.500000000000011
 20
-63.488852999999999
 30
0.0
 40
2.0
100
AcDbArc
 50
180.0
 51
225.0
  0
ARC
  5
9C
100
AcDbEntity
  8
0
 62
256
370
13
 48
1.0
  6
ByLayer
100
AcDbCircle
 10
-17.500000000000014
 20
-67.145707249492389
 30
0.0
 40
2.0
100
AcDbArc
 50
0.0
 51
44.999999999999837
  0
ARC
  5
9D
100
AcDbEntity
  8
0
 62
256
370
13
 48
1.0
  6
ByLayer
100
AcDbCircle
 10
17.499999999999972
 20
-67.145707249492347
 30
0.0
 40
2.0
100
AcDbArc
 50
134.9999999999998
 51
180.0
  0
ARC
  5
9E
100
AcDbEntity
  8
0
 62
256
370
13
 48
1.0
  6
ByLayer
100
AcDbCircle
 10
15.49999999999997
 20
-63.488852999999999
 30
0.0
 40
2.0
100
AcDbArc
 50
314.99999999999989
 51
0.0
  0
CIRCLE
  5
9F
100
AcDbEntity
100
AcDbCircle
  8
0
 62
256
370
13
 48
1.0
  6
ByLayer
 10
-12.0
 20
46.0
 30
0.0
 40
1.5
  0
CIRCLE
  5
A0
100
AcDbEntity
100
AcDbCircle
  8
0
 62
256
370
13
 48
1.0
  6
ByLayer
 10
12.0
 20
46.0
 30
0.0
 40
1.5
  0
LINE
  5
A1
100
AcDbEntity
100
AcDbLine
  8
0
 62
256
370
13
 48
1.0
  6
ByLayer
 10
3.422252789298283
 20
-107.0
 30
0.0
 11
-3.422252789298263
 21
-107.0
 31
0.0
  0
LINE
  5
A2
100
AcDbEntity
100
AcDbLine
  8
0
 62
256
370
13
 48
1.0
  6
ByLayer
 10
17.5
 20
-9.3925016810046102
 30
0.0
 11
17.5
 21
9.3333333333333393
 31
0.0
  0
LINE
  5
A3
100
AcDbEntity
100
AcDbLine
  8
0
 62
256
370
13
 48
1.0
  6
ByLayer
 10
-17.5
 20
9.3333333333333304
 30
0.0
 11
-17.5
 21
-9.3061017849087122
 31
0.0
  0
CIRCLE
  5
A4
100
AcDbEntity
100
AcDbCircle
  8
0
 62
256
370
-1
 48
1.0
  6
ByLayer
 10
12.578833093197218
 20
-92.442763999999997
 30
0.0
 40
1.9049999999999987
  0
LINE
  5
A5
100
AcDbEntity
100
AcDbLine
  8
0
 62
256
370
13
 48
1.0
  6
ByLayer
 10
17.5
 20
45.821493972538349
 30
0.0
 11
17.5
 21
33.166666666666679
 31
0.0
  0
CIRCLE
  5
A6
100
AcDbEntity
100
AcDbCircle
  8
0
 62
256
370
-1
 48
1.0
  6
ByLayer
 10
-12.578833093197218
 20
-92.442763999999997
 30
0.0
 40
1.905
  0
LINE
  5
A7
100
AcDbEntity
100
AcDbLine
  8
0
 62
256
370
13
 48
1.0
  6
ByLayer
 10
17.5
 20
-33.136949696438052
 30
0.0
 11
17.499999999999961
 21
-45.821494033750263
 31
0.0
  0
LINE
  5
A8
100
AcDbEntity
100
AcDbLine
  8
0
 62
256
370
13
 48
1.0
  6
ByLayer
 10
-17.5
 20
-45.821494033750263
 30
0.0
 11
-17.5
 21
-33.225567005641921
 31
0.0
  0
LINE
  5
A9
100
AcDbEntity
100
AcDbLine
  8
0
 62
256
370
13
 48
1.0
  6
ByLayer
 10
-17.5
 20
33.166666666666657
 30
0.0
 11
-17.499999999999961
 21
45.82149397253842
 31
0.0
  0
LINE
  5
AA
100
AcDbEntity
100
AcDbLine
  8
0
 62
256
370
13
 48
1.0
  6
ByLayer
 10
19.0
 20
12.66666666666667
 30
0.0
 11
19.0
 21
29.833333333333321
 31
0.0
  0
LINE
  5
AB
100
AcDbEntity
100
AcDbLine
  8
0
 62
256
370
13
 48
1.0
  6
ByLayer
 10
-19.0
 20
29.833333333333321
 30
0.0
 11
-19.0
 21
12.66666666666667
 31
0.0
  0
LINE
  5
AC
100
AcDbEntity
100
AcDbLine
  8
0
 62
256
370
13
 48
1.0
  6
ByLayer
 10
18.8769525370313
 20
-29.920521025851588
 30
0.0
 11
18.8769525370313
 21
-12.664969041285049
 31
0.0
  0
LINE
  5
AD
100
AcDbEntity
100
AcDbLine
  8
0
 62
256
370
13
 48
1.0
  6
ByLayer
 10
-19.1230474629687
 20
-12.751368937380949
 30
0.0
 11
-19.1230474629687
 21
-29.831903716647751
 31
0.0
  0
LINE
  5
AE
100
AcDbEntity
100
AcDbLine
  8
0
 62
256
370
13
 48
1.0
  6
ByLayer
 10
-17.96521912121143
 20
-31.94320681673047
 30
0.0
 11
-18.657828341757241
 21
-31.114263905559199
 31
0.0
  0
LINE
  5
AF
100
AcDbEntity
100
AcDbLine
  8
0
 62
256
370
13
 48
1.0
  6
ByLayer
 10
17.868345064907341
 20
-31.980358942200532
 30
0.0
 11
18.50860747212397
 21
-31.07711178008913
 31
0.0
  0
LINE
  5
B0
100
AcDbEntity
100
AcDbLine
  8
0
 62
256
370
13
 48
1.0
  6
ByLayer
 10
18.53907235514502
 20
-11.552603224553151
 30
0.0
 11
17.83788018188627
 21
-10.5048674977365
 31
0.0
  0
LINE
  5
B1
100
AcDbEntity
100
AcDbLine
  8
0
 62
256
370
13
 48
1.0
  6
ByLayer
 10
-18.693284839912302
 20
-11.51267826572426
 30
0.0
 11
-17.929762623056391
 21
-10.544792456565389
 31
0.0
  0
LINE
  5
B2
100
AcDbEntity
100
AcDbLine
  8
0
 62
256
370
13
 48
1.0
  6
ByLayer
 10
17.899999999999999
 20
10.53333333333333
 30
0.0
 11
18.600000000000001
 21
11.46666666666666
 31
0.0
  0
LINE
  5
B3
100
AcDbEntity
100
AcDbLine
  8
0
 62
256
370
13
 48
1.0
  6
ByLayer
 10
-17.899999999999999
 20
10.53333333333333
 30
0.0
 11
-18.600000000000001
 21
11.46666666666666
 31
0.0
  0
LINE
  5
B4
100
AcDbEntity
100
AcDbLine
  8
0
 62
256
370
13
 48
1.0
  6
ByLayer
 10
-18.600000000000001
 20
31.033333333333331
 30
0.0
 11
-17.899999999999991
 21
31.966666666666669
 31
0.0
  0
LINE
  5
B5
100
AcDbEntity
100
AcDbLine
  8
0
 62
256
370
13
 48
1.0
  6
ByLayer
 10
17.899999999999991
 20
31.966666666666679
 30
0.0
 11
18.600000000000001
 21
31.033333333333331
 31
0.0
  0
ARC
  5
B6
100
AcDbEntity
  8
0
 62
256
370
13
 48
1.0
  6
ByLayer
100
AcDbCircle
 10
-19.5
 20
33.166666666666671
 30
0.0
 40
2.0
100
AcDbArc
 50
323.13010235415612
 51
360.0
  0
ARC
  5
B7
100
AcDbEntity
  8
0
 62
256
370
13
 48
1.0
  6
ByLayer
100
AcDbCircle
 10
-17.0
 20
29.833333333333321
 30
0.0
 40
2.0
100
AcDbArc
 50
143.13010235415601
 51
180.0
  0
ARC
  5
B8
100
AcDbEntity
  8
0
 62
256
370
13
 48
1.0
  6
ByLayer
100
AcDbCircle
 10
-17.0
 20
12.66666666666667
 30
0.0
 40
2.0
100
AcDbArc
 50
180.0
 51
216.86989764584399
  0
ARC
  5
B9
100
AcDbEntity
  8
0
 62
256
370
13
 48
1.0
  6
ByLayer
100
AcDbCircle
 10
-19.5
 20
9.3333333333333304
 30
0.0
 40
2.0
100
AcDbArc
 50
0.0
 51
36.86989764584407
  0
ARC
  5
BA
100
AcDbEntity
  8
0
 62
256
370
13
 48
1.0
  6
ByLayer
100
AcDbCircle
 10
19.5
 20
33.166666666666679
 30
0.0
 40
2.0
100
AcDbArc
 50
180.0
 51
216.86989764584399
  0
ARC
  5
BB
100
AcDbEntity
  8
0
 62
256
370
13
 48
1.0
  6
ByLayer
100
AcDbCircle
 10
17.0
 20
29.833333333333321
 30
0.0
 40
2.0
100
AcDbArc
 50
0.0
 51
36.869897645844013
  0
ARC
  5
BC
100
AcDbEntity
  8
0
 62
256
370
13
 48
1.0
  6
ByLayer
100
AcDbCircle
 10
17.0
 20
12.66666666666667
 30
0.0
 40
2.0
100
AcDbArc
 50
323.13010235415589
 51
0.0
  0
ARC
  5
BD
100
AcDbEntity
  8
0
 62
256
370
13
 48
1.0
  6
ByLayer
100
AcDbCircle
 10
19.5
 20
9.3333333333333304
 30
0.0
 40
2.0
100
AcDbArc
 50
143.13010235415587
 51
180.0
  0
ARC
  5
BE
100
AcDbEntity
  8
0
 62
256
370
13
 48
1.0
  6
ByLayer
100
AcDbCircle
 10
19.5
 20
-9.3925016810046102
 30
0.0
 40
2.0
100
AcDbArc
 50
180.0
 51
213.79222927715523
  0
ARC
  5
BF
100
AcDbEntity
  8
0
 62
256
370
13
 48
1.0
  6
ByLayer
100
AcDbCircle
 10
16.87695253703129
 20
-12.66496904128504
 30
0.0
 40
2.0
100
AcDbArc
 50
360.0
 51
33.79222927715513
  0
ARC
  5
C0
100
AcDbEntity
  8
0
 62
256
370
13
 48
1.0
  6
ByLayer
100
AcDbCircle
 10
-19.5
 20
-9.3061017849087122
 30
0.0
 40
2.0
100
AcDbArc
 50
321.73165682663284
 51
0.0
  0
ARC
  5
C1
100
AcDbEntity
  8
0
 62
256
370
13
 48
1.0
  6
ByLayer
100
AcDbCircle
 10
-17.1230474629687
 20
-12.751368937380949
 30
0.0
 40
2.0
100
AcDbArc
 50
141.7316568266327
 51
180.0
  0
ARC
  5
C2
100
AcDbEntity
  8
0
 62
256
370
13
 48
1.0
  6
ByLayer
100
AcDbCircle
 10
16.8769525370313
 20
-29.920521025851588
 30
0.0
 40
2.0
100
AcDbArc
 50
324.66926235217858
 51
0.0
  0
ARC
  5
C3
100
AcDbEntity
  8
0
 62
256
370
13
 48
1.0
  6
ByLayer
100
AcDbCircle
 10
19.5
 20
-33.136949696438052
 30
0.0
 40
2.0
100
AcDbArc
 50
144.66926235217849
 51
180.0
  0
ARC
  5
C4
100
AcDbEntity
  8
0
 62
256
370
13
 48
1.0
  6
ByLayer
100
AcDbCircle
 10
-19.5
 20
-33.225567005641921
 30
0.0
 40
2.0
100
AcDbArc
 50
0.0
 51
39.879872558607218
  0
ARC
  5
C5
100
AcDbEntity
  8
0
 62
256
370
13
 48
1.0
  6
ByLayer
100
AcDbCircle
 10
-17.1230474629687
 20
-29.831903716647751
 30
0.0
 40
2.0
100
AcDbArc
 50
180.0
 51
219.8798725586071
  0
LINE
  5
C6
100
AcDbEntity
100
AcDbLine
  8
0
 62
256
370
13
 48
1.0
  6
ByLayer
 10
13.5
 20
11.220382000000001
 30
0.0
 11
13.5
 21
31.220382000000001
 31
0.0
  0
LINE
  5
C7
100
AcDbEntity
100
AcDbLine
  8
0
 62
256
370
13
 48
1.0
  6
ByLayer
 10
10.5
 20
31.220382000000001
 30
0.0
 11
10.5
 21
11.220382000000001
 31
0.0
  0
ARC
  5
C8
100
AcDbEntity
  8
0
 62
256
370
13
 48
1.0
  6
ByLayer
100
AcDbCircle
 10
12.0
 20
31.220382000000001
 30
0.0
 40
1.5
100
AcDbArc
 50
0.0
 51
180.0
  0
ARC
  5
C9
100
AcDbEntity
  8
0
 62
256
370
13
 48
1.0
  6
ByLayer
100
AcDbCircle
 10
12.0
 20
11.220382000000001
 30
0.0
 40
1.5
100
AcDbArc
 50
180.0
 51
0.0
  0
LINE
  5
CA
100
AcDbEntity
100
AcDbLine
  8
0
 62
256
370
13
 48
1.0
  6
ByLayer
 10
-10.5
 20
11.220381966229564
 30
0.0
 11
-10.5
 21
31.220381966229564
 31
0.0
  0
LINE
  5
CB
100
AcDbEntity
100
AcDbLine
  8
0
 62
256
370
13
 48
1.0
  6
ByLayer
 10
-13.5
 20
31.25
 30
0.0
 11
-13.500000000000004
 21
11.25
 31
0.0
  0
ARC
  5
CC
100
AcDbEntity
  8
0
 62
256
370
13
 48
1.0
  6
ByLayer
100
AcDbCircle
 10
-12.0
 20
31.220381966229564
 30
0.0
 40
1.5
100
AcDbArc
 50
0.0
 51
180.0
  0
ARC
  5
CD
100
AcDbEntity
  8
0
 62
256
370
13
 48
1.0
  6
ByLayer
100
AcDbCircle
 10
-12.0
 20
11.220381966229564
 30
0.0
 40
1.5
100
AcDbArc
 50
180.0
 51
0.0
  0
LINE
  5
CE
100
AcDbEntity
100
AcDbLine
  8
0
 62
256
370
13
 48
1.0
  6
ByLayer
 10
13.5
 20
-31.291636
 30
0.0
 11
13.5
 21
-11.291636
 31
0.0
  0
LINE
  5
CF
100
AcDbEntity
100
AcDbLine
  8
0
 62
256
370
13
 48
1.0
  6
ByLayer
 10
10.5
 20
-11.291636
 30
0.0
 11
10.5
 21
-31.291636
 31
0.0
  0
ARC
  5
D0
100
AcDbEntity
  8
0
 62
256
370
13
 48
1.0
  6
ByLayer
100
AcDbCircle
 10
12.0
 20
-11.291636
 30
0.0
 40
1.5
100
AcDbArc
 50
0.0
 51
180.0
  0
ARC
  5
D1
100
AcDbEntity
  8
0
 62
256
370
13
 48
1.0
  6
ByLayer
100
AcDbCircle
 10
12.0
 20
-31.291636
 30
0.0
 40
1.5
100
AcDbArc
 50
180.0
 51
0.0
  0
LINE
  5
D2
100
AcDbEntity
100
AcDbLine
  8
0
 62
256
370
13
 48
1.0
  6
ByLayer
 10
-10.5
 20
-31.291636499999999
 30
0.0
 11
-10.5
 21
-11.291636499999999
 31
0.0
  0
LINE
  5
D3
100
AcDbEntity
100
AcDbLine
  8
0
 62
256
370
13
 48
1.0
  6
ByLayer
 10
-13.5
 20
-11.291636499999999
 30
0.0
 11
-13.500000000000004
 21
-31.291636499999999
 31
0.0
  0
ARC
  5
D4
100
AcDbEntity
  8
0
 62
256
370
13
 48
1.0
  6
ByLayer
100
AcDbCircle
 10
-12.0
 20
-11.291636499999999
 30
0.0
 40
1.5
100
AcDbArc
 50
0.0
 51
180.0
  0
ARC
  5
D5
100
AcDbEntity
  8
0
 62
256
370
13
 48
1.0
  6
ByLayer
100
AcDbCircle
 10
-12.0
 20
-31.291636499999999
 30
0.0
 40
1.5
100
AcDbArc
 50
180.0
 51
0.0
  0
LINE
  5
D6
100
AcDbEntity
100
AcDbLine
  8
0
 62
256
370
13
 48
1.0
  6
ByLayer
 10
-14.0
 20
101.0
 30
0.0
 11
-15.65
 21
101.0
 31
0.0
  0
LINE
  5
D7
100
AcDbEntity
100
AcDbLine
  8
0
 62
256
370
13
 48
1.0
  6
ByLayer
 10
-15.65
 20
61.0
 30
0.0
 11
-14.0
 21
61.0
 31
0.0
  0
LINE
  5
D8
100
AcDbEntity
100
AcDbLine
  8
0
 62
256
370
13
 48
1.0
  6
ByLayer
 10
-14.0
 20
67.0
 30
0.0
 11
-15.65
 21
67.0
 31
0.0
  0
LINE
  5
D9
100
AcDbEntity
100
AcDbLine
  8
0
 62
256
370
13
 48
1.0
  6
ByLayer
 10
14.0
 20
61.0
 30
0.0
 11
15.65
 21
61.0
 31
0.0
  0
LINE
  5
DA
100
AcDbEntity
100
AcDbLine
  8
0
 62
256
370
13
 48
1.0
  6
ByLayer
 10
15.65
 20
67.0
 30
0.0
 11
14.0
 21
67.0
 31
0.0
  0
LINE
  5
DB
100
AcDbEntity
100
AcDbLine
  8
0
 62
256
370
13
 48
1.0
  6
ByLayer
 10
15.65
 20
101.0
 30
0.0
 11
14.0
 21
101.0
 31
0.0
  0
LINE
  5
DC
100
AcDbEntity
100
AcDbLine
  8
0
 62
256
370
13
 48
1.0
  6
ByLayer
 10
-15.65
 20
94.999999999999986
 30
0.0
 11
-14.0
 21
94.999999999999986
 31
0.0
  0
LINE
  5
DD
100
AcDbEntity
100
AcDbLine
  8
0
 62
256
370
13
 48
1.0
  6
ByLayer
 10
14.0
 20
94.999999999999986
 30
0.0
 11
15.65
 21
94.999999999999986
 31
0.0
  0
ARC
  5
DE
100
AcDbEntity
  8
0
 62
256
370
13
 48
1.0
  6
ByLayer
100
AcDbCircle
 10
-15.65
 20
100.5
 30
0.0
 40
0.5
100
AcDbArc
 50
90.0
 51
240.0000000000002
  0
ARC
  5
DF
100
AcDbEntity
  8
0
 62
256
370
13
 48
1.0
  6
ByLayer
100
AcDbCircle
 10
-15.65
 20
95.499999999999943
 30
0.0
 40
0.5
100
AcDbArc
 50
119.99999999999947
 51
270.0
  0
ARC
  5
E0
100
AcDbEntity
  8
0
 62
256
370
13
 48
1.0
  6
ByLayer
100
AcDbCircle
 10
-14.0
 20
95.499999999999943
 30
0.0
 40
0.5
100
AcDbArc
 50
270.0
 51
60.000000000000099
  0
ARC
  5
E1
100
AcDbEntity
  8
0
 62
256
370
13
 48
1.0
  6
ByLayer
100
AcDbCircle
 10
-14.0
 20
100.5
 30
0.0
 40
0.5
100
AcDbArc
 50
300.0
 51
90.0
  0
ARC
  5
E2
100
AcDbEntity
  8
0
 62
256
370
13
 48
1.0
  6
ByLayer
100
AcDbCircle
 10
14.0
 20
100.5
 30
0.0
 40
0.5
100
AcDbArc
 50
90.0
 51
240.0000000000002
  0
ARC
  5
E3
100
AcDbEntity
  8
0
 62
256
370
13
 48
1.0
  6
ByLayer
100
AcDbCircle
 10
14.0
 20
95.499999999999943
 30
0.0
 40
0.5000000000000142
100
AcDbArc
 50
119.99999999999913
 51
270.0
  0
ARC
  5
E4
100
AcDbEntity
  8
0
 62
256
370
13
 48
1.0
  6
ByLayer
100
AcDbCircle
 10
15.65
 20
95.499999999999986
 30
0.0
 40
0.4999999999999858
100
AcDbArc
 50
270.0
 51
59.999999999999829
  0
ARC
  5
E5
100
AcDbEntity
  8
0
 62
256
370
13
 48
1.0
  6
ByLayer
100
AcDbCircle
 10
15.65
 20
100.5
 30
0.0
 40
0.5
100
AcDbArc
 50
300.0
 51
90.0
  0
ARC
  5
E6
100
AcDbEntity
  8
0
 62
256
370
13
 48
1.0
  6
ByLayer
100
AcDbCircle
 10
14.0
 20
66.5
 30
0.0
 40
0.5
100
AcDbArc
 50
90.0
 51
240.0000000000002
  0
ARC
  5
E7
100
AcDbEntity
  8
0
 62
256
370
13
 48
1.0
  6
ByLayer
100
AcDbCircle
 10
14.0
 20
61.5
 30
0.0
 40
0.5
100
AcDbArc
 50
120.0000000000003
 51
270.0
  0
ARC
  5
E8
100
AcDbEntity
  8
0
 62
256
370
13
 48
1.0
  6
ByLayer
100
AcDbCircle
 10
15.65
 20
61.500000000000007
 30
0.0
 40
0.5
100
AcDbArc
 50
270.0
 51
59.999999999999844
  0
ARC
  5
E9
100
AcDbEntity
  8
0
 62
256
370
13
 48
1.0
  6
ByLayer
100
AcDbCircle
 10
15.65
 20
66.5
 30
0.0
 40
0.5
100
AcDbArc
 50
300.0
 51
90.0
  0
ARC
  5
EA
100
AcDbEntity
  8
0
 62
256
370
13
 48
1.0
  6
ByLayer
100
AcDbCircle
 10
-14.0
 20
61.500000000000007
 30
0.0
 40
0.5
100
AcDbArc
 50
270.0
 51
59.99999999999968
  0
ARC
  5
EB
100
AcDbEntity
  8
0
 62
256
370
13
 48
1.0
  6
ByLayer
100
AcDbCircle
 10
-14.0
 20
66.5
 30
0.0
 40
0.5
100
AcDbArc
 50
300.0
 51
90.0
  0
ARC
  5
EC
100
AcDbEntity
  8
0
 62
256
370
13
 48
1.0
  6
ByLayer
100
AcDbCircle
 10
-15.65
 20
66.5
 30
0.0
 40
0.5
100
AcDbArc
 50
90.0
 51
240.0000000000002
  0
ARC
  5
ED
100
AcDbEntity
  8
0
 62
256
370
13
 48
1.0
  6
ByLayer
100
AcDbCircle
 10
-15.65
 20
61.500000000000007
 30
0.0
 40
0.5
100
AcDbArc
 50
120.0000000000001
 51
270.0
  0
LINE
  5
EE
100
AcDbEntity
100
AcDbLine
  8
0
 62
256
370
13
 48
1.0
  6
ByLayer
 10
-15.65
 20
99.633974596215552
 30
0.0
 11
-15.65
 21
96.366025403784448
 31
0.0
  0
LINE
  5
EF
100
AcDbEntity
100
AcDbLine
  8
0
 62
256
370
13
 48
1.0
  6
ByLayer
 10
-14.0
 20
96.366025403784406
 30
0.0
 11
-14.0
 21
99.633974596215552
 31
0.0
  0
LINE
  5
F0
100
AcDbEntity
100
AcDbLine
  8
0
 62
256
370
13
 48
1.0
  6
ByLayer
 10
14.0
 20
99.633974596215552
 30
0.0
 11
14.0
 21
96.366025403784448
 31
0.0
  0
LINE
  5
F1
100
AcDbEntity
100
AcDbLine
  8
0
 62
256
370
13
 48
1.0
  6
ByLayer
 10
15.65
 20
96.366025403784406
 30
0.0
 11
15.65
 21
99.633974596215552
 31
0.0
  0
LINE
  5
F2
100
AcDbEntity
100
AcDbLine
  8
0
 62
256
370
13
 48
1.0
  6
ByLayer
 10
14.0
 20
65.633974596215566
 30
0.0
 11
14.0
 21
62.366025403784413
 31
0.0
  0
LINE
  5
F3
100
AcDbEntity
100
AcDbLine
  8
0
 62
256
370
13
 48
1.0
  6
ByLayer
 10
15.65
 20
62.366025403784448
 30
0.0
 11
15.65
 21
65.633974596215566
 31
0.0
  0
LINE
  5
F4
100
AcDbEntity
100
AcDbLine
  8
0
 62
256
370
13
 48
1.0
  6
ByLayer
 10
-14.0
 20
65.633974596215566
 30
0.0
 11
-14.0
 21
62.366025403784413
 31
0.0
  0
LINE
  5
F5
100
AcDbEntity
100
AcDbLine
  8
0
 62
256
370
13
 48
1.0
  6
ByLayer
 10
-15.65
 20
62.366025403784448
 30
0.0
 11
-15.65
 21
65.633974596215566
 31
0.0
  0
ARC
  5
F6
100
AcDbEntity
  8
0
 62
256
370
13
 48
1.0
  6
ByLayer
100
AcDbCircle
 10
-16.149999999999999
 20
99.633974596215552
 30
0.0
 40
0.5
100
AcDbArc
 50
0.0
 51
59.999999999999439
  0
ARC
  5
F7
100
AcDbEntity
  8
0
 62
256
370
13
 48
1.0
  6
ByLayer
100
AcDbCircle
 10
-13.5
 20
99.633974596215552
 30
0.0
 40
0.5
100
AcDbArc
 50
120.0000000000003
 51
180.0
  0
ARC
  5
F8
100
AcDbEntity
  8
0
 62
256
370
13
 48
1.0
  6
ByLayer
100
AcDbCircle
 10
-13.5
 20
96.366025403784406
 30
0.0
 40
0.5
100
AcDbArc
 50
180.0
 51
239.99999999999957
  0
ARC
  5
F9
100
AcDbEntity
  8
0
 62
256
370
13
 48
1.0
  6
ByLayer
100
AcDbCircle
 10
-16.149999999999999
 20
96.366025403784448
 30
0.0
 40
0.5
100
AcDbArc
 50
300.0
 51
0.0
  0
ARC
  5
FA
100
AcDbEntity
  8
0
 62
256
370
13
 48
1.0
  6
ByLayer
100
AcDbCircle
 10
13.5
 20
99.633974596215552
 30
0.0
 40
0.5
100
AcDbArc
 50
0.0
 51
59.999999999999439
  0
ARC
  5
FB
100
AcDbEntity
  8
0
 62
256
370
13
 48
1.0
  6
ByLayer
100
AcDbCircle
 10
16.149999999999999
 20
99.633974596215552
 30
0.0
 40
0.5
100
AcDbArc
 50
120.0000000000003
 51
180.0
  0
ARC
  5
FC
100
AcDbEntity
  8
0
 62
256
370
13
 48
1.0
  6
ByLayer
100
AcDbCircle
 10
16.149999999999999
 20
96.366025403784406
 30
0.0
 40
0.5
100
AcDbArc
 50
180.0
 51
239.99999999999912
  0
ARC
  5
FD
100
AcDbEntity
  8
0
 62
256
370
13
 48
1.0
  6
ByLayer
100
AcDbCircle
 10
13.5
 20
96.366025403784448
 30
0.0
 40
0.5
100
AcDbArc
 50
299.9999999999996
 51
0.0
  0
ARC
  5
FE
100
AcDbEntity
  8
0
 62
256
370
13
 48
1.0
  6
ByLayer
100
AcDbCircle
 10
13.5
 20
65.633974596215566
 30
0.0
 40
0.5
100
AcDbArc
 50
0.0
 51
59.999999999999439
  0
ARC
  5
FF
100
AcDbEntity
  8
0
 62
256
370
13
 48
1.0
  6
ByLayer
100
AcDbCircle
 10
16.149999999999999
 20
65.633974596215566
 30
0.0
 40
0.5
100
AcDbArc
 50
120.0000000000003
 51
180.0
  0
ARC
  5
100
100
AcDbEntity
  8
0
 62
256
370
13
 48
1.0
  6
ByLayer
100
AcDbCircle
 10
16.149999999999999
 20
62.366025403784448
 30
0.0
 40
0.5
100
AcDbArc
 50
180.0
 51
240.0000000000002
  0
ARC
  5
101
100
AcDbEntity
  8
0
 62
256
370
13
 48
1.0
  6
ByLayer
100
AcDbCircle
 10
13.5
 20
62.366025403784413
 30
0.0
 40
0.5
100
AcDbArc
 50
300.0
 51
0.0
  0
ARC
  5
102
100
AcDbEntity
  8
0
 62
256
370
13
 48
1.0
  6
ByLayer
100
AcDbCircle
 10
-13.5
 20
62.366025403784413
 30
0.0
 40
0.5
100
AcDbArc
 50
180.0
 51
240.0
  0
ARC
  5
103
100
AcDbEntity
  8
0
 62
256
370
13
 48
1.0
  6
ByLayer
100
AcDbCircle
 10
-16.149999999999999
 20
62.366025403784448
 30
0.0
 40
0.5
100
AcDbArc
 50
299.99999999999972
 51
0.0
  0
ARC
  5
104
100
AcDbEntity
  8
0
 62
256
370
13
 48
1.0
  6
ByLayer
100
AcDbCircle
 10
-16.149999999999999
 20
65.633974596215566
 30
0.0
 40
0.5
100
AcDbArc
 50
0.0
 51
59.999999999999439
  0
ARC
  5
105
100
AcDbEntity
  8
0
 62
256
370
13
 48
1.0
  6
ByLayer
100
AcDbCircle
 10
-13.5
 20
65.633974596215566
 30
0.0
 40
0.5
100
AcDbArc
 50
120.0000000000003
 51
180.0
  0
CIRCLE
  5
106
100
AcDbEntity
100
AcDbCircle
  8
0
 62
256
370
13
 48
1.0
  6
ByLayer
 10
13.0
 20
105.0
 30
0.0
 40
1.5
  0
CIRCLE
  5
107
100
AcDbEntity
100
AcDbCircle
  8
0
 62
256
370
13
 48
1.0
  6
ByLayer
 10
-13.0
 20
105.0
 30
0.0
 40
1.5
  0
CIRCLE
  5
108
100
AcDbEntity
100
AcDbCircle
  8
0
 62
256
370
13
 48
1.0
  6
ByLayer
 10
13.0
 20
-105.0
 30
0.0
 40
1.5
  0
CIRCLE
  5
109
100
AcDbEntity
100
AcDbCircle
  8
0
 62
256
370
13
 48
1.0
  6
ByLayer
 10
-13.0
 20
-105.0
 30
0.0
 40
1.5
  0
LINE
  5
10A
100
AcDbEntity
100
AcDbLine
  8
0
 62
256
370
13
 48
1.0
  6
ByLayer
 10
-5.0
 20
94.0
 30
0.0
 11
5.0
 21
94.0
 31
0.0
  0
LINE
  5
10B
100
AcDbEntity
100
AcDbLine
  8
0
 62
256
370
13
 48
1.0
  6
ByLayer
 10
8.0
 20
97.0
 30
0.0
 11
8.0
 21
107.0
 31
0.0
  0
LINE
  5
10C
100
AcDbEntity
100
AcDbLine
  8
0
 62
256
370
13
 48
1.0
  6
ByLayer
 10
-8.0
 20
107.0
 30
0.0
 11
-8.0
 21
97.0
 31
0.0
  0
LINE
  5
10D
100
AcDbEntity
100
AcDbLine
  8
0
 62
256
370
13
 48
1.0
  6
ByLayer
 10
-17.5
 20
110.0
 30
0.0
 11
-11.0
 21
110.0
 31
0.0
  0
LINE
  5
10E
100
AcDbEntity
100
AcDbLine
  8
0
 62
256
370
13
 48
1.0
  6
ByLayer
 10
11.0
 20
110.0
 30
0.0
 11
17.5
 21
110.0
 31
0.0
  0
ARC
  5
10F
100
AcDbEntity
  8
0
 62
256
370
13
 48
1.0
  6
ByLayer
100
AcDbCircle
 10
-11.0
 20
107.0
 30
0.0
 40
3.0
100
AcDbArc
 50
0.0
 51
90.0
  0
ARC
  5
110
100
AcDbEntity
  8
0
 62
256
370
13
 48
1.0
  6
ByLayer
100
AcDbCircle
 10
11.0
 20
107.0
 30
0.0
 40
3.0
100
AcDbArc
 50
90.0
 51
180.0
  0
ARC
  5
111
100
AcDbEntity
  8
0
 62
256
370
13
 48
1.0
  6
ByLayer
100
AcDbCircle
 10
5.0
 20
97.0
 30
0.0
 40
3.0
100
AcDbArc
 50
270.0
 51
0.0
  0
ARC
  5
112
100
AcDbEntity
  8
0
 62
256
370
13
 48
1.0
  6
ByLayer
100
AcDbCircle
 10
-5.0
 20
97.0
 30
0.0
 40
3.0
100
AcDbArc
 50
180.0
 51
270.0
  0
ENDSEC
  0
SECTION
  2
OBJECTS
  0
DICTIONARY
  5
C
100
AcDbDictionary
280
0
281
1
  3
ACAD_GROUP
350
D
  3
ACAD_LAYOUT
350
1A
  3
ACAD_MLINESTYLE
350
17
  3
ACAD_PLOTSETTINGS
350
19
  3
ACAD_PLOTSTYLENAME
350
E
  3
AcDbVariableDictionary
350
113
  3
QCAD_OBJECTS
350
114
  0
DICTIONARY
  5
D
100
AcDbDictionary
280
0
281
1
  0
ACDBDICTIONARYWDFLT
  5
E
100
AcDbDictionary
281
1
  3
Normal
350
F
100
AcDbDictionaryWithDefault
340
F
  0
ACDBPLACEHOLDER
  5
F
  0
DICTIONARY
  5
17
100
AcDbDictionary
280
0
281
1
  3
Standard
350
18
  0
MLINESTYLE
  5
18
100
AcDbMlineStyle
  2
STANDARD
 70
0
  3

 62
256
 51
90.0
 52
90.0
 71
2
 49
0.5
 62
256
  6
BYLAYER
 49
-0.5
 62
256
  6
BYLAYER
  0
DICTIONARY
  5
19
100
AcDbDictionary
280
0
281
1
  0
DICTIONARY
  5
1A
100
AcDbDictionary
281
1
  3
Layout1
350
1E
  3
Layout2
350
26
  3
Model
350
22
  0
LAYOUT
  5
1E
100
AcDbPlotSettings
  1

  2
none_device
  4

  6

 40
0.0
 41
0.0
 42
0.0
 43
0.0
 44
0.0
 45
0.0
 46
0.0
 47
0.0
 48
0.0
 49
0.0
140
0.0
141
0.0
142
1.0
143
1.0
 70
688
 72
0
 73
0
 74
5
  7

 75
16
147
1.0
148
0.0
149
0.0
100
AcDbLayout
  1
Layout1
 70
1
 71
1
 10
0.0
 20
0.0
 11
420.0
 21
297.0
 12
0.0
 22
0.0
 32
0.0
 14
100000000000000000000.0
 24
100000000000000000000.0
 34
100000000000000000000.0
 15
-100000000000000000000.0
 25
-100000000000000000000.0
 35
-100000000000000000000.0
146
0.0
 13
0.0
 23
0.0
 33
0.0
 16
1.0
 26
0.0
 36
0.0
 17
0.0
 27
1.0
 37
0.0
 76
0
330
1B
  0
LAYOUT
  5
22
100
AcDbPlotSettings
  1

  2
none_device
  4

  6

 40
0.0
 41
0.0
 42
0.0
 43
0.0
 44
0.0
 45
0.0
 46
0.0
 47
0.0
 48
0.0
 49
0.0
140
0.0
141
0.0
142
1.0
143
1.0
 70
1712
 72
0
 73
0
 74
0
  7

 75
0
147
1.0
148
0.0
149
0.0
100
AcDbLayout
  1
Model
 70
1
 71
0
 10
0.0
 20
0.0
 11
12.0
 21
9.0
 12
0.0
 22
0.0
 32
0.0
 14
0.0
 24
0.0
 34
0.0
 15
0.0
 25
0.0
 35
0.0
146
0.0
 13
0.0
 23
0.0
 33
0.0
 16
1.0
 26
0.0
 36
0.0
 17
0.0
 27
1.0
 37
0.0
 76
0
330
1F
  0
LAYOUT
  5
26
100
AcDbPlotSettings
  1

  2
none_device
  4

  6

 40
0.0
 41
0.0
 42
0.0
 43
0.0
 44
0.0
 45
0.0
 46
0.0
 47
0.0
 48
0.0
 49
0.0
140
0.0
141
0.0
142
1.0
143
1.0
 70
688
 72
0
 73
0
 74
5
  7

 75
16
147
1.0
148
0.0
149
0.0
100
AcDbLayout
  1
Layout2
 70
1
 71
2
 10
0.0
 20
0.0
 11
12.0
 21
9.0
 12
0.0
 22
0.0
 32
0.0
 14
0.0
 24
0.0
 34
0.0
 15
0.0
 25
0.0
 35
0.0
146
0.0
 13
0.0
 23
0.0
 33
0.0
 16
1.0
 26
0.0
 36
0.0
 17
0.0
 27
1.0
 37
0.0
 76
0
330
23
  0
DICTIONARY
  5
113
100
AcDbDictionary
281
1
  3
DIMASSOC
350
116
  3
HIDETEXT
350
115
  0
DICTIONARYVAR
  5
115
100
DictionaryVariables
280
0
  1
2
  0
DICTIONARYVAR
  5
116
100
DictionaryVariables
280
0
  1
1
  0
DICTIONARY
  5
114
100
AcDbDictionary
281
1
  3
ColorSettings/BackgroundColor
350
117
  3
ColorSettings/ColorMode
350
118
  3
Grid/DisplayGrid00
350
119
  3
Grid/DisplayGrid01
350
11A
  3
Grid/DisplayGrid02
350
11B
  3
Grid/DisplayGrid03
350
11C
  3
Grid/GridSpacingX00
350
11D
  3
Grid/GridSpacingX01
350
11E
  3
Grid/GridSpacingX02
350
11F
  3
Grid/GridSpacingX03
350
120
  3
Grid/GridSpacingY00
350
121
  3
Grid/GridSpacingY01
350
122
  3
Grid/GridSpacingY02
350
123
  3
Grid/GridSpacingY03
350
124
  3
Grid/IsometricGrid00
350
125
  3
Grid/IsometricGrid01
350
126
  3
Grid/IsometricGrid02
350
127
  3
Grid/IsometricGrid03
350
128
  3
Grid/IsometricProjection00
350
129
  3
Grid/IsometricProjection01
350
12A
  3
Grid/IsometricProjection02
350
12B
  3
Grid/IsometricProjection03
350
12C
  3
Grid/MetaGridSpacingX00
350
12D
  3
Grid/MetaGridSpacingX01
350
12E
  3
Grid/MetaGridSpacingX02
350
12F
  3
Grid/MetaGridSpacingX03
350
130
  3
Grid/MetaGridSpacingY00
350
131
  3
Grid/MetaGridSpacingY01
350
132
  3
Grid/MetaGridSpacingY02
350
133
  3
Grid/MetaGridSpacingY03
350
134
  3
MultiPageSettings/Columns
350
135
  3
MultiPageSettings/GlueMarginsBottom
350
136
  3
MultiPageSettings/GlueMarginsLeft
350
137
  3
MultiPageSettings/GlueMarginsRight
350
138
  3
MultiPageSettings/GlueMarginsTop
350
139
  3
MultiPageSettings/PrintCropMarks
350
13A
  3
MultiPageSettings/Rows
350
13B
  3
PageSettings/OffsetX
350
13C
  3
PageSettings/OffsetY
350
13D
  3
PageSettings/PageOrientation
350
13E
  3
PageSettings/PaperHeight
350
13F
  3
PageSettings/PaperWidth
350
140
  3
PageSettings/Scale
350
141
  3
PageSettings/ShowPaperBorders
350
142
  3
QCADVersion
350
143
  3
UnitSettings/PaperUnit
350
144
  3
ViewportCenter
350
145
  3
ViewportHeight
350
146
  3
ViewportWidth
350
147
  0
XRECORD
  5
117
330
114
100
AcDbXrecord
280
1
1000
White
  0
XRECORD
  5
118
330
114
100
AcDbXrecord
280
1
1000
FullColor
  0
XRECORD
  5
119
330
114
100
AcDbXrecord
280
1
290
1
  0
XRECORD
  5
11A
330
114
100
AcDbXrecord
280
1
290
1
  0
XRECORD
  5
11B
330
114
100
AcDbXrecord
280
1
290
1
  0
XRECORD
  5
11C
330
114
100
AcDbXrecord
280
1
290
1
  0
XRECORD
  5
11D
330
114
100
AcDbXrecord
280
1
1000
auto
  0
XRECORD
  5
11E
330
114
100
AcDbXrecord
280
1
1000
auto
  0
XRECORD
  5
11F
330
114
100
AcDbXrecord
280
1
1000
auto
  0
XRECORD
  5
120
330
114
100
AcDbXrecord
280
1
1000
auto
  0
XRECORD
  5
121
330
114
100
AcDbXrecord
280
1
1000
auto
  0
XRECORD
  5
122
330
114
100
AcDbXrecord
280
1
1000
auto
  0
XRECORD
  5
123
330
114
100
AcDbXrecord
280
1
1000
auto
  0
XRECORD
  5
124
330
114
100
AcDbXrecord
280
1
1000
auto
  0
XRECORD
  5
125
330
114
100
AcDbXrecord
280
1
290
0
  0
XRECORD
  5
126
330
114
100
AcDbXrecord
280
1
290
0
  0
XRECORD
  5
127
330
114
100
AcDbXrecord
280
1
290
0
  0
XRECORD
  5
128
330
114
100
AcDbXrecord
280
1
290
0
  0
XRECORD
  5
129
330
114
100
AcDbXrecord
280
1
 90
0
  0
XRECORD
  5
12A
330
114
100
AcDbXrecord
280
1
 90
0
  0
XRECORD
  5
12B
330
114
100
AcDbXrecord
280
1
 90
0
  0
XRECORD
  5
12C
330
114
100
AcDbXrecord
280
1
 90
0
  0
XRECORD
  5
12D
330
114
100
AcDbXrecord
280
1
1000
auto
  0
XRECORD
  5
12E
330
114
100
AcDbXrecord
280
1
1000
auto
  0
XRECORD
  5
12F
330
114
100
AcDbXrecord
280
1
1000
auto
  0
XRECORD
  5
130
330
114
100
AcDbXrecord
280
1
1000
auto
  0
XRECORD
  5
131
330
114
100
AcDbXrecord
280
1
1000
auto
  0
XRECORD
  5
132
330
114
100
AcDbXrecord
280
1
1000
auto
  0
XRECORD
  5
133
330
114
100
AcDbXrecord
280
1
1000
auto
  0
XRECORD
  5
134
330
114
100
AcDbXrecord
280
1
1000
auto
  0
XRECORD
  5
135
330
114
100
AcDbXrecord
280
1
 90
1
  0
XRECORD
  5
136
330
114
100
AcDbXrecord
280
1
 40
10.0
  0
XRECORD
  5
137
330
114
100
AcDbXrecord
280
1
 40
10.0
  0
XRECORD
  5
138
330
114
100
AcDbXrecord
280
1
 40
10.0
  0
XRECORD
  5
139
330
114
100
AcDbXrecord
280
1
 40
10.0
  0
XRECORD
  5
13A
330
114
100
AcDbXrecord
280
1
290
0
  0
XRECORD
  5
13B
330
114
100
AcDbXrecord
280
1
 90
1
  0
XRECORD
  5
13C
330
114
100
AcDbXrecord
280
1
 40
0.0
  0
XRECORD
  5
13D
330
114
100
AcDbXrecord
280
1
 40
0.0
  0
XRECORD
  5
13E
330
114
100
AcDbXrecord
280
1
1000
Portrait
  0
XRECORD
  5
13F
330
114
100
AcDbXrecord
280
1
 40
297.0
  0
XRECORD
  5
140
330
114
100
AcDbXrecord
280
1
 40
210.0
  0
XRECORD
  5
141
330
114
100
AcDbXrecord
280
1
1000
1:1
  0
XRECORD
  5
142
330
114
100
AcDbXrecord
280
1
290
1
  0
XRECORD
  5
143
330
114
100
AcDbXrecord
280
1
1000
3.15.2
  0
XRECORD
  5
144
330
114
100
AcDbXrecord
280
1
 90
4
  0
XRECORD
  5
146
330
114
100
AcDbXrecord
280
1
 40
234.26081424936388
  0
XRECORD
  5
147
330
114
100
AcDbXrecord
280
1
 40
421.44529262086513
  0
ENDSEC
  0
EOF
