 0
SECTION
 2
ENTITIES
  0
POLYLINE
 8
Layer0
 66
     1
70
    8
 10
0.0
 20
 0.0
 30
0.0
  0
VERTEX
  8
MY3DLAYER
10
133.26152684758117
20
154.4679305010422
30
5.136598699851545e-14
 70
     32
  0
VERTEX
  8
MY3DLAYER
10
132.9206603696706
20
154.12628003507126
30
6.486084414190156e-14
 70
     32
  0
VERTEX
  8
MY3DLAYER
10
131.81752589416394
20
153.09308184959966
30
6.504068870577056e-14
 70
     32
  0
VERTEX
  8
MY3DLAYER
10
130.64917891980284
20
152.13424426741258
30
6.520758962489178e-14
 70
     32
  0
VERTEX
  8
MY3DLAYER
10
129.4206224876992
20
151.25387317824053
30
6.536083220390652e-14
 70
     32
  0
VERTEX
  8
MY3DLAYER
10
128.13711746510694
20
150.45573846624436
30
6.549976023456517e-14
 70
     32
  0
VERTEX
  8
MY3DLAYER
10
126.8041600175799
20
149.74325786679256
30
6.562377880571182e-14
 70
     32
  0
VERTEX
  8
MY3DLAYER
10
125.42745807354775
20
149.11948233119415
30
6.57323568507852e-14
 70
     32
  0
VERTEX
  8
MY3DLAYER
10
124.01290688209002
20
148.58708296205617
30
6.582502942192703e-14
 70
     32
  0
VERTEX
  8
MY3DLAYER
10
122.56656376857427
20
148.14833957521284
30
6.590139968096036e-14
 70
     32
  0
VERTEX
  8
MY3DLAYER
10
121.09462219625928
20
147.80513093720376
30
6.596114059871145e-14
 70
     32
  0
VERTEX
  8
MY3DLAYER
10
119.60338524493439
20
147.5589267201071
30
6.600399635539887e-14
 70
     32
  0
VERTEX
  8
MY3DLAYER
10
118.09923862016375
20
147.41078120817852
30
6.602978343609312e-14
 70
     32
  0
VERTEX
  8
MY3DLAYER
10
116.58862330871577
20
147.36132878324378
30
6.603839141655584e-14
 70
     32
  0
VERTEX
  8
MY3DLAYER
10
42.26170045321037
20
147.36132878324378
30
8.94462212291178e-14
 70
     32
  0
VERTEX
  8
MY3DLAYER
10
40.77695871591136
20
147.41000576788784
30
8.94500132513243e-14
 70
     32
  0
VERTEX
  8
MY3DLAYER
10
39.29859358868755
20
147.55582766583203
30
8.946137303211685e-14
 70
     32
  0
VERTEX
  8
MY3DLAYER
10
37.83295429560126
20
147.798168206958
30
8.948025178395829e-14
 70
     32
  0
VERTEX
  8
MY3DLAYER
10
36.38633540630604
20
148.13598659669697
30
8.95065684271321e-14
 70
     32
  0
VERTEX
  8
MY3DLAYER
10
34.964949802377554
20
148.56783198599334
30
8.954020993796025e-14
 70
     32
  0
VERTEX
  8
MY3DLAYER
10
33.574901994475795
20
149.09184970235333
30
8.958103183421302e-14
 70
     32
  0
VERTEX
  8
MY3DLAYER
10
32.222161904934126
20
149.7057892152195
30
8.962885879562529e-14
 70
     32
  0
VERTEX
  8
MY3DLAYER
10
30.91253922837304
20
150.40701380146035
30
8.968348541685528e-14
 70
     32
  0
VERTEX
  8
MY3DLAYER
10
29.651658480453552
20
151.19251186946414
30
8.974467708965123e-14
 70
     32
  0
VERTEX
  8
MY3DLAYER
10
28.44493484192982
20
152.05890989320358
30
8.98121710104377e-14
 70
     32
  0
VERTEX
  8
MY3DLAYER
10
27.297550901745083
20
153.0024869007222
30
8.98856773089937e-14
 70
     32
  0
VERTEX
  8
MY3DLAYER
10
26.456224495965547
20
153.7922260883208
30
9.393750761836989e-14
 70
     32
  0
VERTEX
  8
MY3DLAYER
10
25.78129610722639
20
154.46793050104202
30
1.0789330890174418e-13
 70
     32
  0
VERTEX
  8
MY3DLAYER
10
25.24807871213342
20
154.97559566356807
30
1.0789330890174418e-13
 70
     32
  0
VERTEX
  8
MY3DLAYER
10
24.690593651882867
20
155.45648558368475
30
1.0789330890174418e-13
 70
     32
  0
VERTEX
  8
MY3DLAYER
10
24.11018395681468
20
155.9094417554534
30
1.0789330890174418e-13
 70
     32
  0
VERTEX
  8
MY3DLAYER
10
23.50824788472214
20
156.3333729677819
30
1.0789330890174418e-13
 70
     32
  0
VERTEX
  8
MY3DLAYER
10
22.886235552326518
20
156.72725793324778
30
1.0789330890174418e-13
 70
     32
  0
VERTEX
  8
MY3DLAYER
10
22.24564544181801
20
157.0901477484691
30
1.0789330890174418e-13
 70
     32
  0
VERTEX
  8
MY3DLAYER
10
21.58802079088238
20
157.42116818009535
30
1.0789330890174418e-13
 70
     32
  0
VERTEX
  8
MY3DLAYER
10
20.914945874904518
20
157.71952177091302
30
1.0789330890174418e-13
 70
     32
  0
VERTEX
  8
MY3DLAYER
10
20.228042190311392
20
157.9844897609891
30
1.0789330890174418e-13
 70
     32
  0
VERTEX
  8
MY3DLAYER
10
19.528964548245092
20
158.2154338192269
30
1.0789330890174418e-13
 70
     32
  0
VERTEX
  8
MY3DLAYER
10
18.81939708797712
20
158.41179758116195
30
1.0789330890174418e-13
 70
     32
  0
VERTEX
  8
MY3DLAYER
10
18.101049219670028
20
158.57310798929217
30
1.0789330890174418e-13
 70
     32
  0
VERTEX
  8
MY3DLAYER
10
17.37565150625852
20
158.6989764327155
30
1.0789330890174418e-13
 70
     32
  0
VERTEX
  8
MY3DLAYER
10
16.644951494371508
20
158.7890996833266
30
1.0789330890174418e-13
 70
     32
  0
VERTEX
  8
MY3DLAYER
10
15.910709504339419
20
158.84326062632127
30
1.0789330890174418e-13
 70
     32
  0
VERTEX
  8
MY3DLAYER
10
15.174694389428183
20
158.86132878324366
30
1.0789330890174418e-13
 70
     32
  0
VERTEX
  8
MY3DLAYER
10
14.438679274516948
20
158.84326062632127
30
1.0789330890174418e-13
 70
     32
  0
VERTEX
  8
MY3DLAYER
10
13.704437284484769
20
158.7890996833266
30
1.0789330890174418e-13
 70
     32
  0
VERTEX
  8
MY3DLAYER
10
12.973737272597754
20
158.6989764327155
30
1.0789330890174418e-13
 70
     32
  0
VERTEX
  8
MY3DLAYER
10
12.24833955918624
20
158.57310798929217
30
1.0789330890174418e-13
 70
     32
  0
VERTEX
  8
MY3DLAYER
10
11.529991690879234
20
158.41179758116186
30
1.0789330890174418e-13
 70
     32
  0
VERTEX
  8
MY3DLAYER
10
10.820424230611172
20
158.2154338192269
30
1.0789330890174418e-13
 70
     32
  0
VERTEX
  8
MY3DLAYER
10
10.12134658854487
20
157.9844897609891
30
1.0789330890174418e-13
 70
     32
  0
VERTEX
  8
MY3DLAYER
10
9.434442903951835
20
157.71952177091302
30
1.0789330890174418e-13
 70
     32
  0
VERTEX
  8
MY3DLAYER
10
8.761367987973884
20
157.42116818009535
30
1.0789330890174418e-13
 70
     32
  0
VERTEX
  8
MY3DLAYER
10
8.103743337038162
20
157.090147748469
30
1.0789330890174418e-13
 70
     32
  0
VERTEX
  8
MY3DLAYER
10
7.463153226529834
20
156.72725793324778
30
1.0789330890174418e-13
 70
     32
  0
VERTEX
  8
MY3DLAYER
10
6.841140894134121
20
156.3333729677819
30
1.0789330890174418e-13
 70
     32
  0
VERTEX
  8
MY3DLAYER
10
6.239204822041674
20
155.9094417554534
30
1.0789330890174418e-13
 70
     32
  0
VERTEX
  8
MY3DLAYER
10
5.658795126973486
20
155.45648558368475
30
1.0789330890174418e-13
 70
     32
  0
VERTEX
  8
MY3DLAYER
10
5.101310066722855
20
154.97559566356807
30
1.0789330890174418e-13
 70
     32
  0
VERTEX
  8
MY3DLAYER
10
4.568092671629977
20
154.46793050104202
30
1.0789330890174418e-13
 70
     32
  0
VERTEX
  8
MY3DLAYER
10
4.060427509103739
20
153.93471310594896
30
1.0789330890174418e-13
 70
     32
  0
VERTEX
  8
MY3DLAYER
10
3.5795375889870713
20
153.37722804569842
30
1.0789330890174418e-13
 70
     32
  0
VERTEX
  8
MY3DLAYER
10
3.1265814172185125
20
152.79681835063013
30
1.0789330890174418e-13
 70
     32
  0
VERTEX
  8
MY3DLAYER
10
2.7026502048899106
20
152.1948822785378
30
1.0789330890174418e-13
 70
     32
  0
VERTEX
  8
MY3DLAYER
10
2.308765239424034
20
151.572869946142
30
1.0789330890174418e-13
 70
     32
  0
VERTEX
  8
MY3DLAYER
10
1.9458754242028153
20
150.93227983563364
30
1.0789330890174418e-13
 70
     32
  0
VERTEX
  8
MY3DLAYER
10
1.6148549925764573
20
150.27465518469793
30
1.0789330890174418e-13
 70
     32
  0
VERTEX
  8
MY3DLAYER
10
1.3165014017587868
20
149.60158026872006
30
1.0789330890174418e-13
 70
     32
  0
VERTEX
  8
MY3DLAYER
10
1.0515334116829014
20
148.91467658412702
30
1.0789330890174418e-13
 70
     32
  0
VERTEX
  8
MY3DLAYER
10
0.820589353445013
20
148.21559894206072
30
1.0789330890174418e-13
 70
     32
  0
VERTEX
  8
MY3DLAYER
10
0.6242255915100391
20
147.50603148179258
30
1.0789330890174418e-13
 70
     32
  0
VERTEX
  8
MY3DLAYER
10
0.4629151833796375
20
146.78768361348557
30
1.0789330890174418e-13
 70
     32
  0
VERTEX
  8
MY3DLAYER
10
0.3370467399564004
20
146.06228590007416
30
1.0789330890174418e-13
 70
     32
  0
VERTEX
  8
MY3DLAYER
10
0.24692348934512126
20
145.33158588818713
30
1.0789330890174418e-13
 70
     32
  0
VERTEX
  8
MY3DLAYER
10
0.19276254635053974
20
144.59734389815506
30
1.0789330890174418e-13
 70
     32
  0
VERTEX
  8
MY3DLAYER
10
0.17469438942815332
20
143.86132878324364
30
1.0789330890174418e-13
 70
     32
  0
VERTEX
  8
MY3DLAYER
10
0.19276254635053974
20
143.1253136683324
30
1.0789330890174418e-13
 70
     32
  0
VERTEX
  8
MY3DLAYER
10
0.2469234893452115
20
142.3910716783003
30
1.0789330890174418e-13
 70
     32
  0
VERTEX
  8
MY3DLAYER
10
0.3370467399564004
20
141.6603716664133
30
1.0789330890174418e-13
 70
     32
  0
VERTEX
  8
MY3DLAYER
10
0.4629151833796375
20
140.9349739530018
30
1.0789330890174418e-13
 70
     32
  0
VERTEX
  8
MY3DLAYER
10
0.6242255915099488
20
140.2166260846947
30
1.0789330890174418e-13
 70
     32
  0
VERTEX
  8
MY3DLAYER
10
0.820589353445013
20
139.50705862442675
30
1.0789330890174418e-13
 70
     32
  0
VERTEX
  8
MY3DLAYER
10
1.0515334116829014
20
138.80798098236042
30
1.0789330890174418e-13
 70
     32
  0
VERTEX
  8
MY3DLAYER
10
1.3165014017587868
20
138.1210772977673
30
1.0789330890174418e-13
 70
     32
  0
VERTEX
  8
MY3DLAYER
10
1.6148549925764573
20
137.44800238178954
30
1.0789330890174418e-13
 70
     32
  0
VERTEX
  8
MY3DLAYER
10
1.9458754242028153
20
136.79037773085372
30
1.0789330890174418e-13
 70
     32
  0
VERTEX
  8
MY3DLAYER
10
2.308765239424034
20
136.1497876203453
30
1.0789330890174418e-13
 70
     32
  0
VERTEX
  8
MY3DLAYER
10
2.7026502048899106
20
135.52777528794968
30
1.0789330890174418e-13
 70
     32
  0
VERTEX
  8
MY3DLAYER
10
3.1265814172184223
20
134.92583921585714
30
1.0789330890174418e-13
 70
     32
  0
VERTEX
  8
MY3DLAYER
10
3.5795375889870713
20
134.34542952078905
30
1.0789330890174418e-13
 70
     32
  0
VERTEX
  8
MY3DLAYER
10
4.060427509103739
20
133.78794446053843
30
1.0789330890174418e-13
 70
     32
  0
VERTEX
  8
MY3DLAYER
10
4.568092671629977
20
133.25472706544545
30
1.0789330890174418e-13
 70
     32
  0
VERTEX
  8
MY3DLAYER
10
4.909743137601097
20
132.91307659947483
30
1.0888241741280315e-13
 70
     32
  0
VERTEX
  8
MY3DLAYER
10
5.942941323072662
20
131.80994212396814
30
1.0824747617624246e-13
 70
     32
  0
VERTEX
  8
MY3DLAYER
10
6.901778905259633
20
130.64159514960664
30
1.0758416009937551e-13
 70
     32
  0
VERTEX
  8
MY3DLAYER
10
7.782149994431863
20
129.4130387175032
30
1.0689530960347729e-13
 70
     32
  0
VERTEX
  8
MY3DLAYER
10
8.580284706428003
20
128.12953369491098
30
1.0618387445212586e-13
 70
     32
  0
VERTEX
  8
MY3DLAYER
10
9.292765305879795
20
126.79657624738383
30
1.0545290111986057e-13
 70
     32
  0
VERTEX
  8
MY3DLAYER
10
9.916540841478206
20
125.41987430335166
30
1.0470551974671143e-13
 70
     32
  0
VERTEX
  8
MY3DLAYER
10
10.448940210616122
20
124.00532311189401
30
1.0394493073445803e-13
 70
     32
  0
VERTEX
  8
MY3DLAYER
10
10.88768359745951
20
122.55897999837818
30
1.0317439104201879e-13
 70
     32
  0
VERTEX
  8
MY3DLAYER
10
11.23089223546851
20
121.08703842606332
30
1.0239720023865227e-13
 70
     32
  0
VERTEX
  8
MY3DLAYER
10
11.477096452565007
20
119.59580147473838
30
1.0161668637469492e-13
 70
     32
  0
VERTEX
  8
MY3DLAYER
10
11.625241964493654
20
118.09165484996788
30
1.0083619173033863e-13
 70
     32
  0
VERTEX
  8
MY3DLAYER
10
11.674694389428218
20
116.58103953851972
30
1.000590585034745e-13
 70
     32
  0
VERTEX
  8
MY3DLAYER
10
11.674694389428263
20
42.25411668301436
30
8.539410674894299e-14
 70
     32
  0
VERTEX
  8
MY3DLAYER
10
11.626017404784381
20
40.76937494571562
30
8.464912864901772e-14
 70
     32
  0
VERTEX
  8
MY3DLAYER
10
11.480195506839967
20
39.291009818491695
30
8.393846443222453e-14
 70
     32
  0
VERTEX
  8
MY3DLAYER
10
11.237854965714215
20
37.82537052540521
30
8.326516623112715e-14
 70
     32
  0
VERTEX
  8
MY3DLAYER
10
10.900036575975285
20
36.37875163611002
30
8.263212570020301e-14
 70
     32
  0
VERTEX
  8
MY3DLAYER
10
10.468191186678776
20
34.95736603218146
30
8.204206159688076e-14
 70
     32
  0
VERTEX
  8
MY3DLAYER
10
9.944173470318837
20
33.56731822428002
30
8.149750810512747e-14
 70
     32
  0
VERTEX
  8
MY3DLAYER
10
9.33023395745266
20
32.214578134738076
30
8.100080395173604e-14
 70
     32
  0
VERTEX
  8
MY3DLAYER
10
8.629009371211808
20
30.904955458177128
30
8.055408236205473e-14
 70
     32
  0
VERTEX
  8
MY3DLAYER
10
7.8435113032080706
20
29.64407471025753
30
8.015926189829364e-14
 70
     32
  0
VERTEX
  8
MY3DLAYER
10
6.977113279468733
20
28.437351071733705
30
7.981803821976128e-14
 70
     32
  0
VERTEX
  8
MY3DLAYER
10
6.033536271950024
20
27.289967131549012
30
7.953187680041266e-14
 70
     32
  0
VERTEX
  8
MY3DLAYER
10
4.568092671630067
20
25.774496325090183
30
1.0345649597136553e-13
 70
     32
  0
VERTEX
  8
MY3DLAYER
10
4.06042750910383
20
25.241278929997215
30
1.0345649597136553e-13
 70
     32
  0
VERTEX
  8
MY3DLAYER
10
3.579537588987252
20
24.683793869746584
30
1.0345649597136553e-13
 70
     32
  0
VERTEX
  8
MY3DLAYER
10
3.126581417218603
20
24.103384174678393
30
1.0345649597136553e-13
 70
     32
  0
VERTEX
  8
MY3DLAYER
10
2.7026502048900913
20
23.501448102585947
30
1.0345649597136553e-13
 70
     32
  0
VERTEX
  8
MY3DLAYER
10
2.3087652394242144
20
22.879435770190234
30
1.0345649597136553e-13
 70
     32
  0
VERTEX
  8
MY3DLAYER
10
1.9458754242029055
20
22.238845659681903
30
1.0345649597136553e-13
 70
     32
  0
VERTEX
  8
MY3DLAYER
10
1.6148549925766378
20
21.581221008746184
30
1.0345649597136553e-13
 70
     32
  0
VERTEX
  8
MY3DLAYER
10
1.3165014017589673
20
20.908146092768323
30
1.0345649597136553e-13
 70
     32
  0
VERTEX
  8
MY3DLAYER
10
1.0515334116829014
20
20.221242408175197
30
1.0345649597136553e-13
 70
     32
  0
VERTEX
  8
MY3DLAYER
10
0.8205893534451033
20
19.522164766108894
30
1.0345649597136553e-13
 70
     32
  0
VERTEX
  8
MY3DLAYER
10
0.6242255915100391
20
18.812597305840924
30
1.0345649597136553e-13
 70
     32
  0
VERTEX
  8
MY3DLAYER
10
0.46291518337981796
20
18.094249437533833
30
1.0345649597136553e-13
 70
     32
  0
VERTEX
  8
MY3DLAYER
10
0.3370467399564906
20
17.368851724122415
30
1.0345649597136553e-13
 70
     32
  0
VERTEX
  8
MY3DLAYER
10
0.2469234893452115
20
16.638151712235402
30
1.0345649597136553e-13
 70
     32
  0
VERTEX
  8
MY3DLAYER
10
0.19276254635062998
20
15.903909722203222
30
1.0345649597136553e-13
 70
     32
  0
VERTEX
  8
MY3DLAYER
10
0.17469438942824356
20
15.167894607291988
30
1.0345649597136553e-13
 70
     32
  0
VERTEX
  8
MY3DLAYER
10
0.19276254635062998
20
14.431879492380752
30
1.0345649597136553e-13
 70
     32
  0
VERTEX
  8
MY3DLAYER
10
0.24692348934530176
20
13.697637502348574
30
1.0345649597136553e-13
 70
     32
  0
VERTEX
  8
MY3DLAYER
10
0.3370467399564906
20
12.966937490461559
30
1.0345649597136553e-13
 70
     32
  0
VERTEX
  8
MY3DLAYER
10
0.46291518337972776
20
12.241539777050036
30
1.0345649597136553e-13
 70
     32
  0
VERTEX
  8
MY3DLAYER
10
0.6242255915100391
20
11.523191908743025
30
1.0345649597136553e-13
 70
     32
  0
VERTEX
  8
MY3DLAYER
10
0.820589353445013
20
10.813624448474965
30
1.0345649597136553e-13
 70
     32
  0
VERTEX
  8
MY3DLAYER
10
1.0515334116829014
20
10.114546806408663
30
1.0345649597136553e-13
 70
     32
  0
VERTEX
  8
MY3DLAYER
10
1.316501401758877
20
9.427643121815628
30
1.0345649597136553e-13
 70
     32
  0
VERTEX
  8
MY3DLAYER
10
1.6148549925765476
20
8.754568205837767
30
1.0345649597136553e-13
 70
     32
  0
VERTEX
  8
MY3DLAYER
10
1.9458754242028153
20
8.096943554901955
30
1.0345649597136553e-13
 70
     32
  0
VERTEX
  8
MY3DLAYER
10
2.308765239424034
20
7.456353444393626
30
1.0345649597136553e-13
 70
     32
  0
VERTEX
  8
MY3DLAYER
10
2.7026502048900007
20
6.8343411119979125
30
1.0345649597136553e-13
 70
     32
  0
VERTEX
  8
MY3DLAYER
10
3.1265814172185125
20
6.2324050399054665
30
1.0345649597136553e-13
 70
     32
  0
VERTEX
  8
MY3DLAYER
10
3.5795375889870713
20
5.6519953448371885
30
1.0345649597136553e-13
 70
     32
  0
VERTEX
  8
MY3DLAYER
10
4.060427509103739
20
5.094510284586557
30
1.0345649597136553e-13
 70
     32
  0
VERTEX
  8
MY3DLAYER
10
4.568092671629887
20
4.5612928894936795
30
1.0345649597136553e-13
 70
     32
  0
VERTEX
  8
MY3DLAYER
10
5.101310066722855
20
4.053627726967442
30
1.0345649597136553e-13
 70
     32
  0
VERTEX
  8
MY3DLAYER
10
5.658795126973486
20
3.5727378068508644
30
1.0345649597136553e-13
 70
     32
  0
VERTEX
  8
MY3DLAYER
10
6.239204822041674
20
3.1197816350823055
30
1.0345649597136553e-13
 70
     32
  0
VERTEX
  8
MY3DLAYER
10
6.841140894134121
20
2.6958504227537032
30
1.0345649597136553e-13
 70
     32
  0
VERTEX
  8
MY3DLAYER
10
7.463153226529834
20
2.3019654572878268
30
1.0345649597136553e-13
 70
     32
  0
VERTEX
  8
MY3DLAYER
10
8.103743337038162
20
1.9390756420665178
30
1.0345649597136553e-13
 70
     32
  0
VERTEX
  8
MY3DLAYER
10
8.761367987973884
20
1.6080552104401598
30
1.0345649597136553e-13
 70
     32
  0
VERTEX
  8
MY3DLAYER
10
9.434442903951744
20
1.3097016196225797
30
1.0345649597136553e-13
 70
     32
  0
VERTEX
  8
MY3DLAYER
10
10.121346588544782
20
1.0447336295466039
30
1.0345649597136553e-13
 70
     32
  0
VERTEX
  8
MY3DLAYER
10
10.820424230611172
20
0.8137895713087155
30
1.0345649597136553e-13
 70
     32
  0
VERTEX
  8
MY3DLAYER
10
11.529991690879234
20
0.6174258093737416
30
1.0345649597136553e-13
 70
     32
  0
VERTEX
  8
MY3DLAYER
10
12.24833955918624
20
0.45611540124343025
30
1.0345649597136553e-13
 70
     32
  0
VERTEX
  8
MY3DLAYER
10
12.973737272597665
20
0.3302469578201931
30
1.0345649597136553e-13
 70
     32
  0
VERTEX
  8
MY3DLAYER
10
13.704437284484678
20
0.24012370720891402
30
1.0345649597136553e-13
 70
     32
  0
VERTEX
  8
MY3DLAYER
10
14.438679274516767
20
0.18596276421424224
30
1.0345649597136553e-13
 70
     32
  0
VERTEX
  8
MY3DLAYER
10
15.174694389428183
20
0.16789460729185582
30
1.0345649597136553e-13
 70
     32
  0
VERTEX
  8
MY3DLAYER
10
15.910709504339419
20
0.18596276421424224
30
1.0345649597136553e-13
 70
     32
  0
VERTEX
  8
MY3DLAYER
10
16.644951494371508
20
0.24012370720891402
30
1.0345649597136553e-13
 70
     32
  0
VERTEX
  8
MY3DLAYER
10
17.37565150625852
20
0.3302469578201029
30
1.0345649597136553e-13
 70
     32
  0
VERTEX
  8
MY3DLAYER
10
18.101049219670028
20
0.45611540124334
30
1.0345649597136553e-13
 70
     32
  0
VERTEX
  8
MY3DLAYER
10
18.81939708797712
20
0.6174258093736513
30
1.0345649597136553e-13
 70
     32
  0
VERTEX
  8
MY3DLAYER
10
19.528964548245092
20
0.8137895713086253
30
1.0345649597136553e-13
 70
     32
  0
VERTEX
  8
MY3DLAYER
10
20.22804219031148
20
1.0447336295465137
30
1.0345649597136553e-13
 70
     32
  0
VERTEX
  8
MY3DLAYER
10
20.914945874904518
20
1.3097016196224893
30
1.0345649597136553e-13
 70
     32
  0
VERTEX
  8
MY3DLAYER
10
21.58802079088238
20
1.6080552104401598
30
1.0345649597136553e-13
 70
     32
  0
VERTEX
  8
MY3DLAYER
10
22.2456454418181
20
1.9390756420665178
30
1.0345649597136553e-13
 70
     32
  0
VERTEX
  8
MY3DLAYER
10
22.886235552326518
20
2.3019654572877366
30
1.0345649597136553e-13
 70
     32
  0
VERTEX
  8
MY3DLAYER
10
23.50824788472214
20
2.695850422753613
30
1.0345649597136553e-13
 70
     32
  0
VERTEX
  8
MY3DLAYER
10
24.11018395681468
20
3.119781635082125
30
1.0345649597136553e-13
 70
     32
  0
VERTEX
  8
MY3DLAYER
10
24.690593651882867
20
3.5727378068506837
30
1.0345649597136553e-13
 70
     32
  0
VERTEX
  8
MY3DLAYER
10
25.24807871213351
20
4.053627726967442
30
1.0345649597136553e-13
 70
     32
  0
VERTEX
  8
MY3DLAYER
10
25.78129610722639
20
4.561292889493499
30
1.0345649597136553e-13
 70
     32
  0
VERTEX
  8
MY3DLAYER
10
26.21365041099386
20
5.01003293571847
30
9.465341052424433e-14
 70
     32
  0
VERTEX
  8
MY3DLAYER
10
26.455440507905656
20
5.2369973022149185
30
9.86260378492379e-14
 70
     32
  0
VERTEX
  8
MY3DLAYER
10
27.296766913685197
20
6.026736489813431
30
9.457420753986171e-14
 70
     32
  0
VERTEX
  8
MY3DLAYER
10
28.44415085386992
20
6.970313497332061
30
9.450070124130568e-14
 70
     32
  0
VERTEX
  8
MY3DLAYER
10
29.65087449239366
20
7.836711521071537
30
9.443320732051924e-14
 70
     32
  0
VERTEX
  8
MY3DLAYER
10
30.91175524031314
20
8.622209589075286
30
9.437201564772328e-14
 70
     32
  0
VERTEX
  8
MY3DLAYER
10
32.221377916874225
20
9.323434175316116
30
9.43173890264933e-14
 70
     32
  0
VERTEX
  8
MY3DLAYER
10
33.574118006415894
20
9.937373688182351
30
9.426956206508101e-14
 70
     32
  0
VERTEX
  8
MY3DLAYER
10
34.96416581431765
20
10.461391404542342
30
9.422874016882827e-14
 70
     32
  0
VERTEX
  8
MY3DLAYER
10
36.385551418246145
20
10.893236793838648
30
9.419509865800008e-14
 70
     32
  0
VERTEX
  8
MY3DLAYER
10
37.832170307541375
20
11.23105518357766
30
9.416878201482628e-14
 70
     32
  0
VERTEX
  8
MY3DLAYER
10
39.29780960062764
20
11.47339572470364
30
9.414990326298484e-14
 70
     32
  0
VERTEX
  8
MY3DLAYER
10
40.77617472785148
20
11.619217622647854
30
9.413854348219228e-14
 70
     32
  0
VERTEX
  8
MY3DLAYER
10
42.260916465150466
20
11.667894607291899
30
9.413475145998579e-14
 70
     32
  0
VERTEX
  8
MY3DLAYER
10
116.58783932065539
20
11.667894607291899
30
7.072692164742387e-14
 70
     32
  0
VERTEX
  8
MY3DLAYER
10
118.0984546321034
20
11.618442182357152
30
7.071831366696115e-14
 70
     32
  0
VERTEX
  8
MY3DLAYER
10
119.6026012568739
20
11.470296670428567
30
7.069252658626688e-14
 70
     32
  0
VERTEX
  8
MY3DLAYER
10
121.09383820819883
20
11.224092453331922
30
7.064967082957946e-14
 70
     32
  0
VERTEX
  8
MY3DLAYER
10
122.5657797805138
20
10.880883815322793
30
7.058992991182838e-14
 70
     32
  0
VERTEX
  8
MY3DLAYER
10
124.0121228940295
20
10.442140428479481
30
7.051355965279505e-14
 70
     32
  0
VERTEX
  8
MY3DLAYER
10
125.42667408548729
20
9.909741059341558
30
7.042088708165322e-14
 70
     32
  0
VERTEX
  8
MY3DLAYER
10
126.80337602951944
20
9.285965523743114
30
7.031230903657986e-14
 70
     32
  0
VERTEX
  8
MY3DLAYER
10
128.13633347704652
20
8.573484924291341
30
7.01882904654332e-14
 70
     32
  0
VERTEX
  8
MY3DLAYER
10
129.41983849963884
20
7.775350212295106
30
7.004936243477456e-14
 70
     32
  0
VERTEX
  8
MY3DLAYER
10
130.64839493174244
20
6.894979123123045
30
6.989611985575983e-14
 70
     32
  0
VERTEX
  8
MY3DLAYER
10
131.81674190610357
20
5.936141540936021
30
6.972921893663857e-14
 70
     32
  0
VERTEX
  8
MY3DLAYER
10
132.91987638161015
20
4.902943355464384
30
6.954937437276958e-14
 70
     32
  0
VERTEX
  8
MY3DLAYER
10
133.26152684758117
20
4.561292889493318
30
2.2179616045666854e-14
 70
     32
  0
VERTEX
  8
MY3DLAYER
10
133.79474424267423
20
4.053627726967171
30
2.2179616045666854e-14
 70
     32
  0
VERTEX
  8
MY3DLAYER
10
134.35222930292468
20
3.5727378068505935
30
2.2179616045666854e-14
 70
     32
  0
VERTEX
  8
MY3DLAYER
10
134.93263899799285
20
3.1197816350819445
30
2.2179616045666854e-14
 70
     32
  0
VERTEX
  8
MY3DLAYER
10
135.5345750700854
20
2.695850422753433
30
2.2179616045666854e-14
 70
     32
  0
VERTEX
  8
MY3DLAYER
10
136.15658740248102
20
2.301965457287556
30
2.2179616045666854e-14
 70
     32
  0
VERTEX
  8
MY3DLAYER
10
136.79717751298955
20
1.9390756420663373
30
2.2179616045666854e-14
 70
     32
  0
VERTEX
  8
MY3DLAYER
10
137.45480216392525
20
1.6080552104399795
30
2.2179616045666854e-14
 70
     32
  0
VERTEX
  8
MY3DLAYER
10
138.12787707990321
20
1.3097016196223992
30
2.2179616045666854e-14
 70
     32
  0
VERTEX
  8
MY3DLAYER
10
138.81478076449616
20
1.0447336295463332
30
2.2179616045666854e-14
 70
     32
  0
VERTEX
  8
MY3DLAYER
10
139.51385840656263
20
0.813789571308535
30
2.2179616045666854e-14
 70
     32
  0
VERTEX
  8
MY3DLAYER
10
140.2234258668306
20
0.6174258093735611
30
2.2179616045666854e-14
 70
     32
  0
VERTEX
  8
MY3DLAYER
10
140.94177373513762
20
0.4561154012432498
30
2.2179616045666854e-14
 70
     32
  0
VERTEX
  8
MY3DLAYER
10
141.66717144854903
20
0.3302469578200126
30
2.2179616045666854e-14
 70
     32
  0
VERTEX
  8
MY3DLAYER
10
142.39787146043605
20
0.24012370720882376
30
2.2179616045666854e-14
 70
     32
  0
VERTEX
  8
MY3DLAYER
10
143.1321134504683
20
0.185962764214152
30
2.2179616045666854e-14
 70
     32
  0
VERTEX
  8
MY3DLAYER
10
143.86812856537955
20
0.16789460729176559
30
2.2179616045666854e-14
 70
     32
  0
VERTEX
  8
MY3DLAYER
10
144.60414368029078
20
0.18596276421424224
30
2.2179616045666854e-14
 70
     32
  0
VERTEX
  8
MY3DLAYER
10
145.33838567032288
20
0.24012370720891402
30
2.2179616045666854e-14
 70
     32
  0
VERTEX
  8
MY3DLAYER
10
146.06908568220987
20
0.3302469578201029
30
2.2179616045666854e-14
 70
     32
  0
VERTEX
  8
MY3DLAYER
10
146.79448339562128
20
0.45611540124334
30
2.2179616045666854e-14
 70
     32
  0
VERTEX
  8
MY3DLAYER
10
147.5128312639285
20
0.6174258093737416
30
2.2179616045666854e-14
 70
     32
  0
VERTEX
  8
MY3DLAYER
10
148.22239872419644
20
0.8137895713087155
30
2.2179616045666854e-14
 70
     32
  0
VERTEX
  8
MY3DLAYER
10
148.92147636626277
20
1.0447336295466039
30
2.2179616045666854e-14
 70
     32
  0
VERTEX
  8
MY3DLAYER
10
149.60838005085589
20
1.3097016196225797
30
2.2179616045666854e-14
 70
     32
  0
VERTEX
  8
MY3DLAYER
10
150.28145496683365
20
1.6080552104402501
30
2.2179616045666854e-14
 70
     32
  0
VERTEX
  8
MY3DLAYER
10
150.93907961776938
20
1.9390756420665178
30
2.2179616045666854e-14
 70
     32
  0
VERTEX
  8
MY3DLAYER
10
151.5796697282777
20
2.3019654572878268
30
2.2179616045666854e-14
 70
     32
  0
VERTEX
  8
MY3DLAYER
10
152.2016820606735
20
2.695850422753794
30
2.2179616045666854e-14
 70
     32
  0
VERTEX
  8
MY3DLAYER
10
152.80361813276585
20
3.1197816350823055
30
2.2179616045666854e-14
 70
     32
  0
VERTEX
  8
MY3DLAYER
10
153.38402782783405
20
3.5727378068508644
30
2.2179616045666854e-14
 70
     32
  0
VERTEX
  8
MY3DLAYER
10
153.94151288808467
20
4.053627726967532
30
2.2179616045666854e-14
 70
     32
  0
VERTEX
  8
MY3DLAYER
10
154.47473028317756
20
4.5612928894936795
30
2.2179616045666854e-14
 70
     32
  0
VERTEX
  8
MY3DLAYER
10
154.9823954457038
20
5.094510284586647
30
2.2179616045666854e-14
 70
     32
  0
VERTEX
  8
MY3DLAYER
10
155.46328536582047
20
5.651995344837279
30
2.2179616045666854e-14
 70
     32
  0
VERTEX
  8
MY3DLAYER
10
155.91624153758895
20
6.232405039905557
30
2.2179616045666854e-14
 70
     32
  0
VERTEX
  8
MY3DLAYER
10
156.34017274991746
20
6.8343411119979125
30
2.2179616045666854e-14
 70
     32
  0
VERTEX
  8
MY3DLAYER
10
156.73405771538333
20
7.4563534443937165
30
2.2179616045666854e-14
 70
     32
  0
VERTEX
  8
MY3DLAYER
10
157.09694753060472
20
8.096943554902046
30
2.2179616045666854e-14
 70
     32
  0
VERTEX
  8
MY3DLAYER
10
157.42796796223107
20
8.754568205837767
30
2.2179616045666854e-14
 70
     32
  0
VERTEX
  8
MY3DLAYER
10
157.72632155304856
20
9.427643121815718
30
2.2179616045666854e-14
 70
     32
  0
VERTEX
  8
MY3DLAYER
10
157.99128954312462
20
10.114546806408754
30
2.2179616045666854e-14
 70
     32
  0
VERTEX
  8
MY3DLAYER
10
158.22223360136252
20
10.813624448475055
30
2.2179616045666854e-14
 70
     32
  0
VERTEX
  8
MY3DLAYER
10
158.4185973632975
20
11.523191908743115
30
2.2179616045666854e-14
 70
     32
  0
VERTEX
  8
MY3DLAYER
10
158.5799077714277
20
12.241539777050127
30
2.2179616045666854e-14
 70
     32
  0
VERTEX
  8
MY3DLAYER
10
158.70577621485106
20
12.96693749046165
30
2.2179616045666854e-14
 70
     32
  0
VERTEX
  8
MY3DLAYER
10
158.79589946546233
20
13.697637502348574
30
2.2179616045666854e-14
 70
     32
  0
VERTEX
  8
MY3DLAYER
10
158.8500604084568
20
14.431879492380752
30
2.2179616045666854e-14
 70
     32
  0
VERTEX
  8
MY3DLAYER
10
158.8681285653792
20
15.167894607292078
30
2.2179616045666854e-14
 70
     32
  0
VERTEX
  8
MY3DLAYER
10
158.8500604084568
20
15.903909722203313
30
2.2179616045666854e-14
 70
     32
  0
VERTEX
  8
MY3DLAYER
10
158.79589946546216
20
16.638151712235494
30
2.2179616045666854e-14
 70
     32
  0
VERTEX
  8
MY3DLAYER
10
158.70577621485086
20
17.368851724122507
30
2.2179616045666854e-14
 70
     32
  0
VERTEX
  8
MY3DLAYER
10
158.5799077714277
20
18.09424943753401
30
2.2179616045666854e-14
 70
     32
  0
VERTEX
  8
MY3DLAYER
10
158.41859736329732
20
18.812597305841017
30
2.2179616045666854e-14
 70
     32
  0
VERTEX
  8
MY3DLAYER
10
158.22223360136235
20
19.522164766108986
30
2.2179616045666854e-14
 70
     32
  0
VERTEX
  8
MY3DLAYER
10
157.99128954312445
20
20.221242408175378
30
2.2179616045666854e-14
 70
     32
  0
VERTEX
  8
MY3DLAYER
10
157.7263215530484
20
20.908146092768412
30
2.2179616045666854e-14
 70
     32
  0
VERTEX
  8
MY3DLAYER
10
157.42796796223072
20
21.581221008746272
30
2.2179616045666854e-14
 70
     32
  0
VERTEX
  8
MY3DLAYER
10
157.09694753060435
20
22.238845659682084
30
2.2179616045666854e-14
 70
     32
  0
VERTEX
  8
MY3DLAYER
10
156.73405771538313
20
22.879435770190415
30
2.2179616045666854e-14
 70
     32
  0
VERTEX
  8
MY3DLAYER
10
156.34017274991726
20
23.501448102586036
30
2.2179616045666854e-14
 70
     32
  0
VERTEX
  8
MY3DLAYER
10
155.91624153758875
20
24.103384174678574
30
2.2179616045666854e-14
 70
     32
  0
VERTEX
  8
MY3DLAYER
10
155.4632853658201
20
24.683793869746673
30
2.2179616045666854e-14
 70
     32
  0
VERTEX
  8
MY3DLAYER
10
154.98239544570345
20
25.241278929997303
30
2.2179616045666854e-14
 70
     32
  0
VERTEX
  8
MY3DLAYER
10
154.4747302831772
20
25.774496325090183
30
2.2179616045666854e-14
 70
     32
  0
VERTEX
  8
MY3DLAYER
10
153.7990258704574
20
26.447856737709756
30
5.2126140175692086e-14
 70
     32
  0
VERTEX
  8
MY3DLAYER
10
153.00928668285871
20
27.289183143489225
30
4.8696144911503346e-14
 70
     32
  0
VERTEX
  8
MY3DLAYER
10
152.06570967534017
20
28.43656708367405
30
4.943842916641932e-14
 70
     32
  0
VERTEX
  8
MY3DLAYER
10
151.19931165160048
20
29.643290722197694
30
5.01984675470581e-14
 70
     32
  0
VERTEX
  8
MY3DLAYER
10
150.41381358359678
20
30.904171470116843
30
5.0972995870650275e-14
 70
     32
  0
VERTEX
  8
MY3DLAYER
10
149.71258899735585
20
32.21379414667856
30
5.175868772359292e-14
 70
     32
  0
VERTEX
  8
MY3DLAYER
10
149.09864948448953
20
33.56653423621969
30
5.2552168747599114e-14
 70
     32
  0
VERTEX
  8
MY3DLAYER
10
148.57463176812976
20
34.9565820441219
30
5.335003113175786e-14
 70
     32
  0
VERTEX
  8
MY3DLAYER
10
148.14278637883334
20
36.37796764805022
30
5.414884824826613e-14
 70
     32
  0
VERTEX
  8
MY3DLAYER
10
147.80496798909437
20
37.824586537345624
30
5.4945189368974426e-14
 70
     32
  0
VERTEX
  8
MY3DLAYER
10
147.5626274479684
20
39.29022583043152
30
5.57356343995416e-14
 70
     32
  0
VERTEX
  8
MY3DLAYER
10
147.41680555002384
20
40.76859095765547
30
5.65167885679212e-14
 70
     32
  0
VERTEX
  8
MY3DLAYER
10
147.36812856537986
20
42.25333269495457
30
5.728529700409437e-14
 70
     32
  0
VERTEX
  8
MY3DLAYER
10
147.36812856538006
20
116.58025555045971
30
7.195024875862571e-14
 70
     32
  0
VERTEX
  8
MY3DLAYER
10
147.41758099031452
20
118.09087086190746
30
7.270347680328724e-14
 70
     32
  0
VERTEX
  8
MY3DLAYER
10
147.56572650224314
20
119.59501748667806
30
7.341235826669588e-14
 70
     32
  0
VERTEX
  8
MY3DLAYER
10
147.81193071933995
20
121.08625443800312
30
7.407385760959568e-14
 70
     32
  0
VERTEX
  8
MY3DLAYER
10
148.1551393573493
20
122.55819601031794
30
7.468514219024523e-14
 70
     32
  0
VERTEX
  8
MY3DLAYER
10
148.5938827441925
20
124.00453912383337
30
7.524359439422406e-14
 70
     32
  0
VERTEX
  8
MY3DLAYER
10
149.12628211333035
20
125.41909031529129
30
7.574682284345975e-14
 70
     32
  0
VERTEX
  8
MY3DLAYER
10
149.75005764892916
20
126.79579225932355
30
7.619267263647517e-14
 70
     32
  0
VERTEX
  8
MY3DLAYER
10
150.46253824838095
20
128.1287497068505
30
7.657923457600897e-14
 70
     32
  0
VERTEX
  8
MY3DLAYER
10
151.26067296037687
20
129.41225472944302
30
7.690485334449003e-14
 70
     32
  0
VERTEX
  8
MY3DLAYER
10
152.141044049549
20
130.64081116154665
30
7.716813459236154e-14
 70
     32
  0
VERTEX
  8
MY3DLAYER
10
153.09988163173597
20
131.80915813590778
30
7.736795090890059e-14
 70
     32
  0
VERTEX
  8
MY3DLAYER
10
154.13307981720777
20
132.9122926114142
30
7.750344664996328e-14
 70
     32
  0
VERTEX
  8
MY3DLAYER
10
154.47473028317737
20
133.25472706544562
30
5.136598699851545e-14
 70
     32
  0
VERTEX
  8
MY3DLAYER
10
154.98239544570362
20
133.78794446053868
30
5.136598699851545e-14
 70
     32
  0
VERTEX
  8
MY3DLAYER
10
155.46328536582027
20
134.34542952078914
30
5.136598699851545e-14
 70
     32
  0
VERTEX
  8
MY3DLAYER
10
155.91624153758895
20
134.92583921585734
30
5.136598699851545e-14
 70
     32
  0
VERTEX
  8
MY3DLAYER
10
156.34017274991746
20
135.52777528794985
30
5.136598699851545e-14
 70
     32
  0
VERTEX
  8
MY3DLAYER
10
156.73405771538333
20
136.14978762034548
30
5.136598699851545e-14
 70
     32
  0
VERTEX
  8
MY3DLAYER
10
157.09694753060455
20
136.79037773085392
30
5.136598699851545e-14
 70
     32
  0
VERTEX
  8
MY3DLAYER
10
157.4279679622309
20
137.44800238178954
30
5.136598699851545e-14
 70
     32
  0
VERTEX
  8
MY3DLAYER
10
157.72632155304856
20
138.1210772977675
30
5.136598699851545e-14
 70
     32
  0
VERTEX
  8
MY3DLAYER
10
157.99128954312462
20
138.80798098236062
30
5.136598699851545e-14
 70
     32
  0
VERTEX
  8
MY3DLAYER
10
158.22223360136252
20
139.50705862442692
30
5.136598699851545e-14
 70
     32
  0
VERTEX
  8
MY3DLAYER
10
158.4185973632975
20
140.2166260846949
30
5.136598699851545e-14
 70
     32
  0
VERTEX
  8
MY3DLAYER
10
158.5799077714277
20
140.9349739530019
30
5.136598699851545e-14
 70
     32
  0
VERTEX
  8
MY3DLAYER
10
158.70577621485106
20
141.6603716664134
30
5.136598699851545e-14
 70
     32
  0
VERTEX
  8
MY3DLAYER
10
158.79589946546233
20
142.39107167830042
30
5.136598699851545e-14
 70
     32
  0
VERTEX
  8
MY3DLAYER
10
158.8500604084568
20
143.12531366833258
30
5.136598699851545e-14
 70
     32
  0
VERTEX
  8
MY3DLAYER
10
158.86812856537938
20
143.86132878324383
30
5.136598699851545e-14
 70
     32
  0
VERTEX
  8
MY3DLAYER
10
158.8500604084568
20
144.59734389815506
30
5.136598699851545e-14
 70
     32
  0
VERTEX
  8
MY3DLAYER
10
158.79589946546233
20
145.33158588818713
30
5.136598699851545e-14
 70
     32
  0
VERTEX
  8
MY3DLAYER
10
158.70577621485106
20
146.06228590007424
30
5.136598699851545e-14
 70
     32
  0
VERTEX
  8
MY3DLAYER
10
158.5799077714277
20
146.78768361348577
30
5.136598699851545e-14
 70
     32
  0
VERTEX
  8
MY3DLAYER
10
158.4185973632975
20
147.50603148179275
30
5.136598699851545e-14
 70
     32
  0
VERTEX
  8
MY3DLAYER
10
158.22223360136252
20
148.21559894206072
30
5.136598699851545e-14
 70
     32
  0
VERTEX
  8
MY3DLAYER
10
157.99128954312462
20
148.91467658412702
30
5.136598699851545e-14
 70
     32
  0
VERTEX
  8
MY3DLAYER
10
157.72632155304856
20
149.60158026872017
30
5.136598699851545e-14
 70
     32
  0
VERTEX
  8
MY3DLAYER
10
157.4279679622309
20
150.27465518469802
30
5.136598699851545e-14
 70
     32
  0
VERTEX
  8
MY3DLAYER
10
157.09694753060472
20
150.93227983563384
30
5.136598699851545e-14
 70
     32
  0
VERTEX
  8
MY3DLAYER
10
156.7340577153835
20
151.57286994614216
30
5.136598699851545e-14
 70
     32
  0
VERTEX
  8
MY3DLAYER
10
156.34017274991746
20
152.19488227853788
30
5.136598699851545e-14
 70
     32
  0
VERTEX
  8
MY3DLAYER
10
155.91624153758912
20
152.79681835063033
30
5.136598699851545e-14
 70
     32
  0
VERTEX
  8
MY3DLAYER
10
155.46328536582047
20
153.3772280456985
30
5.136598699851545e-14
 70
     32
  0
VERTEX
  8
MY3DLAYER
10
154.9823954457038
20
153.93471310594913
30
5.136598699851545e-14
 70
     32
  0
VERTEX
  8
MY3DLAYER
10
154.47473028317756
20
154.46793050104202
30
5.136598699851545e-14
 70
     32
  0
VERTEX
  8
MY3DLAYER
10
153.94151288808467
20
154.97559566356824
30
5.136598699851545e-14
 70
     32
  0
VERTEX
  8
MY3DLAYER
10
153.38402782783405
20
155.45648558368492
30
5.136598699851545e-14
 70
     32
  0
VERTEX
  8
MY3DLAYER
10
152.80361813276585
20
155.90944175545357
30
5.136598699851545e-14
 70
     32
  0
VERTEX
  8
MY3DLAYER
10
152.2016820606735
20
156.33337296778208
30
5.136598699851545e-14
 70
     32
  0
VERTEX
  8
MY3DLAYER
10
151.5796697282777
20
156.72725793324796
30
5.136598699851545e-14
 70
     32
  0
VERTEX
  8
MY3DLAYER
10
150.93907961776938
20
157.09014774846918
30
5.136598699851545e-14
 70
     32
  0
VERTEX
  8
MY3DLAYER
10
150.28145496683365
20
157.42116818009555
30
5.136598699851545e-14
 70
     32
  0
VERTEX
  8
MY3DLAYER
10
149.6083800508557
20
157.71952177091322
30
5.136598699851545e-14
 70
     32
  0
VERTEX
  8
MY3DLAYER
10
148.92147636626277
20
157.9844897609892
30
5.136598699851545e-14
 70
     32
  0
VERTEX
  8
MY3DLAYER
10
148.22239872419644
20
158.21543381922706
30
5.136598699851545e-14
 70
     32
  0
VERTEX
  8
MY3DLAYER
10
147.5128312639283
20
158.41179758116203
30
5.136598699851545e-14
 70
     32
  0
VERTEX
  8
MY3DLAYER
10
146.79448339562128
20
158.57310798929237
30
5.136598699851545e-14
 70
     32
  0
VERTEX
  8
MY3DLAYER
10
146.06908568220987
20
158.69897643271568
30
5.136598699851545e-14
 70
     32
  0
VERTEX
  8
MY3DLAYER
10
145.33838567032288
20
158.78909968332695
30
5.136598699851545e-14
 70
     32
  0
VERTEX
  8
MY3DLAYER
10
144.60414368029078
20
158.84326062632155
30
5.136598699851545e-14
 70
     32
  0
VERTEX
  8
MY3DLAYER
10
143.86812856537935
20
158.86132878324392
30
5.136598699851545e-14
 70
     32
  0
VERTEX
  8
MY3DLAYER
10
143.13211345046813
20
158.84326062632155
30
5.136598699851545e-14
 70
     32
  0
VERTEX
  8
MY3DLAYER
10
142.39787146043605
20
158.78909968332695
30
5.136598699851545e-14
 70
     32
  0
VERTEX
  8
MY3DLAYER
10
141.66717144854903
20
158.69897643271568
30
5.136598699851545e-14
 70
     32
  0
VERTEX
  8
MY3DLAYER
10
140.94177373513742
20
158.57310798929245
30
5.136598699851545e-14
 70
     32
  0
VERTEX
  8
MY3DLAYER
10
140.22342586683044
20
158.41179758116215
30
5.136598699851545e-14
 70
     32
  0
VERTEX
  8
MY3DLAYER
10
139.51385840656246
20
158.21543381922717
30
5.136598699851545e-14
 70
     32
  0
VERTEX
  8
MY3DLAYER
10
138.81478076449616
20
157.98448976098928
30
5.136598699851545e-14
 70
     32
  0
VERTEX
  8
MY3DLAYER
10
138.12787707990302
20
157.71952177091322
30
5.136598699851545e-14
 70
     32
  0
VERTEX
  8
MY3DLAYER
10
137.45480216392508
20
157.42116818009563
30
5.136598699851545e-14
 70
     32
  0
VERTEX
  8
MY3DLAYER
10
136.79717751298935
20
157.09014774846935
30
5.136598699851545e-14
 70
     32
  0
VERTEX
  8
MY3DLAYER
10
136.15658740248102
20
156.72725793324804
30
5.136598699851545e-14
 70
     32
  0
VERTEX
  8
MY3DLAYER
10
135.5345750700854
20
156.33337296778217
30
5.136598699851545e-14
 70
     32
  0
VERTEX
  8
MY3DLAYER
10
134.93263899799285
20
155.90944175545374
30
5.136598699851545e-14
 70
     32
  0
VERTEX
  8
MY3DLAYER
10
134.35222930292468
20
155.4564855836851
30
5.136598699851545e-14
 70
     32
  0
VERTEX
  8
MY3DLAYER
10
133.79474424267406
20
154.97559566356844
30
5.136598699851545e-14
 70
     32
  0
VERTEX
  8
MY3DLAYER
10
133.26152684758117
20
154.4679305010422
30
5.136598699851545e-14
 70
     32
  0
SEQEND
  0
POLYLINE
 8
Layer0
 66
     1
70
    8
 10
0.0
 20
 0.0
 30
0.0
  0
VERTEX
  8
MY3DLAYER
10
154.17305062137888
20
15.889693198989077
30
3.2723770942185294e-14
 70
     32
  0
VERTEX
  8
MY3DLAYER
10
154.3229012551358
20
15.527921766641606
30
3.2632075816928476e-14
 70
     32
  0
VERTEX
  8
MY3DLAYER
10
154.37401251570068
20
15.139693198986993
30
3.2591200698167304e-14
 70
     32
  0
VERTEX
  8
MY3DLAYER
10
154.32290125513526
20
14.751464631335358
30
3.2603931157694065e-14
 70
     32
  0
VERTEX
  8
MY3DLAYER
10
154.17305062137763
20
14.389693198988518
30
3.266939963573205e-14
 70
     32
  0
VERTEX
  8
MY3DLAYER
10
153.93467268748103
20
14.079033027209627
30
3.2783144563693524e-14
 70
     32
  0
VERTEX
  8
MY3DLAYER
10
153.6240125157016
20
13.840655093311582
30
3.293741441271059e-14
 70
     32
  0
VERTEX
  8
MY3DLAYER
10
153.26224108335563
20
13.690804459554563
30
3.3121695947515966e-14
 70
     32
  0
VERTEX
  8
MY3DLAYER
10
152.8740125157021
20
13.639693198988326
30
3.332343068605218e-14
 70
     32
  0
VERTEX
  8
MY3DLAYER
10
151.374012515701
20
13.639693198987965
30
3.41100319803922e-14
 70
     32
  0
VERTEX
  8
MY3DLAYER
10
150.98578394804966
20
13.690804459554473
30
3.431547203360929e-14
 70
     32
  0
VERTEX
  8
MY3DLAYER
10
150.62401251570208
20
13.840655093312936
30
3.451061700138931e-14
 70
     32
  0
VERTEX
  8
MY3DLAYER
10
150.3133523439221
20
14.079033027208004
30
3.468216807666765e-14
 70
     32
  0
VERTEX
  8
MY3DLAYER
10
150.07497441002516
20
14.389693198988969
30
3.481843433716647e-14
 70
     32
  0
VERTEX
  8
MY3DLAYER
10
149.9251237762668
20
14.751464631334274
30
3.491012946242397e-14
 70
     32
  0
VERTEX
  8
MY3DLAYER
10
149.874012515701
20
15.139693198987985
30
3.4951004581185586e-14
 70
     32
  0
VERTEX
  8
MY3DLAYER
10
149.92512377626787
20
15.527921766642327
30
3.493827412165816e-14
 70
     32
  0
VERTEX
  8
MY3DLAYER
10
150.07497441002425
20
15.889693198988175
30
3.48728056436208e-14
 70
     32
  0
VERTEX
  8
MY3DLAYER
10
150.3133523439223
20
16.200353370767154
30
3.4759060715658583e-14
 70
     32
  0
VERTEX
  8
MY3DLAYER
10
150.62401251570154
20
16.43873130466601
30
3.460479086664164e-14
 70
     32
  0
VERTEX
  8
MY3DLAYER
10
150.98578394804855
20
16.58858193842276
30
3.44205093318357e-14
 70
     32
  0
VERTEX
  8
MY3DLAYER
10
151.3740125157019
20
16.639693198986922
30
3.421877459329951e-14
 70
     32
  0
VERTEX
  8
MY3DLAYER
10
152.8740125157021
20
16.63969319898864
30
3.343217329895999e-14
 70
     32
  0
VERTEX
  8
MY3DLAYER
10
153.262241083356
20
16.58858193842276
30
3.3226733245741597e-14
 70
     32
  0
VERTEX
  8
MY3DLAYER
10
153.62401251570122
20
16.43873130466475
30
3.303158827796284e-14
 70
     32
  0
VERTEX
  8
MY3DLAYER
10
153.93467268748103
20
16.20035337076815
30
3.286003720268452e-14
 70
     32
  0
VERTEX
  8
MY3DLAYER
10
154.17305062137888
20
15.889693198989077
30
3.2723770942185294e-14
 70
     32
  0
SEQEND
  0
POLYLINE
 8
Layer0
 66
     1
70
    8
 10
0.0
 20
 0.0
 30
0.0
  0
VERTEX
  8
MY3DLAYER
10
133.57497441002585
20
15.889693198987814
30
4.352541988135409e-14
 70
     32
  0
VERTEX
  8
MY3DLAYER
10
133.81335234392117
20
16.20035337076914
30
4.341167495339336e-14
 70
     32
  0
VERTEX
  8
MY3DLAYER
10
134.12401251570097
20
16.43873130466475
30
4.3257405104376014e-14
 70
     32
  0
VERTEX
  8
MY3DLAYER
10
134.48578394804798
20
16.58858193842204
30
4.3073123569570094e-14
 70
     32
  0
VERTEX
  8
MY3DLAYER
10
134.8740125157017
20
16.63969319898918
30
4.28713888310338e-14
 70
     32
  0
VERTEX
  8
MY3DLAYER
10
136.37401251570117
20
16.63969319898909
30
4.2084787536694624e-14
 70
     32
  0
VERTEX
  8
MY3DLAYER
10
136.76224108335597
20
16.58858193842276
30
4.187934748347575e-14
 70
     32
  0
VERTEX
  8
MY3DLAYER
10
137.12401251570154
20
16.438731304663754
30
4.168420251569673e-14
 70
     32
  0
VERTEX
  8
MY3DLAYER
10
137.43467268748134
20
16.200353370767786
30
4.1512651440418456e-14
 70
     32
  0
VERTEX
  8
MY3DLAYER
10
137.6730506213783
20
15.889693198988807
30
4.137638517991971e-14
 70
     32
  0
VERTEX
  8
MY3DLAYER
10
137.82290125513362
20
15.527921766642779
30
4.128469005466381e-14
 70
     32
  0
VERTEX
  8
MY3DLAYER
10
137.87401251570103
20
15.139693198987445
30
4.124381493590126e-14
 70
     32
  0
VERTEX
  8
MY3DLAYER
10
137.82290125513487
20
14.75146463133283
30
4.12565453954283e-14
 70
     32
  0
VERTEX
  8
MY3DLAYER
10
137.67305062137956
20
14.389693198987795
30
4.1322013873465125e-14
 70
     32
  0
VERTEX
  8
MY3DLAYER
10
137.4346726874808
20
14.079033027207823
30
4.143575880142768e-14
 70
     32
  0
VERTEX
  8
MY3DLAYER
10
137.12401251570262
20
13.840655093311312
30
4.1590028650444143e-14
 70
     32
  0
VERTEX
  8
MY3DLAYER
10
136.7622410833556
20
13.690804459554112
30
4.177431018525008e-14
 70
     32
  0
VERTEX
  8
MY3DLAYER
10
136.37401251570208
20
13.63969319898941
30
4.1976044923786356e-14
 70
     32
  0
VERTEX
  8
MY3DLAYER
10
134.87401251570188
20
13.639693198988326
30
4.276264621812589e-14
 70
     32
  0
VERTEX
  8
MY3DLAYER
10
134.48578394804852
20
13.690804459554203
30
4.296808627134399e-14
 70
     32
  0
VERTEX
  8
MY3DLAYER
10
134.1240125157015
20
13.840655093311764
30
4.3163231239123684e-14
 70
     32
  0
VERTEX
  8
MY3DLAYER
10
133.8133523439219
20
14.079033027208725
30
4.33347823144019e-14
 70
     32
  0
VERTEX
  8
MY3DLAYER
10
133.5749744100244
20
14.389693198988336
30
4.347104857490095e-14
 70
     32
  0
VERTEX
  8
MY3DLAYER
10
133.4251237762671
20
14.751464631334184
30
4.3562743700157906e-14
 70
     32
  0
VERTEX
  8
MY3DLAYER
10
133.37401251570367
20
15.139693198989429
30
4.360361881891836e-14
 70
     32
  0
VERTEX
  8
MY3DLAYER
10
133.42512377626727
20
15.52792176664314
30
4.359088835939262e-14
 70
     32
  0
VERTEX
  8
MY3DLAYER
10
133.57497441002585
20
15.889693198987814
30
4.352541988135409e-14
 70
     32
  0
SEQEND
  0
POLYLINE
 8
Layer0
 66
     1
70
    8
 10
0.0
 20
 0.0
 30
0.0
  0
VERTEX
  8
MY3DLAYER
10
139.8743142051681
20
14.945528116602283
30
4.0187816997767106e-14
 70
     32
  0
VERTEX
  8
MY3DLAYER
10
139.95284744666355
20
15.986780290059512
30
4.0184376925506994e-14
 70
     32
  0
VERTEX
  8
MY3DLAYER
10
140.29820062609218
20
16.972226757509453
30
4.003899342812889e-14
 70
     32
  0
VERTEX
  8
MY3DLAYER
10
140.88683849499782
20
17.834710970720018
30
3.976157415072204e-14
 70
     32
  0
VERTEX
  8
MY3DLAYER
10
141.67864635538638
20
18.51545605588765
30
3.937102475858391e-14
 70
     32
  0
VERTEX
  8
MY3DLAYER
10
142.6196638100942
20
18.96807036043808
30
3.8893960547376546e-14
 70
     32
  0
VERTEX
  8
MY3DLAYER
10
143.6457620746893
20
19.161708967500715
30
3.836289265470717e-14
 70
     32
  0
VERTEX
  8
MY3DLAYER
10
144.68701424814716
20
19.08317572600508
30
3.78140124798299e-14
 70
     32
  0
VERTEX
  8
MY3DLAYER
10
145.67246071559566
20
18.73782254657555
30
3.7284725299596e-14
 70
     32
  0
VERTEX
  8
MY3DLAYER
10
146.5349449288071
20
18.149184677670917
30
3.6811101160649283e-14
 70
     32
  0
VERTEX
  8
MY3DLAYER
10
147.21569001397359
20
17.357376817283427
30
3.6425416765358013e-14
 70
     32
  0
VERTEX
  8
MY3DLAYER
10
147.66830431852637
20
16.416359362574976
30
3.615395586788721e-14
 70
     32
  0
VERTEX
  8
MY3DLAYER
10
147.86194292558702
20
15.390261097979437
30
3.601521807979112e-14
 70
     32
  0
VERTEX
  8
MY3DLAYER
10
147.783409684091
20
14.349008924522387
30
3.601865815205153e-14
 70
     32
  0
VERTEX
  8
MY3DLAYER
10
147.43805650466294
20
13.363562457072716
30
3.616404164942937e-14
 70
     32
  0
VERTEX
  8
MY3DLAYER
10
146.8494186357564
20
12.501078243861514
30
3.644146092683666e-14
 70
     32
  0
VERTEX
  8
MY3DLAYER
10
146.05761077536962
20
11.820333158693952
30
3.6832010318973834e-14
 70
     32
  0
VERTEX
  8
MY3DLAYER
10
145.11659332066128
20
11.36771885414298
30
3.7309074530181484e-14
 70
     32
  0
VERTEX
  8
MY3DLAYER
10
144.0904950560658
20
11.174080247082333
30
3.7840142422851116e-14
 70
     32
  0
VERTEX
  8
MY3DLAYER
10
143.0492428826094
20
11.252613488577246
30
3.838902259772761e-14
 70
     32
  0
VERTEX
  8
MY3DLAYER
10
142.06379641515983
20
11.597966668005872
30
3.891830977796203e-14
 70
     32
  0
VERTEX
  8
MY3DLAYER
10
141.20131220194781
20
12.18660453691286
30
3.9391933916909125e-14
 70
     32
  0
VERTEX
  8
MY3DLAYER
10
140.52056711678136
20
12.978412397299374
30
3.977761831220036e-14
 70
     32
  0
VERTEX
  8
MY3DLAYER
10
140.0679528122309
20
13.919429852006834
30
4.0049079209669894e-14
 70
     32
  0
VERTEX
  8
MY3DLAYER
10
139.8743142051681
20
14.945528116602283
30
4.0187816997767106e-14
 70
     32
  0
SEQEND
  0
POLYLINE
 8
Layer0
 66
     1
70
    8
 10
0.0
 20
 0.0
 30
0.0
  0
VERTEX
  8
MY3DLAYER
10
4.869772333428658
20
143.13953019154673
30
1.1563103216469068e-13
 70
     32
  0
VERTEX
  8
MY3DLAYER
10
4.719921699671729
20
143.5013016238941
30
1.157227272899475e-13
 70
     32
  0
VERTEX
  8
MY3DLAYER
10
4.668810439106755
20
143.88953019154883
30
1.1576360240870873e-13
 70
     32
  0
VERTEX
  8
MY3DLAYER
10
4.71992169967218
20
144.27775875920045
30
1.1575087194918197e-13
 70
     32
  0
VERTEX
  8
MY3DLAYER
10
4.869772333429921
20
144.6395301915473
30
1.1568540347114394e-13
 70
     32
  0
VERTEX
  8
MY3DLAYER
10
5.108150267326522
20
144.9501903633262
30
1.1557165854318246e-13
 70
     32
  0
VERTEX
  8
MY3DLAYER
10
5.418810439105953
20
145.18856829722415
30
1.1541738869416538e-13
 70
     32
  0
VERTEX
  8
MY3DLAYER
10
5.780581871451891
20
145.33841893098116
30
1.1523310715936003e-13
 70
     32
  0
VERTEX
  8
MY3DLAYER
10
6.168810439105421
20
145.3895301915475
30
1.1503137242082382e-13
 70
     32
  0
VERTEX
  8
MY3DLAYER
10
7.668810439106704
20
145.38953019154766
30
1.1424477112648367e-13
 70
     32
  0
VERTEX
  8
MY3DLAYER
10
8.057039006757979
20
145.33841893098116
30
1.1403933107326664e-13
 70
     32
  0
VERTEX
  8
MY3DLAYER
10
8.41881043910545
20
145.1885682972228
30
1.1384418610548667e-13
 70
     32
  0
VERTEX
  8
MY3DLAYER
10
8.729470610885421
20
144.9501903633278
30
1.1367263503020836e-13
 70
     32
  0
VERTEX
  8
MY3DLAYER
10
8.967848544782385
20
144.63953019154675
30
1.1353636876970951e-13
 70
     32
  0
VERTEX
  8
MY3DLAYER
10
9.117699178540757
20
144.27775875920136
30
1.1344467364445202e-13
 70
     32
  0
VERTEX
  8
MY3DLAYER
10
9.168810439106544
20
143.88953019154764
30
1.1340379852569039e-13
 70
     32
  0
VERTEX
  8
MY3DLAYER
10
9.117699178539674
20
143.5013016238934
30
1.1341652898521782e-13
 70
     32
  0
VERTEX
  8
MY3DLAYER
10
8.967848544783287
20
143.13953019154755
30
1.1348199746325516e-13
 70
     32
  0
VERTEX
  8
MY3DLAYER
10
8.729470610885242
20
142.82887001976857
30
1.1359574239121739e-13
 70
     32
  0
VERTEX
  8
MY3DLAYER
10
8.418810439105991
20
142.5904920858698
30
1.1375001224023437e-13
 70
     32
  0
VERTEX
  8
MY3DLAYER
10
8.05703900675897
20
142.44064145211306
30
1.139342937750403e-13
 70
     32
  0
VERTEX
  8
MY3DLAYER
10
7.668810439105621
20
142.3895301915489
30
1.1413602851357648e-13
 70
     32
  0
VERTEX
  8
MY3DLAYER
10
6.168810439105421
20
142.3895301915471
30
1.14922629807916e-13
 70
     32
  0
VERTEX
  8
MY3DLAYER
10
5.78058187145153
20
142.44064145211306
30
1.151280698611344e-13
 70
     32
  0
VERTEX
  8
MY3DLAYER
10
5.418810439106314
20
142.59049208587106
30
1.1532321482891315e-13
 70
     32
  0
VERTEX
  8
MY3DLAYER
10
5.108150267326522
20
142.82887001976766
30
1.1549476590419145e-13
 70
     32
  0
VERTEX
  8
MY3DLAYER
10
4.869772333428658
20
143.13953019154673
30
1.1563103216469068e-13
 70
     32
  0
SEQEND
  0
POLYLINE
 8
Layer0
 66
     1
70
    8
 10
0.0
 20
 0.0
 30
0.0
  0
VERTEX
  8
MY3DLAYER
10
25.467848544781724
20
143.13953019154755
30
1.0482938322552186e-13
 70
     32
  0
VERTEX
  8
MY3DLAYER
10
25.229470610886384
20
142.8288700197663
30
1.049431281534826e-13
 70
     32
  0
VERTEX
  8
MY3DLAYER
10
24.91881043910659
20
142.5904920858707
30
1.0509739800249997e-13
 70
     32
  0
VERTEX
  8
MY3DLAYER
10
24.557039006759563
20
142.4406414521134
30
1.0528167953730589e-13
 70
     32
  0
VERTEX
  8
MY3DLAYER
10
24.16881043910567
20
142.38953019154627
30
1.0548341427584225e-13
 70
     32
  0
VERTEX
  8
MY3DLAYER
10
22.668810439106373
20
142.38953019154636
30
1.0627001557018136e-13
 70
     32
  0
VERTEX
  8
MY3DLAYER
10
22.28058187145158
20
142.4406414521127
30
1.0647545562340023e-13
 70
     32
  0
VERTEX
  8
MY3DLAYER
10
21.918810439106004
20
142.59049208587177
30
1.0667060059117922e-13
 70
     32
  0
VERTEX
  8
MY3DLAYER
10
21.60815026732621
20
142.82887001976775
30
1.068421516664575e-13
 70
     32
  0
VERTEX
  8
MY3DLAYER
10
21.369772333429157
20
143.13953019154673
30
1.0697841792695631e-13
 70
     32
  0
VERTEX
  8
MY3DLAYER
10
21.219921699673943
20
143.50130162389277
30
1.0707011305221217e-13
 70
     32
  0
VERTEX
  8
MY3DLAYER
10
21.168810439106533
20
143.889530191548
30
1.071109881709747e-13
 70
     32
  0
VERTEX
  8
MY3DLAYER
10
21.219921699672682
20
144.2777587592027
30
1.0709825771144766e-13
 70
     32
  0
VERTEX
  8
MY3DLAYER
10
21.369772333427985
20
144.63953019154775
30
1.0703278923341086e-13
 70
     32
  0
VERTEX
  8
MY3DLAYER
10
21.608150267326753
20
144.95019036332764
30
1.0691904430544828e-13
 70
     32
  0
VERTEX
  8
MY3DLAYER
10
21.91881043910492
20
145.18856829722415
30
1.0676477445643182e-13
 70
     32
  0
VERTEX
  8
MY3DLAYER
10
22.28058187145194
20
145.33841893098133
30
1.065804929216259e-13
 70
     32
  0
VERTEX
  8
MY3DLAYER
10
22.66881043910547
20
145.38953019154604
30
1.0637875818308962e-13
 70
     32
  0
VERTEX
  8
MY3DLAYER
10
24.16881043910567
20
145.38953019154712
30
1.0559215688875008e-13
 70
     32
  0
VERTEX
  8
MY3DLAYER
10
24.55703900675902
20
145.33841893098116
30
1.0538671683553198e-13
 70
     32
  0
VERTEX
  8
MY3DLAYER
10
24.918810439106046
20
145.1885682972237
30
1.0519157186775228e-13
 70
     32
  0
VERTEX
  8
MY3DLAYER
10
25.229470610885663
20
144.95019036332673
30
1.0502002079247405e-13
 70
     32
  0
VERTEX
  8
MY3DLAYER
10
25.467848544783166
20
144.63953019154712
30
1.0488375453197499e-13
 70
     32
  0
VERTEX
  8
MY3DLAYER
10
25.61769917854046
20
144.27775875920116
30
1.0479205940671806e-13
 70
     32
  0
VERTEX
  8
MY3DLAYER
10
25.668810439103897
20
143.88953019154602
30
1.047511842879576e-13
 70
     32
  0
VERTEX
  8
MY3DLAYER
10
25.617699178540278
20
143.50130162389223
30
1.0476391474748334e-13
 70
     32
  0
VERTEX
  8
MY3DLAYER
10
25.467848544781724
20
143.13953019154755
30
1.0482938322552186e-13
 70
     32
  0
SEQEND
  0
POLYLINE
 8
Layer0
 66
     1
70
    8
 10
0.0
 20
 0.0
 30
0.0
  0
VERTEX
  8
MY3DLAYER
10
19.168508749639436
20
144.08369527393324
30
1.0816698610910887e-13
 70
     32
  0
VERTEX
  8
MY3DLAYER
10
19.089975508143983
20
143.04244310047602
30
1.0817042618136899e-13
 70
     32
  0
VERTEX
  8
MY3DLAYER
10
18.744622328715355
20
142.05699663302607
30
1.0831580967874708e-13
 70
     32
  0
VERTEX
  8
MY3DLAYER
10
18.15598445980973
20
141.1945124198155
30
1.0859322895615394e-13
 70
     32
  0
VERTEX
  8
MY3DLAYER
10
17.364176599421157
20
140.5137673346479
30
1.0898377834829204e-13
 70
     32
  0
VERTEX
  8
MY3DLAYER
10
16.42315914471334
20
140.06115303009747
30
1.0946084255949944e-13
 70
     32
  0
VERTEX
  8
MY3DLAYER
10
15.397060880118158
20
139.86751442303492
30
1.0999191045216886e-13
 70
     32
  0
VERTEX
  8
MY3DLAYER
10
14.355808706660207
20
139.94604766453054
30
1.1054079062704618e-13
 70
     32
  0
VERTEX
  8
MY3DLAYER
10
13.37036223921189
20
140.29140084396008
30
1.1107007780727998e-13
 70
     32
  0
VERTEX
  8
MY3DLAYER
10
12.507878026000329
20
140.8800387128648
30
1.1154370194622676e-13
 70
     32
  0
VERTEX
  8
MY3DLAYER
10
11.82713294083395
20
141.6718465732522
30
1.1192938634151797e-13
 70
     32
  0
VERTEX
  8
MY3DLAYER
10
11.374518636281174
20
142.61286402796074
30
1.1220084723898877e-13
 70
     32
  0
VERTEX
  8
MY3DLAYER
10
11.180880029220436
20
143.63896229255627
30
1.123395850270849e-13
 70
     32
  0
VERTEX
  8
MY3DLAYER
10
11.259413270716522
20
144.68021446601324
30
1.1233614495482445e-13
 70
     32
  0
VERTEX
  8
MY3DLAYER
10
11.604766450144696
20
145.66566093346302
30
1.1219076145744656e-13
 70
     32
  0
VERTEX
  8
MY3DLAYER
10
12.193404319051227
20
146.5281451466742
30
1.1191334218003928e-13
 70
     32
  0
VERTEX
  8
MY3DLAYER
10
12.985212179437916
20
147.20889023184165
30
1.1152279278790215e-13
 70
     32
  0
VERTEX
  8
MY3DLAYER
10
13.926229634146457
20
147.6615045363926
30
1.110457285766944e-13
 70
     32
  0
VERTEX
  8
MY3DLAYER
10
14.952327898741727
20
147.85514314345326
30
1.1051466068402484e-13
 70
     32
  0
VERTEX
  8
MY3DLAYER
10
15.993580072198323
20
147.77660990195835
30
1.0996578050914827e-13
 70
     32
  0
VERTEX
  8
MY3DLAYER
10
16.979026539647727
20
147.43125672252955
30
1.0943649332891393e-13
 70
     32
  0
VERTEX
  8
MY3DLAYER
10
17.84151075285973
20
146.84261885362267
30
1.0896286918996685e-13
 70
     32
  0
VERTEX
  8
MY3DLAYER
10
18.522255838026194
20
146.05081099323607
30
1.0857718479467561e-13
 70
     32
  0
VERTEX
  8
MY3DLAYER
10
18.974870142576624
20
145.1097935385288
30
1.0830572389720608e-13
 70
     32
  0
VERTEX
  8
MY3DLAYER
10
19.168508749639436
20
144.08369527393324
30
1.0816698610910887e-13
 70
     32
  0
SEQEND
  0
POLYLINE
 8
Layer0
 66
     1
70
    8
 10
0.0
 20
 0.0
 30
0.0
  0
VERTEX
  8
MY3DLAYER
10
144.09049505606907
20
139.8675144230324
30
4.250496252163962e-14
 70
     32
  0
VERTEX
  8
MY3DLAYER
10
143.04924288261174
20
139.94604766452775
30
4.305384269651659e-14
 70
     32
  0
VERTEX
  8
MY3DLAYER
10
142.06379641516182
20
140.29140084395647
30
4.358312987675121e-14
 70
     32
  0
VERTEX
  8
MY3DLAYER
10
141.20131220195125
20
140.8800387128621
30
4.4056754015697506e-14
 70
     32
  0
VERTEX
  8
MY3DLAYER
10
140.5205671167837
20
141.67184657325058
30
4.4442438410989376e-14
 70
     32
  0
VERTEX
  8
MY3DLAYER
10
140.06795281223327
20
142.6128640279584
30
4.471389930845892e-14
 70
     32
  0
VERTEX
  8
MY3DLAYER
10
139.87431420517063
20
143.63896229255366
30
4.485263709655601e-14
 70
     32
  0
VERTEX
  8
MY3DLAYER
10
139.95284744666645
20
144.68021446601153
30
4.484919702429576e-14
 70
     32
  0
VERTEX
  8
MY3DLAYER
10
140.2982006260958
20
145.66566093346003
30
4.4703813526917196e-14
 70
     32
  0
VERTEX
  8
MY3DLAYER
10
140.88683849500052
20
146.52814514667148
30
4.4426394249510866e-14
 70
     32
  0
VERTEX
  8
MY3DLAYER
10
141.67864635538803
20
147.20889023183778
30
4.403584485737328e-14
 70
     32
  0
VERTEX
  8
MY3DLAYER
10
142.61966381009657
20
147.66150453639065
30
4.3558780646165583e-14
 70
     32
  0
VERTEX
  8
MY3DLAYER
10
143.64576207469202
20
147.8551431434514
30
4.302771275349595e-14
 70
     32
  0
VERTEX
  8
MY3DLAYER
10
144.68701424814915
20
147.7766099019552
30
4.2478832578619043e-14
 70
     32
  0
VERTEX
  8
MY3DLAYER
10
145.67246071559873
20
147.43125672252702
30
4.194954539838464e-14
 70
     32
  0
VERTEX
  8
MY3DLAYER
10
146.53494492881
20
146.8426188536205
30
4.147592125943794e-14
 70
     32
  0
VERTEX
  8
MY3DLAYER
10
147.21569001397737
20
146.05081099323382
30
4.109023686414624e-14
 70
     32
  0
VERTEX
  8
MY3DLAYER
10
147.66830431852836
20
145.10979353852528
30
4.081877596667637e-14
 70
     32
  0
VERTEX
  8
MY3DLAYER
10
147.861942925589
20
144.08369527393
30
4.06800381785803e-14
 70
     32
  0
VERTEX
  8
MY3DLAYER
10
147.78340968409407
20
143.0424431004734
30
4.0683478250840156e-14
 70
     32
  0
VERTEX
  8
MY3DLAYER
10
147.43805650466544
20
142.056996633024
30
4.082886174821828e-14
 70
     32
  0
VERTEX
  8
MY3DLAYER
10
146.84941863575838
20
141.194512419812
30
4.1106281025625826e-14
 70
     32
  0
VERTEX
  8
MY3DLAYER
10
146.05761077537178
20
140.51376733464554
30
4.1496830417762935e-14
 70
     32
  0
VERTEX
  8
MY3DLAYER
10
145.11659332066452
20
140.0611530300951
30
4.197389462897005e-14
 70
     32
  0
VERTEX
  8
MY3DLAYER
10
144.09049505606907
20
139.8675144230324
30
4.250496252163962e-14
 70
     32
  0
SEQEND
  0
POLYLINE
 8
Layer0
 66
     1
70
    8
 10
0.0
 20
 0.0
 30
0.0
  0
VERTEX
  8
MY3DLAYER
10
143.14632997368318
20
133.5681746278901
30
4.277174794925025e-14
 70
     32
  0
VERTEX
  8
MY3DLAYER
10
142.83566980190193
20
133.80655256178537
30
4.294329902452927e-14
 70
     32
  0
VERTEX
  8
MY3DLAYER
10
142.59729186800644
20
134.11721273356514
30
4.307956528502727e-14
 70
     32
  0
VERTEX
  8
MY3DLAYER
10
142.44744123424914
20
134.47898416591218
30
4.3171260410284273e-14
 70
     32
  0
VERTEX
  8
MY3DLAYER
10
142.3963299736819
20
134.86721273356608
30
4.3212135529046644e-14
 70
     32
  0
VERTEX
  8
MY3DLAYER
10
142.39632997368207
20
136.36721273356537
30
4.3266506835500425e-14
 70
     32
  0
VERTEX
  8
MY3DLAYER
10
142.4474412342484
20
136.75544130122015
30
4.3253776375973304e-14
 70
     32
  0
VERTEX
  8
MY3DLAYER
10
142.59729186800752
20
137.11721273356574
30
4.3188307897934537e-14
 70
     32
  0
VERTEX
  8
MY3DLAYER
10
142.83566980190358
20
137.42787290534554
30
4.3074562969973365e-14
 70
     32
  0
VERTEX
  8
MY3DLAYER
10
143.14632997368244
20
137.66625083924268
30
4.292029312095656e-14
 70
     32
  0
VERTEX
  8
MY3DLAYER
10
143.5081014060284
20
137.8161014729978
30
4.2736011586151125e-14
 70
     32
  0
VERTEX
  8
MY3DLAYER
10
143.89632997368372
20
137.8672127335652
30
4.253427684761399e-14
 70
     32
  0
VERTEX
  8
MY3DLAYER
10
144.28455854133853
20
137.81610147299907
30
4.2328836794395114e-14
 70
     32
  0
VERTEX
  8
MY3DLAYER
10
144.64632997368338
20
137.66625083924376
30
4.213369182661664e-14
 70
     32
  0
VERTEX
  8
MY3DLAYER
10
144.95699014546335
20
137.42787290534497
30
4.196214075133816e-14
 70
     32
  0
VERTEX
  8
MY3DLAYER
10
145.19536807935995
20
137.11721273356682
30
4.182587449083963e-14
 70
     32
  0
VERTEX
  8
MY3DLAYER
10
145.34521871311705
20
136.7554413012198
30
4.173417936558276e-14
 70
     32
  0
VERTEX
  8
MY3DLAYER
10
145.39632997368176
20
136.36721273356628
30
4.1693304246821705e-14
 70
     32
  0
VERTEX
  8
MY3DLAYER
10
145.39632997368284
20
134.86721273356608
30
4.1638932940367224e-14
 70
     32
  0
VERTEX
  8
MY3DLAYER
10
145.34521871311688
20
134.47898416591272
30
4.16516633998942e-14
 70
     32
  0
VERTEX
  8
MY3DLAYER
10
145.1953680793594
20
134.1172127335658
30
4.171713187793209e-14
 70
     32
  0
VERTEX
  8
MY3DLAYER
10
144.95699014546244
20
133.80655256178608
30
4.183087680589372e-14
 70
     32
  0
VERTEX
  8
MY3DLAYER
10
144.64632997368284
20
133.56817462788857
30
4.1985146654910906e-14
 70
     32
  0
VERTEX
  8
MY3DLAYER
10
144.2845585413369
20
133.4183239941313
30
4.2169428189716265e-14
 70
     32
  0
VERTEX
  8
MY3DLAYER
10
143.89632997368156
20
133.36721273356784
30
4.237116292825352e-14
 70
     32
  0
VERTEX
  8
MY3DLAYER
10
143.50810140602786
20
133.41832399413147
30
4.257660298147173e-14
 70
     32
  0
VERTEX
  8
MY3DLAYER
10
143.14632997368318
20
133.5681746278901
30
4.277174794925025e-14
 70
     32
  0
SEQEND
  0
POLYLINE
 8
Layer0
 66
     1
70
    8
 10
0.0
 20
 0.0
 30
0.0
  0
VERTEX
  8
MY3DLAYER
10
143.14632997368264
20
154.16625083924308
30
4.351837749194936e-14
 70
     32
  0
VERTEX
  8
MY3DLAYER
10
143.50810140603002
20
154.316101473
30
4.333409595714324e-14
 70
     32
  0
VERTEX
  8
MY3DLAYER
10
143.89632997368463
20
154.36721273356497
30
4.313236121860641e-14
 70
     32
  0
VERTEX
  8
MY3DLAYER
10
144.28455854133617
20
154.31610147299955
30
4.2926921165389257e-14
 70
     32
  0
VERTEX
  8
MY3DLAYER
10
144.6463299736832
20
154.1662508392418
30
4.2731776197609556e-14
 70
     32
  0
VERTEX
  8
MY3DLAYER
10
144.9569901454619
20
153.9278729053452
30
4.2560225122331823e-14
 70
     32
  0
VERTEX
  8
MY3DLAYER
10
145.19536807935995
20
153.61721273356576
30
4.2423958861832474e-14
 70
     32
  0
VERTEX
  8
MY3DLAYER
10
145.34521871311705
20
153.25544130121992
30
4.233226373657564e-14
 70
     32
  0
VERTEX
  8
MY3DLAYER
10
145.3963299736832
20
152.8672127335663
30
4.229138861781385e-14
 70
     32
  0
VERTEX
  8
MY3DLAYER
10
145.39632997368358
20
151.3672127335651
30
4.22370173113597e-14
 70
     32
  0
VERTEX
  8
MY3DLAYER
10
145.34521871311705
20
150.97898416591383
30
4.224974777088704e-14
 70
     32
  0
VERTEX
  8
MY3DLAYER
10
145.19536807935867
20
150.61721273356628
30
4.231521624892537e-14
 70
     32
  0
VERTEX
  8
MY3DLAYER
10
144.95699014546352
20
150.3065525617863
30
4.242896117688606e-14
 70
     32
  0
VERTEX
  8
MY3DLAYER
10
144.64632997368247
20
150.06817462788933
30
4.258323102590401e-14
 70
     32
  0
VERTEX
  8
MY3DLAYER
10
144.28455854133725
20
149.91832399413096
30
4.276751256070894e-14
 70
     32
  0
VERTEX
  8
MY3DLAYER
10
143.89632997368355
20
149.86721273356517
30
4.2969247299245273e-14
 70
     32
  0
VERTEX
  8
MY3DLAYER
10
143.5081014060291
20
149.91832399413204
30
4.317468735246399e-14
 70
     32
  0
VERTEX
  8
MY3DLAYER
10
143.14632997368335
20
150.06817462788854
30
4.336983232024299e-14
 70
     32
  0
VERTEX
  8
MY3DLAYER
10
142.8356698019043
20
150.30655256178656
30
4.354138339552096e-14
 70
     32
  0
VERTEX
  8
MY3DLAYER
10
142.59729186800553
20
150.61721273356574
30
4.367764965602067e-14
 70
     32
  0
VERTEX
  8
MY3DLAYER
10
142.44744123424877
20
150.97898416591275
30
4.376934478127737e-14
 70
     32
  0
VERTEX
  8
MY3DLAYER
10
142.3963299736846
20
151.3672127335662
30
4.381021990003812e-14
 70
     32
  0
VERTEX
  8
MY3DLAYER
10
142.39632997368298
20
152.8672127335664
30
4.3864591206492864e-14
 70
     32
  0
VERTEX
  8
MY3DLAYER
10
142.44744123424877
20
153.2554413012202
30
4.385186074696601e-14
 70
     32
  0
VERTEX
  8
MY3DLAYER
10
142.59729186800698
20
153.6172127335654
30
4.3786392268927695e-14
 70
     32
  0
VERTEX
  8
MY3DLAYER
10
142.83566980190338
20
153.9278729053452
30
4.367264734096632e-14
 70
     32
  0
VERTEX
  8
MY3DLAYER
10
143.14632997368264
20
154.16625083924308
30
4.351837749194936e-14
 70
     32
  0
SEQEND
  0
POLYLINE
 8
Layer0
 66
     1
70
    8
 10
0.0
 20
 0.0
 30
0.0
  0
VERTEX
  8
MY3DLAYER
10
14.952327898738659
20
19.16170896750315
30
1.0584984058523626e-13
 70
     32
  0
VERTEX
  8
MY3DLAYER
10
15.993580072195888
20
19.083175726007696
30
1.0530096041035933e-13
 70
     32
  0
VERTEX
  8
MY3DLAYER
10
16.97902653964574
20
18.73782254657907
30
1.0477167323012476e-13
 70
     32
  0
VERTEX
  8
MY3DLAYER
10
17.8415107528563
20
18.149184677673446
30
1.0429804909117849e-13
 70
     32
  0
VERTEX
  8
MY3DLAYER
10
18.522255838023938
20
17.357376817284873
30
1.0391236469588657e-13
 70
     32
  0
VERTEX
  8
MY3DLAYER
10
18.974870142574368
20
16.41635936257705
30
1.0364090379841702e-13
 70
     32
  0
VERTEX
  8
MY3DLAYER
10
19.16850874963691
20
15.390261097981872
30
1.0350216601031994e-13
 70
     32
  0
VERTEX
  8
MY3DLAYER
10
19.089975508141276
20
14.349008924524012
30
1.0350560608258012e-13
 70
     32
  0
VERTEX
  8
MY3DLAYER
10
18.744622328711838
20
13.363562457075604
30
1.0365098957995872e-13
 70
     32
  0
VERTEX
  8
MY3DLAYER
10
18.15598445980711
20
12.501078243864042
30
1.0392840885736506e-13
 70
     32
  0
VERTEX
  8
MY3DLAYER
10
17.364176599419622
20
11.820333158697743
30
1.0431895824950266e-13
 70
     32
  0
VERTEX
  8
MY3DLAYER
10
16.423159144711082
20
11.367718854144876
30
1.0479602246071033e-13
 70
     32
  0
VERTEX
  8
MY3DLAYER
10
15.397060880115541
20
11.174080247084229
30
1.0532709035338002e-13
 70
     32
  0
VERTEX
  8
MY3DLAYER
10
14.355808706658493
20
11.252613488580224
30
1.0587597052825687e-13
 70
     32
  0
VERTEX
  8
MY3DLAYER
10
13.370362239208822
20
11.597966668008489
30
1.0640525770849134e-13
 70
     32
  0
VERTEX
  8
MY3DLAYER
10
12.507878025997622
20
12.186604536915025
30
1.0687888184743799e-13
 70
     32
  0
VERTEX
  8
MY3DLAYER
10
11.82713294083016
20
12.978412397301721
30
1.0726456624272975e-13
 70
     32
  0
VERTEX
  8
MY3DLAYER
10
11.37451863627919
20
13.919429852010172
30
1.0753602714019961e-13
 70
     32
  0
VERTEX
  8
MY3DLAYER
10
11.180880029218542
20
14.945528116605532
30
1.0767476492829568e-13
 70
     32
  0
VERTEX
  8
MY3DLAYER
10
11.259413270713544
20
15.986780290062038
30
1.0767132485603578e-13
 70
     32
  0
VERTEX
  8
MY3DLAYER
10
11.604766450142261
20
16.97222675751153
30
1.0752594135865761e-13
 70
     32
  0
VERTEX
  8
MY3DLAYER
10
12.193404319049153
20
17.834710970723446
30
1.0724852208125015e-13
 70
     32
  0
VERTEX
  8
MY3DLAYER
10
12.98521217943575
20
18.515456055889906
30
1.0685797268911303e-13
 70
     32
  0
VERTEX
  8
MY3DLAYER
10
13.92622963414312
20
18.968070360440336
30
1.0638090847790587e-13
 70
     32
  0
VERTEX
  8
MY3DLAYER
10
14.952327898738659
20
19.16170896750315
30
1.0584984058523626e-13
 70
     32
  0
SEQEND
  0
POLYLINE
 8
Layer0
 66
     1
70
    8
 10
0.0
 20
 0.0
 30
0.0
  0
VERTEX
  8
MY3DLAYER
10
15.896492981124371
20
25.461048762645426
30
1.0558305515762573e-13
 70
     32
  0
VERTEX
  8
MY3DLAYER
10
16.207153152905605
20
25.22267082875009
30
1.0541150408234671e-13
 70
     32
  0
VERTEX
  8
MY3DLAYER
10
16.445531086801303
20
24.9120106569703
30
1.0527523782184861e-13
 70
     32
  0
VERTEX
  8
MY3DLAYER
10
16.595381720558503
20
24.550239224623276
30
1.0518354269659165e-13
 70
     32
  0
VERTEX
  8
MY3DLAYER
10
16.646492981125643
20
24.162010656969475
30
1.0514266757782932e-13
 70
     32
  0
VERTEX
  8
MY3DLAYER
10
16.646492981125554
20
22.662010656970086
30
1.050882962713755e-13
 70
     32
  0
VERTEX
  8
MY3DLAYER
10
16.595381720559136
20
22.273782089315294
30
1.0510102673090267e-13
 70
     32
  0
VERTEX
  8
MY3DLAYER
10
16.44553108680013
20
21.912010656969805
30
1.051664952089414e-13
 70
     32
  0
VERTEX
  8
MY3DLAYER
10
16.207153152904162
20
21.601350485190014
30
1.0528024013690252e-13
 70
     32
  0
VERTEX
  8
MY3DLAYER
10
15.896492981125183
20
21.362972551292962
30
1.0543450998591938e-13
 70
     32
  0
VERTEX
  8
MY3DLAYER
10
15.534721548779155
20
21.213121917537748
30
1.0561879152072485e-13
 70
     32
  0
VERTEX
  8
MY3DLAYER
10
15.146492981123819
20
21.162010656970338
30
1.0582052625926199e-13
 70
     32
  0
VERTEX
  8
MY3DLAYER
10
14.758264413469206
20
21.213121917536395
30
1.0602596631248074e-13
 70
     32
  0
VERTEX
  8
MY3DLAYER
10
14.39649298112417
20
21.36297255129179
30
1.0622111128025934e-13
 70
     32
  0
VERTEX
  8
MY3DLAYER
10
14.085832809344199
20
21.601350485190466
30
1.063926623555378e-13
 70
     32
  0
VERTEX
  8
MY3DLAYER
10
13.847454875447779
20
21.912010656968725
30
1.0652892861603624e-13
 70
     32
  0
VERTEX
  8
MY3DLAYER
10
13.697604241690488
20
22.273782089315745
30
1.0662062374129325e-13
 70
     32
  0
VERTEX
  8
MY3DLAYER
10
13.646492981125785
20
22.662010656969276
30
1.0666149886005427e-13
 70
     32
  0
VERTEX
  8
MY3DLAYER
10
13.646492981124792
20
24.162010656969567
30
1.0671587016650869e-13
 70
     32
  0
VERTEX
  8
MY3DLAYER
10
13.697604241690668
20
24.550239224622825
30
1.0670313970698177e-13
 70
     32
  0
VERTEX
  8
MY3DLAYER
10
13.84745487544823
20
24.912010656969755
30
1.0663767122894385e-13
 70
     32
  0
VERTEX
  8
MY3DLAYER
10
14.085832809345282
20
25.222670828749457
30
1.0652392630098215e-13
 70
     32
  0
VERTEX
  8
MY3DLAYER
10
14.396492981124892
20
25.461048762646872
30
1.0636965645196497e-13
 70
     32
  0
VERTEX
  8
MY3DLAYER
10
14.75826441347065
20
25.61089939640416
30
1.0618537491715972e-13
 70
     32
  0
VERTEX
  8
MY3DLAYER
10
15.146492981125986
20
25.6620106569676
30
1.0598364017862244e-13
 70
     32
  0
VERTEX
  8
MY3DLAYER
10
15.534721548779697
20
25.61089939640398
30
1.0577820012540422e-13
 70
     32
  0
VERTEX
  8
MY3DLAYER
10
15.896492981124371
20
25.461048762645426
30
1.0558305515762573e-13
 70
     32
  0
SEQEND
  0
POLYLINE
 8
Layer0
 66
     1
70
    8
 10
0.0
 20
 0.0
 30
0.0
  0
VERTEX
  8
MY3DLAYER
10
15.896492981125093
20
4.862972551292451
30
1.0483642561492652e-13
 70
     32
  0
VERTEX
  8
MY3DLAYER
10
15.534721548777531
20
4.713121917535431
30
1.0502070714973274e-13
 70
     32
  0
VERTEX
  8
MY3DLAYER
10
15.146492981122917
20
4.662010656970548
30
1.0522244188826957e-13
 70
     32
  0
VERTEX
  8
MY3DLAYER
10
14.758264413471371
20
4.713121917535973
30
1.054278819414867e-13
 70
     32
  0
VERTEX
  8
MY3DLAYER
10
14.39649298112444
20
4.862972551293714
30
1.0562302690926637e-13
 70
     32
  0
VERTEX
  8
MY3DLAYER
10
14.085832809345643
20
5.101350485190315
30
1.0579457798454414e-13
 70
     32
  0
VERTEX
  8
MY3DLAYER
10
13.847454875447598
20
5.412010656969655
30
1.0593084424504348e-13
 70
     32
  0
VERTEX
  8
MY3DLAYER
10
13.697604241690579
20
5.773782089315594
30
1.0602253937030029e-13
 70
     32
  0
VERTEX
  8
MY3DLAYER
10
13.646492981124341
20
6.162010656969124
30
1.0606341448906214e-13
 70
     32
  0
VERTEX
  8
MY3DLAYER
10
13.646492981124071
20
7.662010656970406
30
1.0611778579551622e-13
 70
     32
  0
VERTEX
  8
MY3DLAYER
10
13.697604241690579
20
8.05023922462177
30
1.0610505533598887e-13
 70
     32
  0
VERTEX
  8
MY3DLAYER
10
13.847454875449042
20
8.412010656969242
30
1.0603958685795051e-13
 70
     32
  0
VERTEX
  8
MY3DLAYER
10
14.085832809344017
20
8.722670828749123
30
1.0592584192998992e-13
 70
     32
  0
VERTEX
  8
MY3DLAYER
10
14.396492981125073
20
8.961048762646175
30
1.0577157208097195e-13
 70
     32
  0
VERTEX
  8
MY3DLAYER
10
14.75826441347038
20
9.11089939640455
30
1.0558729054616698e-13
 70
     32
  0
VERTEX
  8
MY3DLAYER
10
15.146492981124181
20
9.162010656970244
30
1.053855558076306e-13
 70
     32
  0
VERTEX
  8
MY3DLAYER
10
15.534721548778434
20
9.110899396403376
30
1.0518011575441199e-13
 70
     32
  0
VERTEX
  8
MY3DLAYER
10
15.89649298112428
20
8.961048762646987
30
1.0498497078663293e-13
 70
     32
  0
VERTEX
  8
MY3DLAYER
10
16.20715315290326
20
8.722670828748944
30
1.0481341971135501e-13
 70
     32
  0
VERTEX
  8
MY3DLAYER
10
16.445531086802028
20
8.412010656969784
30
1.046771534508553e-13
 70
     32
  0
VERTEX
  8
MY3DLAYER
10
16.595381720558777
20
8.050239224622672
30
1.0458545832559861e-13
 70
     32
  0
VERTEX
  8
MY3DLAYER
10
16.646492981122936
20
7.662010656969323
30
1.0454458320683784e-13
 70
     32
  0
VERTEX
  8
MY3DLAYER
10
16.64649298112474
20
6.162010656969124
30
1.0449021190038299e-13
 70
     32
  0
VERTEX
  8
MY3DLAYER
10
16.595381720558777
20
5.773782089315233
30
1.0450294235990996e-13
 70
     32
  0
VERTEX
  8
MY3DLAYER
10
16.445531086800763
20
5.412010656970016
30
1.0456841083794818e-13
 70
     32
  0
VERTEX
  8
MY3DLAYER
10
16.207153152904162
20
5.101350485190225
30
1.0468215576590963e-13
 70
     32
  0
VERTEX
  8
MY3DLAYER
10
15.896492981125093
20
4.862972551292451
30
1.0483642561492652e-13
 70
     32
  0
SEQEND
  0
POLYLINE
 8
Layer0
 66
     1
70
    8
 10
0.0
 20
 0.0
 30
0.0
  0
VERTEX
  8
MY3DLAYER
10
62.7714114774038
20
94.76461169526777
30
8.351389095584332e-14
 70
     32
  0
VERTEX
  8
MY3DLAYER
10
62.77863438739556
20
94.9116374057621
30
8.351543257558562e-14
 70
     32
  0
VERTEX
  8
MY3DLAYER
10
62.800233556798936
20
95.05724717829197
30
8.350938394822268e-14
 70
     32
  0
VERTEX
  8
MY3DLAYER
10
62.836000973805454
20
95.20003871114943
30
8.349580332534233e-14
 70
     32
  0
VERTEX
  8
MY3DLAYER
10
62.88559217863685
20
95.33863684381541
30
8.347482149576694e-14
 70
     32
  0
VERTEX
  8
MY3DLAYER
10
62.94852958088133
20
95.47170680050678
30
8.344664052598506e-14
 70
     32
  0
VERTEX
  8
MY3DLAYER
10
63.02420705895003
20
95.5979670447971
30
8.34115318141411e-14
 70
     32
  0
VERTEX
  8
MY3DLAYER
10
63.11189579735969
20
95.71620162151318
30
8.336983347632246e-14
 70
     32
  0
VERTEX
  8
MY3DLAYER
10
63.21075130562393
20
95.82527186704749
30
8.332194709031694e-14
 70
     32
  0
VERTEX
  8
MY3DLAYER
10
63.319821551158334
20
95.92412737531181
30
8.326833382819907e-14
 70
     32
  0
VERTEX
  8
MY3DLAYER
10
63.43805612787441
20
96.01181611372148
30
8.320951001499113e-14
 70
     32
  0
VERTEX
  8
MY3DLAYER
10
63.564316372164825
20
96.08749359179018
30
8.314604215617066e-14
 70
     32
  0
VERTEX
  8
MY3DLAYER
10
63.69738632885619
20
96.15043099403466
30
8.307854148191313e-14
 70
     32
  0
VERTEX
  8
MY3DLAYER
10
63.83598446152208
20
96.20002219886605
30
8.300765806061134e-14
 70
     32
  0
VERTEX
  8
MY3DLAYER
10
63.97877599437963
20
96.23578961587258
30
8.29340745383611e-14
 70
     32
  0
VERTEX
  8
MY3DLAYER
10
64.12438576690941
20
96.25738878527595
30
8.285849956470668e-14
 70
     32
  0
VERTEX
  8
MY3DLAYER
10
64.27141147740383
20
96.26461169526762
30
8.278166096795772e-14
 70
     32
  0
VERTEX
  8
MY3DLAYER
10
64.41843718789823
20
96.25738878527595
30
8.270429874580524e-14
 70
     32
  0
VERTEX
  8
MY3DLAYER
10
64.56404696042802
20
96.23578961587258
30
8.262715793873912e-14
 70
     32
  0
VERTEX
  8
MY3DLAYER
10
64.70683849328557
20
96.20002219886605
30
8.255098145490072e-14
 70
     32
  0
VERTEX
  8
MY3DLAYER
10
64.84543662595146
20
96.15043099403466
30
8.247650291547184e-14
 70
     32
  0
VERTEX
  8
MY3DLAYER
10
64.97850658264282
20
96.08749359179018
30
8.24044395895012e-14
 70
     32
  0
VERTEX
  8
MY3DLAYER
10
65.10476682693324
20
96.01181611372148
30
8.233548548621175e-14
 70
     32
  0
VERTEX
  8
MY3DLAYER
10
65.2230014036493
20
95.92412737531181
30
8.227030467131228e-14
 70
     32
  0
VERTEX
  8
MY3DLAYER
10
65.33207164918372
20
95.82527186704749
30
8.220952487168175e-14
 70
     32
  0
VERTEX
  8
MY3DLAYER
10
65.43092715744795
20
95.71620162151318
30
8.215373143001631e-14
 70
     32
  0
VERTEX
  8
MY3DLAYER
10
65.51861589585761
20
95.5979670447971
30
8.21034616676589e-14
 70
     32
  0
VERTEX
  8
MY3DLAYER
10
65.59429337392632
20
95.47170680050678
30
8.205919970990126e-14
 70
     32
  0
VERTEX
  8
MY3DLAYER
10
65.65723077617079
20
95.33863684381541
30
8.202137182359265e-14
 70
     32
  0
VERTEX
  8
MY3DLAYER
10
65.7068219810022
20
95.20003871114943
30
8.199034231195707e-14
 70
     32
  0
VERTEX
  8
MY3DLAYER
10
65.74258939800872
20
95.05724717829197
30
8.196641000615407e-14
 70
     32
  0
VERTEX
  8
MY3DLAYER
10
65.76418856741208
20
94.9116374057621
30
8.194980538737123e-14
 70
     32
  0
VERTEX
  8
MY3DLAYER
10
65.77141147740384
20
94.76461169526777
30
8.194068836716436e-14
 70
     32
  0
VERTEX
  8
MY3DLAYER
10
65.76418856741208
20
94.61758598477346
30
8.193914674742205e-14
 70
     32
  0
VERTEX
  8
MY3DLAYER
10
65.74258939800872
20
94.47197621224358
30
8.194519537478501e-14
 70
     32
  0
VERTEX
  8
MY3DLAYER
10
65.7068219810022
20
94.32918467938612
30
8.195877599766533e-14
 70
     32
  0
VERTEX
  8
MY3DLAYER
10
65.65723077617079
20
94.19058654672014
30
8.197975782724075e-14
 70
     32
  0
VERTEX
  8
MY3DLAYER
10
65.59429337392632
20
94.05751659002887
30
8.20079387970226e-14
 70
     32
  0
VERTEX
  8
MY3DLAYER
10
65.51861589585761
20
93.93125634573836
30
8.204304750886656e-14
 70
     32
  0
VERTEX
  8
MY3DLAYER
10
65.43092715744795
20
93.81302176902228
30
8.208474584668519e-14
 70
     32
  0
VERTEX
  8
MY3DLAYER
10
65.33207164918372
20
93.70395152348797
30
8.213263223269072e-14
 70
     32
  0
VERTEX
  8
MY3DLAYER
10
65.2230014036493
20
93.60509601522374
30
8.218624549480859e-14
 70
     32
  0
VERTEX
  8
MY3DLAYER
10
65.10476682693324
20
93.51740727681407
30
8.224506930801653e-14
 70
     32
  0
VERTEX
  8
MY3DLAYER
10
64.97850658264282
20
93.44172979874519
30
8.2308537166837e-14
 70
     32
  0
VERTEX
  8
MY3DLAYER
10
64.84543662595146
20
93.37879239650088
30
8.237603784109453e-14
 70
     32
  0
VERTEX
  8
MY3DLAYER
10
64.70683849328557
20
93.3292011916695
30
8.244692126239635e-14
 70
     32
  0
VERTEX
  8
MY3DLAYER
10
64.56404696042802
20
93.29343377466297
30
8.252050478464657e-14
 70
     32
  0
VERTEX
  8
MY3DLAYER
10
64.41843718789823
20
93.27183460525943
30
8.259607975830098e-14
 70
     32
  0
VERTEX
  8
MY3DLAYER
10
64.27141147740383
20
93.26461169526776
30
8.267291835504993e-14
 70
     32
  0
VERTEX
  8
MY3DLAYER
10
64.12438576690941
20
93.27183460525943
30
8.275028057720242e-14
 70
     32
  0
VERTEX
  8
MY3DLAYER
10
63.97877599437963
20
93.29343377466297
30
8.282742138426855e-14
 70
     32
  0
VERTEX
  8
MY3DLAYER
10
63.83598446152208
20
93.3292011916695
30
8.290359786810694e-14
 70
     32
  0
VERTEX
  8
MY3DLAYER
10
63.69738632885619
20
93.37879239650088
30
8.297807640753583e-14
 70
     32
  0
VERTEX
  8
MY3DLAYER
10
63.564316372164825
20
93.44172979874519
30
8.305013973350646e-14
 70
     32
  0
VERTEX
  8
MY3DLAYER
10
63.43805612787441
20
93.51740727681407
30
8.311909383679594e-14
 70
     32
  0
VERTEX
  8
MY3DLAYER
10
63.319821551158334
20
93.60509601522374
30
8.318427465169538e-14
 70
     32
  0
VERTEX
  8
MY3DLAYER
10
63.21075130562393
20
93.70395152348797
30
8.324505445132588e-14
 70
     32
  0
VERTEX
  8
MY3DLAYER
10
63.11189579735969
20
93.81302176902228
30
8.330084789299135e-14
 70
     32
  0
VERTEX
  8
MY3DLAYER
10
63.02420705895003
20
93.93125634573836
30
8.335111765534877e-14
 70
     32
  0
VERTEX
  8
MY3DLAYER
10
62.94852958088133
20
94.05751659002887
30
8.339537961310639e-14
 70
     32
  0
VERTEX
  8
MY3DLAYER
10
62.88559217863685
20
94.19058654672014
30
8.343320749941502e-14
 70
     32
  0
VERTEX
  8
MY3DLAYER
10
62.836000973805454
20
94.32918467938612
30
8.346423701105057e-14
 70
     32
  0
VERTEX
  8
MY3DLAYER
10
62.800233556798936
20
94.47197621224358
30
8.348816931685362e-14
 70
     32
  0
VERTEX
  8
MY3DLAYER
10
62.77863438739556
20
94.61758598477346
30
8.350477393563646e-14
 70
     32
  0
VERTEX
  8
MY3DLAYER
10
62.7714114774038
20
94.76461169526777
30
8.351389095584332e-14
 70
     32
  0
SEQEND
  0
POLYLINE
 8
Layer0
 66
     1
70
    8
 10
0.0
 20
 0.0
 30
0.0
  0
VERTEX
  8
MY3DLAYER
10
64.56404696042802
20
62.79343377466287
30
8.141495488675061e-14
 70
     32
  0
VERTEX
  8
MY3DLAYER
10
64.41843718789823
20
62.77183460525951
30
8.149052986040502e-14
 70
     32
  0
VERTEX
  8
MY3DLAYER
10
64.27141147740383
20
62.76461169526783
30
8.156736845715398e-14
 70
     32
  0
VERTEX
  8
MY3DLAYER
10
64.12438576690941
20
62.77183460525951
30
8.164473067930647e-14
 70
     32
  0
VERTEX
  8
MY3DLAYER
10
63.97877599437963
20
62.79343377466287
30
8.17218714863726e-14
 70
     32
  0
VERTEX
  8
MY3DLAYER
10
63.83598446152208
20
62.82920119166939
30
8.179804797021097e-14
 70
     32
  0
VERTEX
  8
MY3DLAYER
10
63.69738632885619
20
62.87879239650079
30
8.187252650963986e-14
 70
     32
  0
VERTEX
  8
MY3DLAYER
10
63.564316372164825
20
62.941729798745264
30
8.194458983561052e-14
 70
     32
  0
VERTEX
  8
MY3DLAYER
10
63.43805612787441
20
63.01740727681398
30
8.201354393889999e-14
 70
     32
  0
VERTEX
  8
MY3DLAYER
10
63.319821551158334
20
63.10509601522364
30
8.207872475379943e-14
 70
     32
  0
VERTEX
  8
MY3DLAYER
10
63.21075130562393
20
63.20395152348805
30
8.213950455342994e-14
 70
     32
  0
VERTEX
  8
MY3DLAYER
10
63.11189579735969
20
63.31302176902237
30
8.21952979950954e-14
 70
     32
  0
VERTEX
  8
MY3DLAYER
10
63.02420705895003
20
63.43125634573844
30
8.224556775745282e-14
 70
     32
  0
VERTEX
  8
MY3DLAYER
10
62.94852958088133
20
63.55751659002876
30
8.228982971521044e-14
 70
     32
  0
VERTEX
  8
MY3DLAYER
10
62.88559217863685
20
63.69058654672022
30
8.232765760151907e-14
 70
     32
  0
VERTEX
  8
MY3DLAYER
10
62.836000973805454
20
63.8291846793862
30
8.235868711315464e-14
 70
     32
  0
VERTEX
  8
MY3DLAYER
10
62.800233556798936
20
63.97197621224366
30
8.238261941895765e-14
 70
     32
  0
VERTEX
  8
MY3DLAYER
10
62.77863438739556
20
64.11758598477354
30
8.239922403774049e-14
 70
     32
  0
VERTEX
  8
MY3DLAYER
10
62.7714114774038
20
64.26461169526786
30
8.240834105794736e-14
 70
     32
  0
VERTEX
  8
MY3DLAYER
10
62.77863438739556
20
64.41163740576216
30
8.240988267768969e-14
 70
     32
  0
VERTEX
  8
MY3DLAYER
10
62.800233556798936
20
64.55724717829204
30
8.240383405032671e-14
 70
     32
  0
VERTEX
  8
MY3DLAYER
10
62.836000973805454
20
64.7000387111495
30
8.239025342744639e-14
 70
     32
  0
VERTEX
  8
MY3DLAYER
10
62.88559217863685
20
64.8386368438155
30
8.236927159787098e-14
 70
     32
  0
VERTEX
  8
MY3DLAYER
10
62.94852958088133
20
64.97170680050677
30
8.23410906280891e-14
 70
     32
  0
VERTEX
  8
MY3DLAYER
10
63.02420705895003
20
65.09796704479727
30
8.230598191624516e-14
 70
     32
  0
VERTEX
  8
MY3DLAYER
10
63.11189579735969
20
65.21620162151333
30
8.226428357842653e-14
 70
     32
  0
VERTEX
  8
MY3DLAYER
10
63.21075130562393
20
65.32527186704766
30
8.2216397192421e-14
 70
     32
  0
VERTEX
  8
MY3DLAYER
10
63.319821551158334
20
65.4241273753119
30
8.216278393030313e-14
 70
     32
  0
VERTEX
  8
MY3DLAYER
10
63.43805612787441
20
65.51181611372155
30
8.210396011709519e-14
 70
     32
  0
VERTEX
  8
MY3DLAYER
10
63.564316372164825
20
65.58749359179045
30
8.204049225827471e-14
 70
     32
  0
VERTEX
  8
MY3DLAYER
10
63.69738632885619
20
65.65043099403474
30
8.197299158401719e-14
 70
     32
  0
VERTEX
  8
MY3DLAYER
10
63.83598446152208
20
65.70002219886614
30
8.190210816271537e-14
 70
     32
  0
VERTEX
  8
MY3DLAYER
10
63.97877599437963
20
65.73578961587265
30
8.182852464046515e-14
 70
     32
  0
VERTEX
  8
MY3DLAYER
10
64.12438576690941
20
65.7573887852762
30
8.175294966681074e-14
 70
     32
  0
VERTEX
  8
MY3DLAYER
10
64.27141147740383
20
65.76461169526787
30
8.167611107006179e-14
 70
     32
  0
VERTEX
  8
MY3DLAYER
10
64.41843718789823
20
65.7573887852762
30
8.15987488479093e-14
 70
     32
  0
VERTEX
  8
MY3DLAYER
10
64.56404696042802
20
65.73578961587265
30
8.152160804084317e-14
 70
     32
  0
VERTEX
  8
MY3DLAYER
10
64.70683849328557
20
65.70002219886614
30
8.144543155700477e-14
 70
     32
  0
VERTEX
  8
MY3DLAYER
10
64.84543662595146
20
65.65043099403474
30
8.137095301757588e-14
 70
     32
  0
VERTEX
  8
MY3DLAYER
10
64.97850658264282
20
65.58749359179045
30
8.129888969160524e-14
 70
     32
  0
VERTEX
  8
MY3DLAYER
10
65.10476682693324
20
65.51181611372155
30
8.122993558831578e-14
 70
     32
  0
VERTEX
  8
MY3DLAYER
10
65.2230014036493
20
65.4241273753119
30
8.116475477341634e-14
 70
     32
  0
VERTEX
  8
MY3DLAYER
10
65.33207164918372
20
65.32527186704766
30
8.110397497378582e-14
 70
     32
  0
VERTEX
  8
MY3DLAYER
10
65.43092715744795
20
65.21620162151333
30
8.104818153212037e-14
 70
     32
  0
VERTEX
  8
MY3DLAYER
10
65.51861589585761
20
65.09796704479727
30
8.099791176976295e-14
 70
     32
  0
VERTEX
  8
MY3DLAYER
10
65.59429337392632
20
64.97170680050677
30
8.09536498120053e-14
 70
     32
  0
VERTEX
  8
MY3DLAYER
10
65.65723077617079
20
64.8386368438155
30
8.091582192569669e-14
 70
     32
  0
VERTEX
  8
MY3DLAYER
10
65.7068219810022
20
64.7000387111495
30
8.088479241406112e-14
 70
     32
  0
VERTEX
  8
MY3DLAYER
10
65.74258939800872
20
64.55724717829204
30
8.08608601082581e-14
 70
     32
  0
VERTEX
  8
MY3DLAYER
10
65.76418856741208
20
64.41163740576216
30
8.084425548947528e-14
 70
     32
  0
VERTEX
  8
MY3DLAYER
10
65.77141147740384
20
64.26461169526786
30
8.08351384692684e-14
 70
     32
  0
VERTEX
  8
MY3DLAYER
10
65.76418856741208
20
64.11758598477354
30
8.083359684952608e-14
 70
     32
  0
VERTEX
  8
MY3DLAYER
10
65.74258939800872
20
63.97197621224366
30
8.083964547688905e-14
 70
     32
  0
VERTEX
  8
MY3DLAYER
10
65.7068219810022
20
63.8291846793862
30
8.085322609976938e-14
 70
     32
  0
VERTEX
  8
MY3DLAYER
10
65.65723077617079
20
63.69058654672022
30
8.087420792934478e-14
 70
     32
  0
VERTEX
  8
MY3DLAYER
10
65.59429337392632
20
63.55751659002876
30
8.090238889912665e-14
 70
     32
  0
VERTEX
  8
MY3DLAYER
10
65.51861589585761
20
63.43125634573844
30
8.09374976109706e-14
 70
     32
  0
VERTEX
  8
MY3DLAYER
10
65.43092715744795
20
63.31302176902237
30
8.097919594878924e-14
 70
     32
  0
VERTEX
  8
MY3DLAYER
10
65.33207164918372
20
63.20395152348805
30
8.102708233479476e-14
 70
     32
  0
VERTEX
  8
MY3DLAYER
10
65.2230014036493
20
63.10509601522364
30
8.108069559691263e-14
 70
     32
  0
VERTEX
  8
MY3DLAYER
10
65.10476682693324
20
63.01740727681398
30
8.113951941012058e-14
 70
     32
  0
VERTEX
  8
MY3DLAYER
10
64.97850658264282
20
62.941729798745264
30
8.120298726894106e-14
 70
     32
  0
VERTEX
  8
MY3DLAYER
10
64.84543662595146
20
62.87879239650079
30
8.127048794319857e-14
 70
     32
  0
VERTEX
  8
MY3DLAYER
10
64.70683849328557
20
62.82920119166939
30
8.134137136450037e-14
 70
     32
  0
VERTEX
  8
MY3DLAYER
10
64.56404696042802
20
62.79343377466287
30
8.141495488675061e-14
 70
     32
  0
SEQEND
  0
POLYLINE
 8
Layer0
 66
     1
70
    8
 10
0.0
 20
 0.0
 30
0.0
  0
VERTEX
  8
MY3DLAYER
10
93.27863438739544
20
94.61758598477346
30
6.75105476174007e-14
 70
     32
  0
VERTEX
  8
MY3DLAYER
10
93.27141147740377
20
94.76461169526777
30
6.751966463760754e-14
 70
     32
  0
VERTEX
  8
MY3DLAYER
10
93.27863438739544
20
94.9116374057621
30
6.75212062573499e-14
 70
     32
  0
VERTEX
  8
MY3DLAYER
10
93.3002335567989
20
95.05724717829197
30
6.751515762998687e-14
 70
     32
  0
VERTEX
  8
MY3DLAYER
10
93.33600097380543
20
95.20003871114943
30
6.750157700710657e-14
 70
     32
  0
VERTEX
  8
MY3DLAYER
10
93.38559217863681
20
95.33863684381541
30
6.748059517753117e-14
 70
     32
  0
VERTEX
  8
MY3DLAYER
10
93.4485295808812
20
95.47170680050678
30
6.745241420774936e-14
 70
     32
  0
VERTEX
  8
MY3DLAYER
10
93.52420705894991
20
95.5979670447971
30
6.741730549590538e-14
 70
     32
  0
VERTEX
  8
MY3DLAYER
10
93.61189579735957
20
95.71620162151318
30
6.737560715808674e-14
 70
     32
  0
VERTEX
  8
MY3DLAYER
10
93.7107513056239
20
95.82527186704749
30
6.732772077208116e-14
 70
     32
  0
VERTEX
  8
MY3DLAYER
10
93.8198215511583
20
95.92412737531181
30
6.727410750996331e-14
 70
     32
  0
VERTEX
  8
MY3DLAYER
10
93.93805612787438
20
96.01181611372148
30
6.721528369675536e-14
 70
     32
  0
VERTEX
  8
MY3DLAYER
10
94.0643163721647
20
96.08749359179018
30
6.715181583793494e-14
 70
     32
  0
VERTEX
  8
MY3DLAYER
10
94.19738632885615
20
96.15043099403466
30
6.708431516367734e-14
 70
     32
  0
VERTEX
  8
MY3DLAYER
10
94.33598446152205
20
96.20002219886605
30
6.701343174237554e-14
 70
     32
  0
VERTEX
  8
MY3DLAYER
10
94.4787759943796
20
96.23578961587258
30
6.693984822012533e-14
 70
     32
  0
VERTEX
  8
MY3DLAYER
10
94.62438576690938
20
96.25738878527595
30
6.686427324647089e-14
 70
     32
  0
VERTEX
  8
MY3DLAYER
10
94.77141147740379
20
96.26461169526762
30
6.678743464972194e-14
 70
     32
  0
VERTEX
  8
MY3DLAYER
10
94.9184371878981
20
96.25738878527595
30
6.671007242756951e-14
 70
     32
  0
VERTEX
  8
MY3DLAYER
10
95.06404696042799
20
96.23578961587258
30
6.663293162050335e-14
 70
     32
  0
VERTEX
  8
MY3DLAYER
10
95.20683849328545
20
96.20002219886605
30
6.6556755136665e-14
 70
     32
  0
VERTEX
  8
MY3DLAYER
10
95.34543662595145
20
96.15043099403466
30
6.648227659723606e-14
 70
     32
  0
VERTEX
  8
MY3DLAYER
10
95.47850658264272
20
96.08749359179018
30
6.641021327126546e-14
 70
     32
  0
VERTEX
  8
MY3DLAYER
10
95.60476682693323
20
96.01181611372148
30
6.634125916797594e-14
 70
     32
  0
VERTEX
  8
MY3DLAYER
10
95.7230014036493
20
95.92412737531181
30
6.627607835307652e-14
 70
     32
  0
VERTEX
  8
MY3DLAYER
10
95.83207164918362
20
95.82527186704749
30
6.621529855344601e-14
 70
     32
  0
VERTEX
  8
MY3DLAYER
10
95.93092715744785
20
95.71620162151318
30
6.615950511178058e-14
 70
     32
  0
VERTEX
  8
MY3DLAYER
10
96.01861589585761
20
95.5979670447971
30
6.610923534942312e-14
 70
     32
  0
VERTEX
  8
MY3DLAYER
10
96.0942933739263
20
95.47170680050678
30
6.606497339166551e-14
 70
     32
  0
VERTEX
  8
MY3DLAYER
10
96.15723077617069
20
95.33863684381541
30
6.60271455053569e-14
 70
     32
  0
VERTEX
  8
MY3DLAYER
10
96.2068219810021
20
95.20003871114943
30
6.599611599372134e-14
 70
     32
  0
VERTEX
  8
MY3DLAYER
10
96.24258939800862
20
95.05724717829197
30
6.597218368791831e-14
 70
     32
  0
VERTEX
  8
MY3DLAYER
10
96.26418856741208
20
94.9116374057621
30
6.595557906913545e-14
 70
     32
  0
VERTEX
  8
MY3DLAYER
10
96.27141147740383
20
94.76461169526777
30
6.594646204892858e-14
 70
     32
  0
VERTEX
  8
MY3DLAYER
10
96.26418856741208
20
94.61758598477346
30
6.594492042918626e-14
 70
     32
  0
VERTEX
  8
MY3DLAYER
10
96.24258939800862
20
94.47197621224358
30
6.595096905654927e-14
 70
     32
  0
VERTEX
  8
MY3DLAYER
10
96.2068219810021
20
94.32918467938612
30
6.596454967942959e-14
 70
     32
  0
VERTEX
  8
MY3DLAYER
10
96.15723077617069
20
94.19058654672014
30
6.5985531509005e-14
 70
     32
  0
VERTEX
  8
MY3DLAYER
10
96.0942933739263
20
94.05751659002887
30
6.601371247878682e-14
 70
     32
  0
VERTEX
  8
MY3DLAYER
10
96.01861589585761
20
93.93125634573836
30
6.604882119063077e-14
 70
     32
  0
VERTEX
  8
MY3DLAYER
10
95.93092715744785
20
93.81302176902228
30
6.609051952844948e-14
 70
     32
  0
VERTEX
  8
MY3DLAYER
10
95.83207164918362
20
93.70395152348797
30
6.613840591445498e-14
 70
     32
  0
VERTEX
  8
MY3DLAYER
10
95.7230014036493
20
93.60509601522374
30
6.619201917657281e-14
 70
     32
  0
VERTEX
  8
MY3DLAYER
10
95.60476682693323
20
93.51740727681407
30
6.625084298978076e-14
 70
     32
  0
VERTEX
  8
MY3DLAYER
10
95.47850658264272
20
93.44172979874519
30
6.631431084860127e-14
 70
     32
  0
VERTEX
  8
MY3DLAYER
10
95.34543662595145
20
93.37879239650088
30
6.638181152285875e-14
 70
     32
  0
VERTEX
  8
MY3DLAYER
10
95.20683849328545
20
93.3292011916695
30
6.645269494416061e-14
 70
     32
  0
VERTEX
  8
MY3DLAYER
10
95.06404696042799
20
93.29343377466297
30
6.65262784664108e-14
 70
     32
  0
VERTEX
  8
MY3DLAYER
10
94.9184371878981
20
93.27183460525943
30
6.660185344006524e-14
 70
     32
  0
VERTEX
  8
MY3DLAYER
10
94.77141147740379
20
93.26461169526776
30
6.667869203681418e-14
 70
     32
  0
VERTEX
  8
MY3DLAYER
10
94.62438576690938
20
93.27183460525943
30
6.675605425896664e-14
 70
     32
  0
VERTEX
  8
MY3DLAYER
10
94.4787759943796
20
93.29343377466297
30
6.683319506603279e-14
 70
     32
  0
VERTEX
  8
MY3DLAYER
10
94.33598446152205
20
93.3292011916695
30
6.690937154987117e-14
 70
     32
  0
VERTEX
  8
MY3DLAYER
10
94.19738632885615
20
93.37879239650088
30
6.698385008930004e-14
 70
     32
  0
VERTEX
  8
MY3DLAYER
10
94.0643163721647
20
93.44172979874519
30
6.705591341527074e-14
 70
     32
  0
VERTEX
  8
MY3DLAYER
10
93.93805612787438
20
93.51740727681407
30
6.712486751856015e-14
 70
     32
  0
VERTEX
  8
MY3DLAYER
10
93.8198215511583
20
93.60509601522374
30
6.719004833345961e-14
 70
     32
  0
VERTEX
  8
MY3DLAYER
10
93.7107513056239
20
93.70395152348797
30
6.725082813309014e-14
 70
     32
  0
VERTEX
  8
MY3DLAYER
10
93.61189579735957
20
93.81302176902228
30
6.730662157475563e-14
 70
     32
  0
VERTEX
  8
MY3DLAYER
10
93.52420705894991
20
93.93125634573836
30
6.735689133711303e-14
 70
     32
  0
VERTEX
  8
MY3DLAYER
10
93.4485295808812
20
94.05751659002887
30
6.740115329487067e-14
 70
     32
  0
VERTEX
  8
MY3DLAYER
10
93.38559217863681
20
94.19058654672014
30
6.743898118117925e-14
 70
     32
  0
VERTEX
  8
MY3DLAYER
10
93.33600097380543
20
94.32918467938612
30
6.747001069281482e-14
 70
     32
  0
VERTEX
  8
MY3DLAYER
10
93.3002335567989
20
94.47197621224358
30
6.749394299861783e-14
 70
     32
  0
VERTEX
  8
MY3DLAYER
10
93.27863438739544
20
94.61758598477346
30
6.75105476174007e-14
 70
     32
  0
SEQEND
  0
POLYLINE
 8
Layer0
 66
     1
70
    8
 10
0.0
 20
 0.0
 30
0.0
  0
VERTEX
  8
MY3DLAYER
10
96.26418856741208
20
64.41163740576216
30
6.485002917123949e-14
 70
     32
  0
VERTEX
  8
MY3DLAYER
10
96.27141147740383
20
64.26461169526786
30
6.484091215103262e-14
 70
     32
  0
VERTEX
  8
MY3DLAYER
10
96.26418856741208
20
64.11758598477354
30
6.48393705312903e-14
 70
     32
  0
VERTEX
  8
MY3DLAYER
10
96.24258939800862
20
63.97197621224366
30
6.48454191586533e-14
 70
     32
  0
VERTEX
  8
MY3DLAYER
10
96.2068219810021
20
63.8291846793862
30
6.485899978153365e-14
 70
     32
  0
VERTEX
  8
MY3DLAYER
10
96.15723077617069
20
63.69058654672022
30
6.487998161110907e-14
 70
     32
  0
VERTEX
  8
MY3DLAYER
10
96.0942933739263
20
63.55751659002876
30
6.490816258089087e-14
 70
     32
  0
VERTEX
  8
MY3DLAYER
10
96.01861589585761
20
63.43125634573844
30
6.494327129273482e-14
 70
     32
  0
VERTEX
  8
MY3DLAYER
10
95.93092715744785
20
63.31302176902237
30
6.498496963055352e-14
 70
     32
  0
VERTEX
  8
MY3DLAYER
10
95.83207164918362
20
63.20395152348805
30
6.503285601655904e-14
 70
     32
  0
VERTEX
  8
MY3DLAYER
10
95.7230014036493
20
63.10509601522364
30
6.508646927867684e-14
 70
     32
  0
VERTEX
  8
MY3DLAYER
10
95.60476682693323
20
63.01740727681398
30
6.514529309188479e-14
 70
     32
  0
VERTEX
  8
MY3DLAYER
10
95.47850658264272
20
62.941729798745264
30
6.520876095070532e-14
 70
     32
  0
VERTEX
  8
MY3DLAYER
10
95.34543662595145
20
62.87879239650079
30
6.52762616249628e-14
 70
     32
  0
VERTEX
  8
MY3DLAYER
10
95.20683849328545
20
62.82920119166939
30
6.534714504626464e-14
 70
     32
  0
VERTEX
  8
MY3DLAYER
10
95.06404696042799
20
62.79343377466287
30
6.542072856851483e-14
 70
     32
  0
VERTEX
  8
MY3DLAYER
10
94.9184371878981
20
62.77183460525951
30
6.54963035421693e-14
 70
     32
  0
VERTEX
  8
MY3DLAYER
10
94.77141147740379
20
62.76461169526783
30
6.55731421389182e-14
 70
     32
  0
VERTEX
  8
MY3DLAYER
10
94.62438576690938
20
62.77183460525951
30
6.56505043610707e-14
 70
     32
  0
VERTEX
  8
MY3DLAYER
10
94.4787759943796
20
62.79343377466287
30
6.57276451681368e-14
 70
     32
  0
VERTEX
  8
MY3DLAYER
10
94.33598446152205
20
62.82920119166939
30
6.580382165197522e-14
 70
     32
  0
VERTEX
  8
MY3DLAYER
10
94.19738632885615
20
62.87879239650079
30
6.587830019140411e-14
 70
     32
  0
VERTEX
  8
MY3DLAYER
10
94.0643163721647
20
62.941729798745264
30
6.59503635173748e-14
 70
     32
  0
VERTEX
  8
MY3DLAYER
10
93.93805612787438
20
63.01740727681398
30
6.601931762066422e-14
 70
     32
  0
VERTEX
  8
MY3DLAYER
10
93.8198215511583
20
63.10509601522364
30
6.608449843556366e-14
 70
     32
  0
VERTEX
  8
MY3DLAYER
10
93.7107513056239
20
63.20395152348805
30
6.614527823519418e-14
 70
     32
  0
VERTEX
  8
MY3DLAYER
10
93.61189579735957
20
63.31302176902237
30
6.620107167685967e-14
 70
     32
  0
VERTEX
  8
MY3DLAYER
10
93.52420705894991
20
63.43125634573844
30
6.625134143921707e-14
 70
     32
  0
VERTEX
  8
MY3DLAYER
10
93.4485295808812
20
63.55751659002876
30
6.629560339697472e-14
 70
     32
  0
VERTEX
  8
MY3DLAYER
10
93.38559217863681
20
63.69058654672022
30
6.63334312832833e-14
 70
     32
  0
VERTEX
  8
MY3DLAYER
10
93.33600097380543
20
63.8291846793862
30
6.636446079491888e-14
 70
     32
  0
VERTEX
  8
MY3DLAYER
10
93.3002335567989
20
63.97197621224366
30
6.638839310072187e-14
 70
     32
  0
VERTEX
  8
MY3DLAYER
10
93.27863438739544
20
64.11758598477354
30
6.640499771950475e-14
 70
     32
  0
VERTEX
  8
MY3DLAYER
10
93.27141147740377
20
64.26461169526786
30
6.641411473971158e-14
 70
     32
  0
VERTEX
  8
MY3DLAYER
10
93.27863438739544
20
64.41163740576216
30
6.641565635945393e-14
 70
     32
  0
VERTEX
  8
MY3DLAYER
10
93.3002335567989
20
64.55724717829204
30
6.640960773209093e-14
 70
     32
  0
VERTEX
  8
MY3DLAYER
10
93.33600097380543
20
64.7000387111495
30
6.63960271092106e-14
 70
     32
  0
VERTEX
  8
MY3DLAYER
10
93.38559217863681
20
64.8386368438155
30
6.637504527963519e-14
 70
     32
  0
VERTEX
  8
MY3DLAYER
10
93.4485295808812
20
64.97170680050677
30
6.634686430985338e-14
 70
     32
  0
VERTEX
  8
MY3DLAYER
10
93.52420705894991
20
65.09796704479727
30
6.631175559800942e-14
 70
     32
  0
VERTEX
  8
MY3DLAYER
10
93.61189579735957
20
65.21620162151333
30
6.627005726019079e-14
 70
     32
  0
VERTEX
  8
MY3DLAYER
10
93.7107513056239
20
65.32527186704766
30
6.622217087418522e-14
 70
     32
  0
VERTEX
  8
MY3DLAYER
10
93.8198215511583
20
65.4241273753119
30
6.616855761206737e-14
 70
     32
  0
VERTEX
  8
MY3DLAYER
10
93.93805612787438
20
65.51181611372155
30
6.610973379885942e-14
 70
     32
  0
VERTEX
  8
MY3DLAYER
10
94.0643163721647
20
65.58749359179045
30
6.604626594003901e-14
 70
     32
  0
VERTEX
  8
MY3DLAYER
10
94.19738632885615
20
65.65043099403474
30
6.597876526578141e-14
 70
     32
  0
VERTEX
  8
MY3DLAYER
10
94.33598446152205
20
65.70002219886614
30
6.590788184447962e-14
 70
     32
  0
VERTEX
  8
MY3DLAYER
10
94.4787759943796
20
65.73578961587265
30
6.583429832222939e-14
 70
     32
  0
VERTEX
  8
MY3DLAYER
10
94.62438576690938
20
65.7573887852762
30
6.575872334857498e-14
 70
     32
  0
VERTEX
  8
MY3DLAYER
10
94.77141147740379
20
65.76461169526787
30
6.568188475182602e-14
 70
     32
  0
VERTEX
  8
MY3DLAYER
10
94.9184371878981
20
65.7573887852762
30
6.560452252967357e-14
 70
     32
  0
VERTEX
  8
MY3DLAYER
10
95.06404696042799
20
65.73578961587265
30
6.55273817226074e-14
 70
     32
  0
VERTEX
  8
MY3DLAYER
10
95.20683849328545
20
65.70002219886614
30
6.545120523876904e-14
 70
     32
  0
VERTEX
  8
MY3DLAYER
10
95.34543662595145
20
65.65043099403474
30
6.537672669934012e-14
 70
     32
  0
VERTEX
  8
MY3DLAYER
10
95.47850658264272
20
65.58749359179045
30
6.530466337336952e-14
 70
     32
  0
VERTEX
  8
MY3DLAYER
10
95.60476682693323
20
65.51181611372155
30
6.523570927008e-14
 70
     32
  0
VERTEX
  8
MY3DLAYER
10
95.7230014036493
20
65.4241273753119
30
6.517052845518056e-14
 70
     32
  0
VERTEX
  8
MY3DLAYER
10
95.83207164918362
20
65.32527186704766
30
6.510974865555007e-14
 70
     32
  0
VERTEX
  8
MY3DLAYER
10
95.93092715744785
20
65.21620162151333
30
6.505395521388463e-14
 70
     32
  0
VERTEX
  8
MY3DLAYER
10
96.01861589585761
20
65.09796704479727
30
6.500368545152717e-14
 70
     32
  0
VERTEX
  8
MY3DLAYER
10
96.0942933739263
20
64.97170680050677
30
6.495942349376953e-14
 70
     32
  0
VERTEX
  8
MY3DLAYER
10
96.15723077617069
20
64.8386368438155
30
6.492159560746094e-14
 70
     32
  0
VERTEX
  8
MY3DLAYER
10
96.2068219810021
20
64.7000387111495
30
6.489056609582538e-14
 70
     32
  0
VERTEX
  8
MY3DLAYER
10
96.24258939800862
20
64.55724717829204
30
6.486663379002236e-14
 70
     32
  0
VERTEX
  8
MY3DLAYER
10
96.26418856741208
20
64.41163740576216
30
6.485002917123949e-14
 70
     32
  0
SEQEND
  0
POLYLINE
 8
Layer0
 66
     1
70
    8
 10
0.0
 20
 0.0
 30
0.0
  0
VERTEX
  8
MY3DLAYER
10
71.02141147740382
20
61.51461169526776
30
7.798235321058146e-14
 70
     32
  0
VERTEX
  8
MY3DLAYER
10
88.0214114774037
20
61.51461169526776
30
6.906753854140094e-14
 70
     32
  0
VERTEX
  8
MY3DLAYER
10
88.09501301087087
20
61.512804878495885
30
6.902887634108155e-14
 70
     32
  0
VERTEX
  8
MY3DLAYER
10
88.16843720944708
20
61.507388783153665
30
6.899017630787122e-14
 70
     32
  0
VERTEX
  8
MY3DLAYER
10
88.24150721016024
20
61.49837645708896
30
6.895153166181743e-14
 70
     32
  0
VERTEX
  8
MY3DLAYER
10
88.31404698098008
20
61.48578961178453
30
6.891303550125657e-14
 70
     32
  0
VERTEX
  8
MY3DLAYER
10
88.38588176724663
20
61.46965857005275
30
6.887478056681038e-14
 70
     32
  0
VERTEX
  8
MY3DLAYER
10
88.45683851266949
20
61.45002219298596
30
6.883685901796577e-14
 70
     32
  0
VERTEX
  8
MY3DLAYER
10
88.52674627623546
20
61.42692778633576
30
6.879936221105463e-14
 70
     32
  0
VERTEX
  8
MY3DLAYER
10
88.59543664402041
20
61.400430986550205
30
6.876238047916832e-14
 70
     32
  0
VERTEX
  8
MY3DLAYER
10
88.66274413491348
20
61.37059562674026
30
6.872600291453723e-14
 70
     32
  0
VERTEX
  8
MY3DLAYER
10
88.7285065992751
20
61.33749358289999
30
6.869031715390009e-14
 70
     32
  0
VERTEX
  8
MY3DLAYER
10
88.7925656095702
20
61.30120460075208
30
6.865540916737911e-14
 70
     32
  0
VERTEX
  8
MY3DLAYER
10
88.85476684203334
20
61.261816103632
30
6.862136305137065e-14
 70
     32
  0
VERTEX
  8
MY3DLAYER
10
88.91496044844874
20
61.21942298187838
30
6.85882608259495e-14
 70
     32
  0
VERTEX
  8
MY3DLAYER
10
88.97300141714776
20
61.17412736423386
30
6.855618223727527e-14
 70
     32
  0
VERTEX
  8
MY3DLAYER
10
89.0287499223542
20
61.126038371807695
30
6.852520456547719e-14
 70
     32
  0
VERTEX
  8
MY3DLAYER
10
89.08207166103738
20
61.075271855193755
30
6.849540243847915e-14
 70
     32
  0
VERTEX
  8
MY3DLAYER
10
89.13283817645953
20
61.0219501153759
30
6.846684765221486e-14
 70
     32
  0
VERTEX
  8
MY3DLAYER
10
89.1809271676396
20
60.96620160909454
30
6.843960899766479e-14
 70
     32
  0
VERTEX
  8
MY3DLAYER
10
89.22622278398674
20
60.90816063938304
30
6.841375209513304e-14
 70
     32
  0
VERTEX
  8
MY3DLAYER
10
89.2686159043949
20
60.847967032020044
30
6.838933923616194e-14
 70
     32
  0
VERTEX
  8
MY3DLAYER
10
89.30800440012467
20
60.78576579867654
30
6.836642923346657e-14
 70
     32
  0
VERTEX
  8
MY3DLAYER
10
89.34429338084094
20
60.721706787570355
30
6.834507727924946e-14
 70
     32
  0
VERTEX
  8
MY3DLAYER
10
89.37739542321104
20
60.655944322468876
30
6.832533481223827e-14
 70
     32
  0
VERTEX
  8
MY3DLAYER
10
89.4072307815167
20
60.58863683090886
30
6.830724939376456e-14
 70
     32
  0
VERTEX
  8
MY3DLAYER
10
89.43372757976694
20
60.519946462531756
30
6.829086459318523e-14
 70
     32
  0
VERTEX
  8
MY3DLAYER
10
89.45682198485446
20
60.450038698449525
30
6.827621988291973e-14
 70
     32
  0
VERTEX
  8
MY3DLAYER
10
89.4764583603354
20
60.37908195258783
30
6.82633505433573e-14
 70
     32
  0
VERTEX
  8
MY3DLAYER
10
89.49258940046137
20
60.307247165960604
30
6.825228757786402e-14
 70
     32
  0
VERTEX
  8
MY3DLAYER
10
89.50517624414448
20
60.23470739485948
30
6.824305763809244e-14
 70
     32
  0
VERTEX
  8
MY3DLAYER
10
89.51418856857595
20
60.1616373939449
30
6.823568295977568e-14
 70
     32
  0
VERTEX
  8
MY3DLAYER
10
89.51960466227699
20
60.088213195247604
30
6.823018130915969e-14
 70
     32
  0
VERTEX
  8
MY3DLAYER
10
89.52141147740372
20
60.014611684091825
30
6.822656594020244e-14
 70
     32
  0
VERTEX
  8
MY3DLAYER
10
89.51960466118032
20
59.94101017296303
30
6.822484556264439e-14
 70
     32
  0
VERTEX
  8
MY3DLAYER
10
89.51418856638513
20
59.8675859743465
30
6.822502432102575e-14
 70
     32
  0
VERTEX
  8
MY3DLAYER
10
89.50517624086483
20
59.7945159735662
30
6.822710178470193e-14
 70
     32
  0
VERTEX
  8
MY3DLAYER
10
89.49258939610085
20
59.72197620265259
30
6.823107294888099e-14
 70
     32
  0
VERTEX
  8
MY3DLAYER
10
89.47645835490437
20
59.650141416265754
30
6.823692824668063e-14
 70
     32
  0
VERTEX
  8
MY3DLAYER
10
89.45682197836611
20
59.57918467069661
30
6.824465357217586e-14
 70
     32
  0
VERTEX
  8
MY3DLAYER
10
89.43372757223685
20
59.509276906958654
30
6.825423031438091e-14
 70
     32
  0
VERTEX
  8
MY3DLAYER
10
89.40723077296305
20
59.44058653897616
30
6.826563540208532e-14
 70
     32
  0
VERTEX
  8
MY3DLAYER
10
89.37739541365455
20
59.373279047860834
30
6.827884135943403e-14
 70
     32
  0
VERTEX
  8
MY3DLAYER
10
89.34429337030429
20
59.30751658325261
30
6.829381637211951e-14
 70
     32
  0
VERTEX
  8
MY3DLAYER
10
89.30800438863365
20
59.243457572687134
30
6.831052436402471e-14
 70
     32
  0
VERTEX
  8
MY3DLAYER
10
89.26861589197695
20
59.18125633993055
30
6.832892508413421e-14
 70
     32
  0
VERTEX
  8
MY3DLAYER
10
89.22622277067191
20
59.12106273319922
30
6.834897420350186e-14
 70
     32
  0
VERTEX
  8
MY3DLAYER
10
89.18092715345972
20
59.0630217641628
30
6.837062342204364e-14
 70
     32
  0
VERTEX
  8
MY3DLAYER
10
89.13283816144902
20
59.00727325859802
30
6.839382058489609e-14
 70
     32
  0
VERTEX
  8
MY3DLAYER
10
89.0820716452323
20
58.953951519536645
30
6.841850980806276e-14
 70
     32
  0
VERTEX
  8
MY3DLAYER
10
89.02874990579264
20
58.903185003717255
30
6.844463161304306e-14
 70
     32
  0
VERTEX
  8
MY3DLAYER
10
88.97300139986962
20
58.85509601212183
30
6.847212307012135e-14
 70
     32
  0
VERTEX
  8
MY3DLAYER
10
88.91496043049561
20
58.80980039534225
30
6.850091794997027e-14
 70
     32
  0
VERTEX
  8
MY3DLAYER
10
88.85476682344844
20
58.767407274485514
30
6.853094688320269e-14
 70
     32
  0
VERTEX
  8
MY3DLAYER
10
88.79256559039841
20
58.72801877829228
30
6.856213752748893e-14
 70
     32
  0
VERTEX
  8
MY3DLAYER
10
88.72850657956266
20
58.69172979709883
30
6.859441474183571e-14
 70
     32
  0
VERTEX
  8
MY3DLAYER
10
88.66274411470772
20
58.65862775423873
30
6.862770076760722e-14
 70
     32
  0
VERTEX
  8
MY3DLAYER
10
88.59543662337013
20
58.62879239543161
30
6.866191541585255e-14
 70
     32
  0
VERTEX
  8
MY3DLAYER
10
88.5267462551903
20
58.602295596669634
30
6.869697626048815e-14
 70
     32
  0
VERTEX
  8
MY3DLAYER
10
88.45683849128025
20
58.57920119106107
30
6.873279883686903e-14
 70
     32
  0
VERTEX
  8
MY3DLAYER
10
88.38588174556473
20
58.5595648150516
30
6.876929684527188e-14
 70
     32
  0
VERTEX
  8
MY3DLAYER
10
88.31404695905779
20
58.543433774390415
30
6.880638235879837e-14
 70
     32
  0
VERTEX
  8
MY3DLAYER
10
88.24150718805043
20
58.53084693016678
30
6.884396603519897e-14
 70
     32
  0
VERTEX
  8
MY3DLAYER
10
88.168437187203
20
58.52183460519099
30
6.88819573321062e-14
 70
     32
  0
VERTEX
  8
MY3DLAYER
10
88.09501298854603
20
58.51641851094283
30
6.892026472515905e-14
 70
     32
  0
VERTEX
  8
MY3DLAYER
10
88.0214114774037
20
58.51461169526772
30
6.895879592849312e-14
 70
     32
  0
VERTEX
  8
MY3DLAYER
10
71.02141147740382
20
58.51461169526772
30
7.787361059767367e-14
 70
     32
  0
VERTEX
  8
MY3DLAYER
10
70.94780996626149
20
58.51641851094283
30
7.791227278624612e-14
 70
     32
  0
VERTEX
  8
MY3DLAYER
10
70.87438576760452
20
58.52183460519099
30
7.795097281945917e-14
 70
     32
  0
VERTEX
  8
MY3DLAYER
10
70.8013157667571
20
58.53084693016678
30
7.79896174655439e-14
 70
     32
  0
VERTEX
  8
MY3DLAYER
10
70.72877599574973
20
58.543433774390415
30
7.802811362616392e-14
 70
     32
  0
VERTEX
  8
MY3DLAYER
10
70.65694120924279
20
58.5595648150516
30
7.806636856069738e-14
 70
     32
  0
VERTEX
  8
MY3DLAYER
10
70.58598446352728
20
58.57920119106107
30
7.810429010965711e-14
 70
     32
  0
VERTEX
  8
MY3DLAYER
10
70.51607669961723
20
58.602295596669634
30
7.814178691671094e-14
 70
     32
  0
VERTEX
  8
MY3DLAYER
10
70.44738633143739
20
58.62879239543161
30
7.817876864876722e-14
 70
     32
  0
VERTEX
  8
MY3DLAYER
10
70.3800788400998
20
58.65862775423873
30
7.821514621359507e-14
 70
     32
  0
VERTEX
  8
MY3DLAYER
10
70.31431637524486
20
58.69172979709883
30
7.825083197445536e-14
 70
     32
  0
VERTEX
  8
MY3DLAYER
10
70.25025736440912
20
58.72801877829228
30
7.828573996122527e-14
 70
     32
  0
VERTEX
  8
MY3DLAYER
10
70.18805613135908
20
58.767407274485514
30
7.831978607750792e-14
 70
     32
  0
VERTEX
  8
MY3DLAYER
10
70.12786252431191
20
58.80980039534225
30
7.835288830322783e-14
 70
     32
  0
VERTEX
  8
MY3DLAYER
10
70.0698215549379
20
58.85509601212183
30
7.838496689222469e-14
 70
     32
  0
VERTEX
  8
MY3DLAYER
10
70.01407304901488
20
58.903185003717255
30
7.841594456436844e-14
 70
     32
  0
VERTEX
  8
MY3DLAYER
10
69.96075130957523
20
58.953951519536645
30
7.844574669173436e-14
 70
     32
  0
VERTEX
  8
MY3DLAYER
10
69.90998479335852
20
59.00727325859802
30
7.847430147838792e-14
 70
     32
  0
VERTEX
  8
MY3DLAYER
10
69.8618958013478
20
59.0630217641628
30
7.850154013334758e-14
 70
     32
  0
VERTEX
  8
MY3DLAYER
10
69.81660018413562
20
59.12106273319922
30
7.852739703630849e-14
 70
     32
  0
VERTEX
  8
MY3DLAYER
10
69.77420706283058
20
59.18125633993055
30
7.855180989572702e-14
 70
     32
  0
VERTEX
  8
MY3DLAYER
10
69.73481856617389
20
59.243457572687134
30
7.857471989888719e-14
 70
     32
  0
VERTEX
  8
MY3DLAYER
10
69.69852958450325
20
59.30751658325261
30
7.859607185358518e-14
 70
     32
  0
VERTEX
  8
MY3DLAYER
10
69.66542754115297
20
59.373279047860834
30
7.86158143210925e-14
 70
     32
  0
VERTEX
  8
MY3DLAYER
10
69.63559218184449
20
59.44058653897616
30
7.863389974007598e-14
 70
     32
  0
VERTEX
  8
MY3DLAYER
10
69.60909538257067
20
59.509276906958654
30
7.865028454117774e-14
 70
     32
  0
VERTEX
  8
MY3DLAYER
10
69.58600097644143
20
59.57918467069661
30
7.866492925197706e-14
 70
     32
  0
VERTEX
  8
MY3DLAYER
10
69.56636459990315
20
59.650141416265754
30
7.867779859208334e-14
 70
     32
  0
VERTEX
  8
MY3DLAYER
10
69.55023355870668
20
59.72197620265259
30
7.868886155812928e-14
 70
     32
  0
VERTEX
  8
MY3DLAYER
10
69.53764671394269
20
59.7945159735662
30
7.869809149846091e-14
 70
     32
  0
VERTEX
  8
MY3DLAYER
10
69.52863438842239
20
59.8675859743465
30
7.870546617734375e-14
 70
     32
  0
VERTEX
  8
MY3DLAYER
10
69.52321829362721
20
59.94101017296303
30
7.87109678285306e-14
 70
     32
  0
VERTEX
  8
MY3DLAYER
10
69.5214114774038
20
60.014611684091825
30
7.871458319806195e-14
 70
     32
  0
VERTEX
  8
MY3DLAYER
10
69.52321829253053
20
60.088213195247604
30
7.871630357619608e-14
 70
     32
  0
VERTEX
  8
MY3DLAYER
10
69.52863438623157
20
60.1616373939449
30
7.871612481839141e-14
 70
     32
  0
VERTEX
  8
MY3DLAYER
10
69.53764671066305
20
60.23470739485948
30
7.871404735529108e-14
 70
     32
  0
VERTEX
  8
MY3DLAYER
10
69.55023355434615
20
60.307247165960604
30
7.871007619168566e-14
 70
     32
  0
VERTEX
  8
MY3DLAYER
10
69.56636459447213
20
60.37908195258783
30
7.870422089445606e-14
 70
     32
  0
VERTEX
  8
MY3DLAYER
10
69.58600096995306
20
60.450038698449525
30
7.869649556952593e-14
 70
     32
  0
VERTEX
  8
MY3DLAYER
10
69.6090953750406
20
60.519946462531756
30
7.868691882787963e-14
 70
     32
  0
VERTEX
  8
MY3DLAYER
10
69.63559217329082
20
60.58863683090886
30
7.86755137407263e-14
 70
     32
  0
VERTEX
  8
MY3DLAYER
10
69.66542753159648
20
60.655944322468876
30
7.866230778391959e-14
 70
     32
  0
VERTEX
  8
MY3DLAYER
10
69.69852957396658
20
60.721706787570355
30
7.864733277176597e-14
 70
     32
  0
VERTEX
  8
MY3DLAYER
10
69.73481855468286
20
60.78576579867654
30
7.863062478038084e-14
 70
     32
  0
VERTEX
  8
MY3DLAYER
10
69.77420705041261
20
60.847967032020044
30
7.861222406077874e-14
 70
     32
  0
VERTEX
  8
MY3DLAYER
10
69.81660017082078
20
60.90816063938304
30
7.85921749419043e-14
 70
     32
  0
VERTEX
  8
MY3DLAYER
10
69.86189578716792
20
60.96620160909454
30
7.857052572384063e-14
 70
     32
  0
VERTEX
  8
MY3DLAYER
10
69.90998477834799
20
61.0219501153759
30
7.854732856144973e-14
 70
     32
  0
VERTEX
  8
MY3DLAYER
10
69.96075129377014
20
61.075271855193755
30
7.852263933872714e-14
 70
     32
  0
VERTEX
  8
MY3DLAYER
10
70.01407303245333
20
61.126038371807695
30
7.849651753417235e-14
 70
     32
  0
VERTEX
  8
MY3DLAYER
10
70.06982153765976
20
61.17412736423386
30
7.846902607749992e-14
 70
     32
  0
VERTEX
  8
MY3DLAYER
10
70.12786250635878
20
61.21942298187838
30
7.844023119803634e-14
 70
     32
  0
VERTEX
  8
MY3DLAYER
10
70.18805611277419
20
61.261816103632
30
7.841020226516771e-14
 70
     32
  0
VERTEX
  8
MY3DLAYER
10
70.25025734523732
20
61.30120460075208
30
7.837901162122284e-14
 70
     32
  0
VERTEX
  8
MY3DLAYER
10
70.31431635553244
20
61.33749358289999
30
7.834673440719418e-14
 70
     32
  0
VERTEX
  8
MY3DLAYER
10
70.38007881989404
20
61.37059562674026
30
7.831344838171691e-14
 70
     32
  0
VERTEX
  8
MY3DLAYER
10
70.44738631078711
20
61.400430986550205
30
7.827923373374104e-14
 70
     32
  0
VERTEX
  8
MY3DLAYER
10
70.51607667857206
20
61.42692778633576
30
7.824417288934961e-14
 70
     32
  0
VERTEX
  8
MY3DLAYER
10
70.58598444213803
20
61.45002219298596
30
7.820835031318694e-14
 70
     32
  0
VERTEX
  8
MY3DLAYER
10
70.6569411875609
20
61.46965857005275
30
7.817185230497586e-14
 70
     32
  0
VERTEX
  8
MY3DLAYER
10
70.72877597382744
20
61.48578961178453
30
7.813476679161425e-14
 70
     32
  0
VERTEX
  8
MY3DLAYER
10
70.8013157446473
20
61.49837645708896
30
7.809718311535114e-14
 70
     32
  0
VERTEX
  8
MY3DLAYER
10
70.87438574536046
20
61.507388783153665
30
7.805919181855379e-14
 70
     32
  0
VERTEX
  8
MY3DLAYER
10
70.94780994393665
20
61.512804878495885
30
7.802088442558296e-14
 70
     32
  0
VERTEX
  8
MY3DLAYER
10
71.02141147740382
20
61.51461169526776
30
7.798235321058146e-14
 70
     32
  0
SEQEND
  0
POLYLINE
 8
Layer0
 66
     1
70
    8
 10
0.0
 20
 0.0
 30
0.0
  0
VERTEX
  8
MY3DLAYER
10
89.51418856857595
20
99.16163740512077
30
6.964933692798216e-14
 70
     32
  0
VERTEX
  8
MY3DLAYER
10
89.51960466227699
20
99.08821320642348
30
6.964383527736615e-14
 70
     32
  0
VERTEX
  8
MY3DLAYER
10
89.52141147740372
20
99.0146116952677
30
6.964021990840894e-14
 70
     32
  0
VERTEX
  8
MY3DLAYER
10
89.51960466118032
20
98.9410101841389
30
6.963849953085088e-14
 70
     32
  0
VERTEX
  8
MY3DLAYER
10
89.51418856638513
20
98.86758598552237
30
6.963867828923225e-14
 70
     32
  0
VERTEX
  8
MY3DLAYER
10
89.50517624086483
20
98.79451598474208
30
6.964075575290841e-14
 70
     32
  0
VERTEX
  8
MY3DLAYER
10
89.49258939610085
20
98.72197621382847
30
6.964472691708744e-14
 70
     32
  0
VERTEX
  8
MY3DLAYER
10
89.47645835490437
20
98.65014142744162
30
6.965058221488713e-14
 70
     32
  0
VERTEX
  8
MY3DLAYER
10
89.45682197836611
20
98.57918468187249
30
6.965830754038234e-14
 70
     32
  0
VERTEX
  8
MY3DLAYER
10
89.43372757223685
20
98.50927691813452
30
6.966788428258738e-14
 70
     32
  0
VERTEX
  8
MY3DLAYER
10
89.40723077296305
20
98.44058655015203
30
6.967928937029181e-14
 70
     32
  0
VERTEX
  8
MY3DLAYER
10
89.37739541365455
20
98.3732790590367
30
6.96924953276405e-14
 70
     32
  0
VERTEX
  8
MY3DLAYER
10
89.34429337030429
20
98.30751659442848
30
6.970747034032599e-14
 70
     32
  0
VERTEX
  8
MY3DLAYER
10
89.30800438863365
20
98.243457583863
30
6.972417833223119e-14
 70
     32
  0
VERTEX
  8
MY3DLAYER
10
89.26861589197695
20
98.18125635110641
30
6.974257905234067e-14
 70
     32
  0
VERTEX
  8
MY3DLAYER
10
89.22622277067191
20
98.1210627443751
30
6.976262817170834e-14
 70
     32
  0
VERTEX
  8
MY3DLAYER
10
89.18092715345972
20
98.06302177533867
30
6.97842773902501e-14
 70
     32
  0
VERTEX
  8
MY3DLAYER
10
89.13283816144902
20
98.00727326977389
30
6.980747455310257e-14
 70
     32
  0
VERTEX
  8
MY3DLAYER
10
89.0820716452323
20
97.95395153071252
30
6.983216377626925e-14
 70
     32
  0
VERTEX
  8
MY3DLAYER
10
89.02874990579264
20
97.90318501489313
30
6.985828558124954e-14
 70
     32
  0
VERTEX
  8
MY3DLAYER
10
88.97300139986962
20
97.8550960232977
30
6.988577703832784e-14
 70
     32
  0
VERTEX
  8
MY3DLAYER
10
88.91496043049561
20
97.80980040651812
30
6.991457191817675e-14
 70
     32
  0
VERTEX
  8
MY3DLAYER
10
88.85476682344844
20
97.76740728566139
30
6.994460085140915e-14
 70
     32
  0
VERTEX
  8
MY3DLAYER
10
88.79256559039841
20
97.72801878946815
30
6.997579149569542e-14
 70
     32
  0
VERTEX
  8
MY3DLAYER
10
88.72850657956266
20
97.6917298082747
30
7.000806871004218e-14
 70
     32
  0
VERTEX
  8
MY3DLAYER
10
88.66274411470772
20
97.65862776541461
30
7.004135473581369e-14
 70
     32
  0
VERTEX
  8
MY3DLAYER
10
88.59543662337013
20
97.62879240660749
30
7.007556938405904e-14
 70
     32
  0
VERTEX
  8
MY3DLAYER
10
88.5267462551903
20
97.6022956078455
30
7.011063022869462e-14
 70
     32
  0
VERTEX
  8
MY3DLAYER
10
88.45683849128025
20
97.57920120223694
30
7.014645280507548e-14
 70
     32
  0
VERTEX
  8
MY3DLAYER
10
88.38588174556473
20
97.55956482622747
30
7.018295081347835e-14
 70
     32
  0
VERTEX
  8
MY3DLAYER
10
88.31404695905779
20
97.5434337855663
30
7.022003632700485e-14
 70
     32
  0
VERTEX
  8
MY3DLAYER
10
88.24150718805043
20
97.53084694134266
30
7.025762000340545e-14
 70
     32
  0
VERTEX
  8
MY3DLAYER
10
88.168437187203
20
97.52183461636686
30
7.029561130031268e-14
 70
     32
  0
VERTEX
  8
MY3DLAYER
10
88.09501298854603
20
97.5164185221187
30
7.033391869336553e-14
 70
     32
  0
VERTEX
  8
MY3DLAYER
10
88.0214114774037
20
97.51461170644359
30
7.03724498966996e-14
 70
     32
  0
VERTEX
  8
MY3DLAYER
10
71.02141147740382
20
97.51461170644359
30
7.928726456588015e-14
 70
     32
  0
VERTEX
  8
MY3DLAYER
10
70.94780996626149
20
97.5164185221187
30
7.93259267544526e-14
 70
     32
  0
VERTEX
  8
MY3DLAYER
10
70.87438576760452
20
97.52183461636686
30
7.936462678766564e-14
 70
     32
  0
VERTEX
  8
MY3DLAYER
10
70.8013157667571
20
97.53084694134266
30
7.940327143375037e-14
 70
     32
  0
VERTEX
  8
MY3DLAYER
10
70.72877599574973
20
97.5434337855663
30
7.944176759437041e-14
 70
     32
  0
VERTEX
  8
MY3DLAYER
10
70.65694120924279
20
97.55956482622747
30
7.948002252890386e-14
 70
     32
  0
VERTEX
  8
MY3DLAYER
10
70.58598446352728
20
97.57920120223694
30
7.951794407786359e-14
 70
     32
  0
VERTEX
  8
MY3DLAYER
10
70.51607669961723
20
97.6022956078455
30
7.95554408849174e-14
 70
     32
  0
VERTEX
  8
MY3DLAYER
10
70.44738633143739
20
97.62879240660749
30
7.95924226169737e-14
 70
     32
  0
VERTEX
  8
MY3DLAYER
10
70.3800788400998
20
97.65862776541461
30
7.962880018180154e-14
 70
     32
  0
VERTEX
  8
MY3DLAYER
10
70.31431637524486
20
97.6917298082747
30
7.966448594266184e-14
 70
     32
  0
VERTEX
  8
MY3DLAYER
10
70.25025736440912
20
97.72801878946815
30
7.969939392943175e-14
 70
     32
  0
VERTEX
  8
MY3DLAYER
10
70.18805613135908
20
97.76740728566139
30
7.973344004571438e-14
 70
     32
  0
VERTEX
  8
MY3DLAYER
10
70.12786252431191
20
97.80980040651812
30
7.976654227143432e-14
 70
     32
  0
VERTEX
  8
MY3DLAYER
10
70.0698215549379
20
97.8550960232977
30
7.979862086043117e-14
 70
     32
  0
VERTEX
  8
MY3DLAYER
10
70.01407304901488
20
97.90318501489313
30
7.982959853257491e-14
 70
     32
  0
VERTEX
  8
MY3DLAYER
10
69.96075130957523
20
97.95395153071252
30
7.985940065994085e-14
 70
     32
  0
VERTEX
  8
MY3DLAYER
10
69.90998479335852
20
98.00727326977389
30
7.988795544659439e-14
 70
     32
  0
VERTEX
  8
MY3DLAYER
10
69.8618958013478
20
98.06302177533867
30
7.991519410155406e-14
 70
     32
  0
VERTEX
  8
MY3DLAYER
10
69.81660018413562
20
98.1210627443751
30
7.994105100451498e-14
 70
     32
  0
VERTEX
  8
MY3DLAYER
10
69.77420706283058
20
98.18125635110641
30
7.996546386393349e-14
 70
     32
  0
VERTEX
  8
MY3DLAYER
10
69.73481856617389
20
98.243457583863
30
7.998837386709367e-14
 70
     32
  0
VERTEX
  8
MY3DLAYER
10
69.69852958450325
20
98.30751659442848
30
8.000972582179164e-14
 70
     32
  0
VERTEX
  8
MY3DLAYER
10
69.66542754115297
20
98.3732790590367
30
8.002946828929898e-14
 70
     32
  0
VERTEX
  8
MY3DLAYER
10
69.63559218184449
20
98.44058655015203
30
8.004755370828246e-14
 70
     32
  0
VERTEX
  8
MY3DLAYER
10
69.60909538257067
20
98.50927691813452
30
8.006393850938421e-14
 70
     32
  0
VERTEX
  8
MY3DLAYER
10
69.58600097644143
20
98.57918468187249
30
8.007858322018353e-14
 70
     32
  0
VERTEX
  8
MY3DLAYER
10
69.56636459990315
20
98.65014142744162
30
8.009145256028983e-14
 70
     32
  0
VERTEX
  8
MY3DLAYER
10
69.55023355870668
20
98.72197621382847
30
8.010251552633574e-14
 70
     32
  0
VERTEX
  8
MY3DLAYER
10
69.53764671394269
20
98.79451598474208
30
8.011174546666739e-14
 70
     32
  0
VERTEX
  8
MY3DLAYER
10
69.52863438842239
20
98.86758598552237
30
8.011912014555024e-14
 70
     32
  0
VERTEX
  8
MY3DLAYER
10
69.52321829362721
20
98.9410101841389
30
8.012462179673708e-14
 70
     32
  0
VERTEX
  8
MY3DLAYER
10
69.5214114774038
20
99.0146116952677
30
8.012823716626843e-14
 70
     32
  0
VERTEX
  8
MY3DLAYER
10
69.52321829253053
20
99.08821320642348
30
8.012995754440256e-14
 70
     32
  0
VERTEX
  8
MY3DLAYER
10
69.52863438623157
20
99.16163740512077
30
8.01297787865979e-14
 70
     32
  0
VERTEX
  8
MY3DLAYER
10
69.53764671066305
20
99.23470740603535
30
8.012770132349757e-14
 70
     32
  0
VERTEX
  8
MY3DLAYER
10
69.55023355434615
20
99.30724717713647
30
8.012373015989215e-14
 70
     32
  0
VERTEX
  8
MY3DLAYER
10
69.56636459447213
20
99.37908196376371
30
8.011787486266255e-14
 70
     32
  0
VERTEX
  8
MY3DLAYER
10
69.58600096995306
20
99.4500387096254
30
8.01101495377324e-14
 70
     32
  0
VERTEX
  8
MY3DLAYER
10
69.6090953750406
20
99.51994647370762
30
8.010057279608612e-14
 70
     32
  0
VERTEX
  8
MY3DLAYER
10
69.63559217329082
20
99.58863684208472
30
8.008916770893277e-14
 70
     32
  0
VERTEX
  8
MY3DLAYER
10
69.66542753159648
20
99.65594433364475
30
8.007596175212608e-14
 70
     32
  0
VERTEX
  8
MY3DLAYER
10
69.69852957396658
20
99.72170679874623
30
8.006098673997246e-14
 70
     32
  0
VERTEX
  8
MY3DLAYER
10
69.73481855468286
20
99.78576580985242
30
8.004427874858734e-14
 70
     32
  0
VERTEX
  8
MY3DLAYER
10
69.77420705041261
20
99.84796704319591
30
8.002587802898521e-14
 70
     32
  0
VERTEX
  8
MY3DLAYER
10
69.81660017082078
20
99.90816065055891
30
8.000582891011078e-14
 70
     32
  0
VERTEX
  8
MY3DLAYER
10
69.86189578716792
20
99.96620162027041
30
7.99841796920471e-14
 70
     32
  0
VERTEX
  8
MY3DLAYER
10
69.90998477834799
20
100.02195012655177
30
7.996098252965621e-14
 70
     32
  0
VERTEX
  8
MY3DLAYER
10
69.96075129377014
20
100.07527186636963
30
7.993629330693363e-14
 70
     32
  0
VERTEX
  8
MY3DLAYER
10
70.01407303245333
20
100.12603838298355
30
7.991017150237881e-14
 70
     32
  0
VERTEX
  8
MY3DLAYER
10
70.06982153765976
20
100.17412737540973
30
7.98826800457064e-14
 70
     32
  0
VERTEX
  8
MY3DLAYER
10
70.12786250635878
20
100.21942299305425
30
7.985388516624283e-14
 70
     32
  0
VERTEX
  8
MY3DLAYER
10
70.18805611277419
20
100.26181611480787
30
7.98238562333742e-14
 70
     32
  0
VERTEX
  8
MY3DLAYER
10
70.25025734523732
20
100.30120461192794
30
7.979266558942932e-14
 70
     32
  0
VERTEX
  8
MY3DLAYER
10
70.31431635553244
20
100.33749359407585
30
7.976038837540067e-14
 70
     32
  0
VERTEX
  8
MY3DLAYER
10
70.38007881989404
20
100.37059563791613
30
7.97271023499234e-14
 70
     32
  0
VERTEX
  8
MY3DLAYER
10
70.44738631078711
20
100.40043099772606
30
7.969288770194752e-14
 70
     32
  0
VERTEX
  8
MY3DLAYER
10
70.51607667857206
20
100.42692779751162
30
7.965782685755609e-14
 70
     32
  0
VERTEX
  8
MY3DLAYER
10
70.58598444213803
20
100.45002220416183
30
7.962200428139342e-14
 70
     32
  0
VERTEX
  8
MY3DLAYER
10
70.6569411875609
20
100.46965858122861
30
7.958550627318235e-14
 70
     32
  0
VERTEX
  8
MY3DLAYER
10
70.72877597382744
20
100.4857896229604
30
7.954842075982073e-14
 70
     32
  0
VERTEX
  8
MY3DLAYER
10
70.8013157446473
20
100.49837646826482
30
7.951083708355762e-14
 70
     32
  0
VERTEX
  8
MY3DLAYER
10
70.87438574536046
20
100.50738879432953
30
7.947284578676026e-14
 70
     32
  0
VERTEX
  8
MY3DLAYER
10
70.94780994393665
20
100.51280488967174
30
7.943453839378944e-14
 70
     32
  0
VERTEX
  8
MY3DLAYER
10
71.02141147740382
20
100.51461170644362
30
7.939600717878794e-14
 70
     32
  0
VERTEX
  8
MY3DLAYER
10
88.0214114774037
20
100.51461170644362
30
7.048119250960742e-14
 70
     32
  0
VERTEX
  8
MY3DLAYER
10
88.09501301087087
20
100.51280488967174
30
7.044253030928804e-14
 70
     32
  0
VERTEX
  8
MY3DLAYER
10
88.16843720944708
20
100.50738879432953
30
7.04038302760777e-14
 70
     32
  0
VERTEX
  8
MY3DLAYER
10
88.24150721016024
20
100.49837646826482
30
7.036518563002391e-14
 70
     32
  0
VERTEX
  8
MY3DLAYER
10
88.31404698098008
20
100.4857896229604
30
7.032668946946305e-14
 70
     32
  0
VERTEX
  8
MY3DLAYER
10
88.38588176724663
20
100.46965858122861
30
7.028843453501684e-14
 70
     32
  0
VERTEX
  8
MY3DLAYER
10
88.45683851266949
20
100.45002220416183
30
7.025051298617226e-14
 70
     32
  0
VERTEX
  8
MY3DLAYER
10
88.52674627623546
20
100.42692779751162
30
7.021301617926109e-14
 70
     32
  0
VERTEX
  8
MY3DLAYER
10
88.59543664402041
20
100.40043099772606
30
7.01760344473748e-14
 70
     32
  0
VERTEX
  8
MY3DLAYER
10
88.66274413491348
20
100.37059563791613
30
7.01396568827437e-14
 70
     32
  0
VERTEX
  8
MY3DLAYER
10
88.7285065992751
20
100.33749359407585
30
7.010397112210658e-14
 70
     32
  0
VERTEX
  8
MY3DLAYER
10
88.7925656095702
20
100.30120461192794
30
7.006906313558557e-14
 70
     32
  0
VERTEX
  8
MY3DLAYER
10
88.85476684203334
20
100.26181611480787
30
7.003501701957713e-14
 70
     32
  0
VERTEX
  8
MY3DLAYER
10
88.91496044844874
20
100.21942299305425
30
7.000191479415598e-14
 70
     32
  0
VERTEX
  8
MY3DLAYER
10
88.97300141714776
20
100.17412737540973
30
6.996983620548175e-14
 70
     32
  0
VERTEX
  8
MY3DLAYER
10
89.0287499223542
20
100.12603838298355
30
6.993885853368366e-14
 70
     32
  0
VERTEX
  8
MY3DLAYER
10
89.08207166103738
20
100.07527186636963
30
6.990905640668564e-14
 70
     32
  0
VERTEX
  8
MY3DLAYER
10
89.13283817645953
20
100.02195012655177
30
6.988050162042135e-14
 70
     32
  0
VERTEX
  8
MY3DLAYER
10
89.1809271676396
20
99.96620162027041
30
6.985326296587128e-14
 70
     32
  0
VERTEX
  8
MY3DLAYER
10
89.22622278398674
20
99.90816065055891
30
6.982740606333951e-14
 70
     32
  0
VERTEX
  8
MY3DLAYER
10
89.2686159043949
20
99.84796704319591
30
6.980299320436842e-14
 70
     32
  0
VERTEX
  8
MY3DLAYER
10
89.30800440012467
20
99.78576580985242
30
6.978008320167305e-14
 70
     32
  0
VERTEX
  8
MY3DLAYER
10
89.34429338084094
20
99.72170679874623
30
6.975873124745594e-14
 70
     32
  0
VERTEX
  8
MY3DLAYER
10
89.37739542321104
20
99.65594433364475
30
6.973898878044474e-14
 70
     32
  0
VERTEX
  8
MY3DLAYER
10
89.4072307815167
20
99.58863684208472
30
6.972090336197102e-14
 70
     32
  0
VERTEX
  8
MY3DLAYER
10
89.43372757976694
20
99.51994647370762
30
6.970451856139174e-14
 70
     32
  0
VERTEX
  8
MY3DLAYER
10
89.45682198485446
20
99.4500387096254
30
6.968987385112621e-14
 70
     32
  0
VERTEX
  8
MY3DLAYER
10
89.4764583603354
20
99.37908196376371
30
6.967700451156378e-14
 70
     32
  0
VERTEX
  8
MY3DLAYER
10
89.49258940046137
20
99.30724717713647
30
6.966594154607051e-14
 70
     32
  0
VERTEX
  8
MY3DLAYER
10
89.50517624414448
20
99.23470740603535
30
6.965671160629891e-14
 70
     32
  0
VERTEX
  8
MY3DLAYER
10
89.51418856857595
20
99.16163740512077
30
6.964933692798216e-14
 70
     32
  0
SEQEND
  0
POLYLINE
 8
Layer0
 66
     1
70
    8
 10
0.0
 20
 0.0
 30
0.0
  0
VERTEX
  8
MY3DLAYER
10
60.35719791502958
20
49.036689633911436
30
8.312238205522826e-14
 70
     32
  0
VERTEX
  8
MY3DLAYER
10
38.180791043836514
20
26.860282762718438
30
9.394786881165431e-14
 70
     32
  0
VERTEX
  8
MY3DLAYER
10
37.83308771672095
20
26.55535512873378
30
9.411915186053538e-14
 70
     32
  0
VERTEX
  8
MY3DLAYER
10
37.44855799680294
20
26.298420584239462
30
9.431148633289684e-14
 70
     32
  0
VERTEX
  8
MY3DLAYER
10
37.03378129420202
20
26.09387535052749
30
9.452158133259144e-14
 70
     32
  0
VERTEX
  8
MY3DLAYER
10
36.59585455329762
20
25.945219253257335
30
9.474584207592503e-14
 70
     32
  0
VERTEX
  8
MY3DLAYER
10
36.14227082204291
20
25.85499583946854
30
9.498043139940227e-14
 70
     32
  0
VERTEX
  8
MY3DLAYER
10
35.68079104383654
20
25.824748856785686
30
9.522133541465815e-14
 70
     32
  0
VERTEX
  8
MY3DLAYER
10
35.21931126563027
20
25.854995839468533
30
9.546443218720035e-14
 70
     32
  0
VERTEX
  8
MY3DLAYER
10
34.76572753437547
20
25.945219253257328
30
9.570556226385154e-14
 70
     32
  0
VERTEX
  8
MY3DLAYER
10
34.32780079347106
20
26.093875350527483
30
9.594059984214633e-14
 70
     32
  0
VERTEX
  8
MY3DLAYER
10
33.913024090870145
20
26.29842058423945
30
9.616552336395538e-14
 70
     32
  0
VERTEX
  8
MY3DLAYER
10
33.528494370952146
20
26.55535512873377
30
9.637648432545989e-14
 70
     32
  0
VERTEX
  8
MY3DLAYER
10
33.18079104383657
20
26.860282762718427
30
9.656987312611916e-14
 70
     32
  0
VERTEX
  8
MY3DLAYER
10
26.86708254485254
20
33.17399126170255
30
1.0010964369748034e-13
 70
     32
  0
VERTEX
  8
MY3DLAYER
10
26.562154910867896
20
33.52169458881815
30
1.0028215140129758e-13
 70
     32
  0
VERTEX
  8
MY3DLAYER
10
26.305220366373536
20
33.90622430873618
30
1.0043082635363229e-13
 70
     32
  0
VERTEX
  8
MY3DLAYER
10
26.10067513266162
20
34.32100101133705
30
1.0055312468482949e-13
 70
     32
  0
VERTEX
  8
MY3DLAYER
10
25.952019035391466
20
34.758927752241455
30
1.0064695383653499e-13
 70
     32
  0
VERTEX
  8
MY3DLAYER
10
25.861795621602635
20
35.21251148349626
30
1.007107083659487e-13
 70
     32
  0
VERTEX
  8
MY3DLAYER
10
25.831548638919813
20
35.67399126170254
30
1.0074329741539624e-13
 70
     32
  0
VERTEX
  8
MY3DLAYER
10
25.861795621602635
20
36.13547103990882
30
1.0074416337720621e-13
 70
     32
  0
VERTEX
  8
MY3DLAYER
10
25.952019035391466
20
36.58905477116363
30
1.007132914345319e-13
 70
     32
  0
VERTEX
  8
MY3DLAYER
10
26.10067513266162
20
37.026981512068026
30
1.0065120981487185e-13
 70
     32
  0
VERTEX
  8
MY3DLAYER
10
26.305220366373536
20
37.4417582146689
30
1.005589807519507e-13
 70
     32
  0
VERTEX
  8
MY3DLAYER
10
26.562154910867896
20
37.82628793458693
30
1.0043818231060573e-13
 70
     32
  0
VERTEX
  8
MY3DLAYER
10
26.86708254485254
20
38.17399126170253
30
1.0029088138566002e-13
 70
     32
  0
VERTEX
  8
MY3DLAYER
10
49.04348941604568
20
60.35039813289551
30
8.946539462923392e-14
 70
     32
  0
VERTEX
  8
MY3DLAYER
10
49.391192743161255
20
60.655325766880175
30
8.929411158035284e-14
 70
     32
  0
VERTEX
  8
MY3DLAYER
10
49.77572246307935
20
60.91226031137448
30
8.910177710799133e-14
 70
     32
  0
VERTEX
  8
MY3DLAYER
10
50.190499165680166
20
61.11680554508646
30
8.889168210829678e-14
 70
     32
  0
VERTEX
  8
MY3DLAYER
10
50.62842590658453
20
61.26546164235661
30
8.866742136496325e-14
 70
     32
  0
VERTEX
  8
MY3DLAYER
10
51.0820096378393
20
61.3556850561454
30
8.843283204148597e-14
 70
     32
  0
VERTEX
  8
MY3DLAYER
10
51.543489416045574
20
61.38593203882826
30
8.819192802623011e-14
 70
     32
  0
VERTEX
  8
MY3DLAYER
10
52.00496919425185
20
61.35568505614541
30
8.794883125368792e-14
 70
     32
  0
VERTEX
  8
MY3DLAYER
10
52.45855292550665
20
61.26546164235661
30
8.770770117703672e-14
 70
     32
  0
VERTEX
  8
MY3DLAYER
10
52.896479666411054
20
61.11680554508646
30
8.747266359874194e-14
 70
     32
  0
VERTEX
  8
MY3DLAYER
10
53.31125636901188
20
60.912260311374496
30
8.724774007693294e-14
 70
     32
  0
VERTEX
  8
MY3DLAYER
10
53.69578608892998
20
60.65532576688018
30
8.703677911542837e-14
 70
     32
  0
VERTEX
  8
MY3DLAYER
10
54.043489416045546
20
60.35039813289553
30
8.684339031476911e-14
 70
     32
  0
VERTEX
  8
MY3DLAYER
10
60.35719791502958
20
54.03668963391128
30
8.330361974340792e-14
 70
     32
  0
VERTEX
  8
MY3DLAYER
10
60.66212554901423
20
53.688986306795684
30
8.31311120395907e-14
 70
     32
  0
VERTEX
  8
MY3DLAYER
10
60.91906009350849
20
53.30445658687766
30
8.2982437087256e-14
 70
     32
  0
VERTEX
  8
MY3DLAYER
10
61.1236053272205
20
52.88967988427679
30
8.286013875605877e-14
 70
     32
  0
VERTEX
  8
MY3DLAYER
10
61.27226142449065
20
52.451753143372386
30
8.276630960435327e-14
 70
     32
  0
VERTEX
  8
MY3DLAYER
10
61.36248483827939
20
51.99816941211758
30
8.270255507493962e-14
 70
     32
  0
VERTEX
  8
MY3DLAYER
10
61.39273182096222
20
51.53668963391131
30
8.266996602549208e-14
 70
     32
  0
VERTEX
  8
MY3DLAYER
10
61.36248483827939
20
51.07520985570501
30
8.266910006368209e-14
 70
     32
  0
VERTEX
  8
MY3DLAYER
10
61.27226142449065
20
50.62162612445024
30
8.269997200635637e-14
 70
     32
  0
VERTEX
  8
MY3DLAYER
10
61.12360532722041
20
50.18369938354592
30
8.276205362601647e-14
 70
     32
  0
VERTEX
  8
MY3DLAYER
10
60.91906009350849
20
49.768922680945074
30
8.28542826889376e-14
 70
     32
  0
VERTEX
  8
MY3DLAYER
10
60.66212554901423
20
49.38439296102703
30
8.297508113028256e-14
 70
     32
  0
VERTEX
  8
MY3DLAYER
10
60.35719791502958
20
49.036689633911436
30
8.312238205522826e-14
 70
     32
  0
SEQEND
  0
POLYLINE
 8
Layer0
 66
     1
70
    8
 10
0.0
 20
 0.0
 30
0.0
  0
VERTEX
  8
MY3DLAYER
10
97.77056153031533
20
108.40759726608663
30
6.565483110052049e-14
 70
     32
  0
VERTEX
  8
MY3DLAYER
10
97.9192176275855
20
108.84552400699098
30
6.55927494808604e-14
 70
     32
  0
VERTEX
  8
MY3DLAYER
10
98.12376286129741
20
109.26030070959186
30
6.550052041793927e-14
 70
     32
  0
VERTEX
  8
MY3DLAYER
10
98.38069740579176
20
109.64483042950985
30
6.537972197659428e-14
 70
     32
  0
VERTEX
  8
MY3DLAYER
10
98.68562503977641
20
109.99253375662548
30
6.52324210516486e-14
 70
     32
  0
VERTEX
  8
MY3DLAYER
10
120.86203191096973
20
132.16894062781847
30
5.440693429522239e-14
 70
     32
  0
VERTEX
  8
MY3DLAYER
10
121.20973523808522
20
132.47386826180312
30
5.4235651246341354e-14
 70
     32
  0
VERTEX
  8
MY3DLAYER
10
121.59426495800331
20
132.73080280629745
30
5.404331677397986e-14
 70
     32
  0
VERTEX
  8
MY3DLAYER
10
122.00904166060423
20
132.93534804000942
30
5.383322177428525e-14
 70
     32
  0
VERTEX
  8
MY3DLAYER
10
122.44696840150863
20
133.08400413727955
30
5.360896103095169e-14
 70
     32
  0
VERTEX
  8
MY3DLAYER
10
122.90055213276334
20
133.17422755106836
30
5.337437170747446e-14
 70
     32
  0
VERTEX
  8
MY3DLAYER
10
123.3620319109697
20
133.2044745337512
30
5.313346769221855e-14
 70
     32
  0
VERTEX
  8
MY3DLAYER
10
123.82351168917607
20
133.17422755106836
30
5.289037091967631e-14
 70
     32
  0
VERTEX
  8
MY3DLAYER
10
124.27709542043078
20
133.08400413727955
30
5.264924084302516e-14
 70
     32
  0
VERTEX
  8
MY3DLAYER
10
124.71502216133518
20
132.93534804000942
30
5.241420326473037e-14
 70
     32
  0
VERTEX
  8
MY3DLAYER
10
125.12979886393592
20
132.73080280629745
30
5.2189279742921414e-14
 70
     32
  0
VERTEX
  8
MY3DLAYER
10
125.51432858385401
20
132.47386826180312
30
5.1978318781416844e-14
 70
     32
  0
VERTEX
  8
MY3DLAYER
10
125.86203191096968
20
132.16894062781847
30
5.178492998075754e-14
 70
     32
  0
VERTEX
  8
MY3DLAYER
10
132.1757404099547
20
125.85523212883363
30
4.824515940939582e-14
 70
     32
  0
VERTEX
  8
MY3DLAYER
10
132.48066804393935
20
125.50752880171802
30
4.807265170557858e-14
 70
     32
  0
VERTEX
  8
MY3DLAYER
10
132.73760258843362
20
125.12299908179997
30
4.7923976753243914e-14
 70
     32
  0
VERTEX
  8
MY3DLAYER
10
132.9421478221457
20
124.7082223791991
30
4.78016784220466e-14
 70
     32
  0
VERTEX
  8
MY3DLAYER
10
133.090803919416
20
124.27029563829474
30
4.770784927034105e-14
 70
     32
  0
VERTEX
  8
MY3DLAYER
10
133.18102733320475
20
123.81671190703995
30
4.7644094740927395e-14
 70
     32
  0
VERTEX
  8
MY3DLAYER
10
133.21127431588758
20
123.35523212883366
30
4.7611505691479844e-14
 70
     32
  0
VERTEX
  8
MY3DLAYER
10
133.18102733320475
20
122.89375235062735
30
4.761063972966987e-14
 70
     32
  0
VERTEX
  8
MY3DLAYER
10
133.090803919416
20
122.44016861937254
30
4.7641511672344135e-14
 70
     32
  0
VERTEX
  8
MY3DLAYER
10
132.94214782214553
20
122.00224187846814
30
4.770359329200437e-14
 70
     32
  0
VERTEX
  8
MY3DLAYER
10
132.73760258843362
20
121.58746517586732
30
4.779582235492551e-14
 70
     32
  0
VERTEX
  8
MY3DLAYER
10
132.48066804393935
20
121.20293545594927
30
4.7916620796270444e-14
 70
     32
  0
VERTEX
  8
MY3DLAYER
10
132.1757404099547
20
120.85523212883365
30
4.806392172121614e-14
 70
     32
  0
VERTEX
  8
MY3DLAYER
10
109.99933353876106
20
98.67882525764072
30
5.888940847764249e-14
 70
     32
  0
VERTEX
  8
MY3DLAYER
10
109.65163021164558
20
98.37389762365608
30
5.906069152652352e-14
 70
     32
  0
VERTEX
  8
MY3DLAYER
10
109.26710049172749
20
98.11696307916176
30
5.925302599888504e-14
 70
     32
  0
VERTEX
  8
MY3DLAYER
10
108.85232378912657
20
97.91241784544981
30
5.946312099857965e-14
 70
     32
  0
VERTEX
  8
MY3DLAYER
10
108.41439704822217
20
97.7637617481796
30
5.968738174191321e-14
 70
     32
  0
VERTEX
  8
MY3DLAYER
10
107.96081331696746
20
97.67353833439081
30
5.992197106539044e-14
 70
     32
  0
VERTEX
  8
MY3DLAYER
10
107.49933353876109
20
97.643291351708
30
6.016287508064634e-14
 70
     32
  0
VERTEX
  8
MY3DLAYER
10
107.03785376055491
20
97.67353833439081
30
6.040597185318852e-14
 70
     32
  0
VERTEX
  8
MY3DLAYER
10
106.58427002930001
20
97.7637617481796
30
6.064710192983974e-14
 70
     32
  0
VERTEX
  8
MY3DLAYER
10
106.14634328839561
20
97.91241784544981
30
6.088213950813453e-14
 70
     32
  0
VERTEX
  8
MY3DLAYER
10
105.7315665857947
20
98.11696307916176
30
6.110706302994359e-14
 70
     32
  0
VERTEX
  8
MY3DLAYER
10
105.34703686587679
20
98.37389762365608
30
6.131802399144805e-14
 70
     32
  0
VERTEX
  8
MY3DLAYER
10
104.99933353876112
20
98.67882525764072
30
6.151141279210734e-14
 70
     32
  0
VERTEX
  8
MY3DLAYER
10
98.68562503977641
20
104.99253375662549
30
6.505118336346892e-14
 70
     32
  0
VERTEX
  8
MY3DLAYER
10
98.38069740579176
20
105.3402370837411
30
6.522369106728616e-14
 70
     32
  0
VERTEX
  8
MY3DLAYER
10
98.12376286129741
20
105.72476680365915
30
6.537236601962087e-14
 70
     32
  0
VERTEX
  8
MY3DLAYER
10
97.9192176275855
20
106.13954350626003
30
6.549466435081806e-14
 70
     32
  0
VERTEX
  8
MY3DLAYER
10
97.77056153031533
20
106.57747024716443
30
6.558849350252355e-14
 70
     32
  0
VERTEX
  8
MY3DLAYER
10
97.68033811652651
20
107.03105397841924
30
6.565224803193727e-14
 70
     32
  0
VERTEX
  8
MY3DLAYER
10
97.65009113384369
20
107.4925337566255
30
6.568483708138482e-14
 70
     32
  0
VERTEX
  8
MY3DLAYER
10
97.68033811652651
20
107.95401353483183
30
6.568570304319479e-14
 70
     32
  0
VERTEX
  8
MY3DLAYER
10
97.77056153031533
20
108.40759726608663
30
6.565483110052049e-14
 70
     32
  0
SEQEND
  0
POLYLINE
 8
Layer0
 66
     1
70
    8
 10
0.0
 20
 0.0
 30
0.0
  0
VERTEX
  8
MY3DLAYER
10
37.83308771672293
20
132.47386826180394
30
9.795843715166736e-14
 70
     32
  0
VERTEX
  8
MY3DLAYER
10
38.18079104383805
20
132.16894062781907
30
9.776504835100832e-14
 70
     32
  0
VERTEX
  8
MY3DLAYER
10
60.35719791503102
20
109.99253375662593
30
8.533188130919566e-14
 70
     32
  0
VERTEX
  8
MY3DLAYER
10
60.66212554901567
20
109.6448304295108
30
8.515937360537844e-14
 70
     32
  0
VERTEX
  8
MY3DLAYER
10
60.919060093510566
20
109.26030070959244
30
8.501069865304343e-14
 70
     32
  0
VERTEX
  8
MY3DLAYER
10
61.12360532722176
20
108.84552400699152
30
8.48884003218466e-14
 70
     32
  0
VERTEX
  8
MY3DLAYER
10
61.272261424492186
20
108.40759726608717
30
8.479457117014097e-14
 70
     32
  0
VERTEX
  8
MY3DLAYER
10
61.36248483828093
20
107.95401353483227
30
8.473081664072729e-14
 70
     32
  0
VERTEX
  8
MY3DLAYER
10
61.39273182096402
20
107.49253375662627
30
8.469822759127964e-14
 70
     32
  0
VERTEX
  8
MY3DLAYER
10
61.362484838280835
20
107.03105397841982
30
8.469736162946985e-14
 70
     32
  0
VERTEX
  8
MY3DLAYER
10
61.272261424492186
20
106.57747024716497
30
8.472823357214406e-14
 70
     32
  0
VERTEX
  8
MY3DLAYER
10
61.123605327222215
20
106.13954350626071
30
8.479031519180403e-14
 70
     32
  0
VERTEX
  8
MY3DLAYER
10
60.91906009351012
20
105.7247668036596
30
8.488254425472524e-14
 70
     32
  0
VERTEX
  8
MY3DLAYER
10
60.66212554901603
20
105.3402370837417
30
8.500334269607011e-14
 70
     32
  0
VERTEX
  8
MY3DLAYER
10
60.357197915030845
20
104.99253375662589
30
8.515064362101608e-14
 70
     32
  0
VERTEX
  8
MY3DLAYER
10
54.04348941604645
20
98.67882525764111
30
8.823270141949897e-14
 70
     32
  0
VERTEX
  8
MY3DLAYER
10
53.695786088930426
20
98.37389762365642
30
8.840398446838026e-14
 70
     32
  0
VERTEX
  8
MY3DLAYER
10
53.311256369012604
20
98.11696307916219
30
8.859631894074165e-14
 70
     32
  0
VERTEX
  8
MY3DLAYER
10
52.896479666411956
20
97.91241784545024
30
8.880641394043611e-14
 70
     32
  0
VERTEX
  8
MY3DLAYER
10
52.45855292550765
20
97.76376174818003
30
8.903067468376962e-14
 70
     32
  0
VERTEX
  8
MY3DLAYER
10
52.004969194252574
20
97.67353833439147
30
8.926526400724705e-14
 70
     32
  0
VERTEX
  8
MY3DLAYER
10
51.5434894160463
20
97.64329135170856
30
8.950616802250289e-14
 70
     32
  0
VERTEX
  8
MY3DLAYER
10
51.08200963783993
20
97.67353833439152
30
8.974926479504515e-14
 70
     32
  0
VERTEX
  8
MY3DLAYER
10
50.62842590658525
20
97.76376174818017
30
8.999039487169628e-14
 70
     32
  0
VERTEX
  8
MY3DLAYER
10
50.19049916568089
20
97.91241784545055
30
9.022543244999105e-14
 70
     32
  0
VERTEX
  8
MY3DLAYER
10
49.775722463080164
20
98.11696307916242
30
9.04503559718e-14
 70
     32
  0
VERTEX
  8
MY3DLAYER
10
49.39119274316225
20
98.37389762365677
30
9.066131693330447e-14
 70
     32
  0
VERTEX
  8
MY3DLAYER
10
49.043489416046405
20
98.67882525764146
30
9.085470573396388e-14
 70
     32
  0
VERTEX
  8
MY3DLAYER
10
26.867082544853353
20
120.85523212883429
30
1.0328787277577658e-13
 70
     32
  0
VERTEX
  8
MY3DLAYER
10
26.5621549108688
20
121.20293545594998
30
1.0346038047959376e-13
 70
     32
  0
VERTEX
  8
MY3DLAYER
10
26.30522036637444
20
121.58746517586786
30
1.0360905543192847e-13
 70
     32
  0
VERTEX
  8
MY3DLAYER
10
26.10067513266216
20
122.00224187846887
30
1.0373135376312587e-13
 70
     32
  0
VERTEX
  8
MY3DLAYER
10
25.952019035392098
20
122.44016861937281
30
1.0382518291483128e-13
 70
     32
  0
VERTEX
  8
MY3DLAYER
10
25.86179562160336
20
122.89375235062793
30
1.0388893744424498e-13
 70
     32
  0
VERTEX
  8
MY3DLAYER
10
25.831548638920534
20
123.35523212883412
30
1.039215264936925e-13
 70
     32
  0
VERTEX
  8
MY3DLAYER
10
25.86179562160363
20
123.81671190704034
30
1.0392239245550235e-13
 70
     32
  0
VERTEX
  8
MY3DLAYER
10
25.952019035392187
20
124.27029563829538
30
1.0389152051282818e-13
 70
     32
  0
VERTEX
  8
MY3DLAYER
10
26.100675132662342
20
124.70822237919964
30
1.038294388931681e-13
 70
     32
  0
VERTEX
  8
MY3DLAYER
10
26.30522036637408
20
125.1229990818006
30
1.0373720983024707e-13
 70
     32
  0
VERTEX
  8
MY3DLAYER
10
26.5621549108688
20
125.50752880171856
30
1.0361641138890189e-13
 70
     32
  0
VERTEX
  8
MY3DLAYER
10
26.86708254485326
20
125.85523212883419
30
1.0346911046395627e-13
 70
     32
  0
VERTEX
  8
MY3DLAYER
10
33.18079104383828
20
132.16894062781893
30
1.0038705266547307e-13
 70
     32
  0
VERTEX
  8
MY3DLAYER
10
33.52849437095395
20
132.4738682618038
30
1.0021576961659197e-13
 70
     32
  0
VERTEX
  8
MY3DLAYER
10
33.913024090871865
20
132.73080280629793
30
1.0002343514423054e-13
 70
     32
  0
VERTEX
  8
MY3DLAYER
10
34.3278007934726
20
132.93534804000998
30
9.981334014453603e-14
 70
     32
  0
VERTEX
  8
MY3DLAYER
10
34.76572753437701
20
133.0840041372803
30
9.958907940120247e-14
 70
     32
  0
VERTEX
  8
MY3DLAYER
10
35.21931126563207
20
133.174227551069
30
9.935449007772505e-14
 70
     32
  0
VERTEX
  8
MY3DLAYER
10
35.68079104383808
20
133.2044745337515
30
9.911358606246932e-14
 70
     32
  0
VERTEX
  8
MY3DLAYER
10
36.142270822044445
20
133.17422755106878
30
9.887048928992709e-14
 70
     32
  0
VERTEX
  8
MY3DLAYER
10
36.59585455329933
20
133.08400413728006
30
9.862935921327585e-14
 70
     32
  0
VERTEX
  8
MY3DLAYER
10
37.033781294203735
20
132.93534804000998
30
9.839432163498106e-14
 70
     32
  0
VERTEX
  8
MY3DLAYER
10
37.44855799680457
20
132.730802806298
30
9.816939811317205e-14
 70
     32
  0
VERTEX
  8
MY3DLAYER
10
37.83308771672293
20
132.47386826180394
30
9.795843715166736e-14
 70
     32
  0
SEQEND
  0
POLYLINE
 8
Layer0
 66
     1
70
    8
 10
0.0
 20
 0.0
 30
0.0
  0
VERTEX
  8
MY3DLAYER
10
132.73760258843362
20
33.90622430873583
30
4.461759327662885e-14
 70
     32
  0
VERTEX
  8
MY3DLAYER
10
132.48066804393952
20
33.521694588817894
30
4.4738391717973694e-14
 70
     32
  0
VERTEX
  8
MY3DLAYER
10
132.17574040995433
20
33.17399126170212
30
4.4885692642919686e-14
 70
     32
  0
VERTEX
  8
MY3DLAYER
10
125.8620319109704
20
26.86028276271794
30
4.796775044140235e-14
 70
     32
  0
VERTEX
  8
MY3DLAYER
10
125.51432858385438
20
26.55535512873327
30
4.813903349028365e-14
 70
     32
  0
VERTEX
  8
MY3DLAYER
10
125.12979886393646
20
26.29842058423905
30
4.833136796264508e-14
 70
     32
  0
VERTEX
  8
MY3DLAYER
10
124.71502216133591
20
26.09387535052709
30
4.8541462962339486e-14
 70
     32
  0
VERTEX
  8
MY3DLAYER
10
124.27709542043151
20
25.94521925325689
30
4.8765723705673046e-14
 70
     32
  0
VERTEX
  8
MY3DLAYER
10
123.82351168917643
20
25.85499583946833
30
4.9000313029150487e-14
 70
     32
  0
VERTEX
  8
MY3DLAYER
10
123.36203191097025
20
25.824748856785416
30
4.9241217044406295e-14
 70
     32
  0
VERTEX
  8
MY3DLAYER
10
122.90055213276388
20
25.854995839468355
30
4.948431381694855e-14
 70
     32
  0
VERTEX
  8
MY3DLAYER
10
122.44696840150917
20
25.945219253257026
30
4.9725443893599697e-14
 70
     32
  0
VERTEX
  8
MY3DLAYER
10
122.00904166060477
20
26.093875350527405
30
4.996048147189448e-14
 70
     32
  0
VERTEX
  8
MY3DLAYER
10
121.59426495800403
20
26.298420584239256
30
5.018540499370342e-14
 70
     32
  0
VERTEX
  8
MY3DLAYER
10
121.20973523808613
20
26.555355128733634
30
5.039636595520792e-14
 70
     32
  0
VERTEX
  8
MY3DLAYER
10
120.86203191097027
20
26.860282762718303
30
5.0589754755867324e-14
 70
     32
  0
VERTEX
  8
MY3DLAYER
10
98.6856250397773
20
49.0366896339111
30
6.302292179767996e-14
 70
     32
  0
VERTEX
  8
MY3DLAYER
10
98.38069740579284
20
49.38439296102681
30
6.31954295014971e-14
 70
     32
  0
VERTEX
  8
MY3DLAYER
10
98.1237628612984
20
49.76892268094468
30
6.334410445383185e-14
 70
     32
  0
VERTEX
  8
MY3DLAYER
10
97.91921762758612
20
50.183699383545665
30
6.346640278502926e-14
 70
     32
  0
VERTEX
  8
MY3DLAYER
10
97.77056153031606
20
50.62162612444955
30
6.356023193673469e-14
 70
     32
  0
VERTEX
  8
MY3DLAYER
10
97.68033811652732
20
51.075209855704614
30
6.362398646614835e-14
 70
     32
  0
VERTEX
  8
MY3DLAYER
10
97.6500911338445
20
51.536689633910825
30
6.36565755155959e-14
 70
     32
  0
VERTEX
  8
MY3DLAYER
10
97.68033811652768
20
51.99816941211705
30
6.365744147740566e-14
 70
     32
  0
VERTEX
  8
MY3DLAYER
10
97.77056153031624
20
52.45175314337208
30
6.36265695347315e-14
 70
     32
  0
VERTEX
  8
MY3DLAYER
10
97.9192176275863
20
52.88967988427635
30
6.356448791507151e-14
 70
     32
  0
VERTEX
  8
MY3DLAYER
10
98.12376286129803
20
53.30445658687731
30
6.347225885215045e-14
 70
     32
  0
VERTEX
  8
MY3DLAYER
10
98.38069740579284
20
53.68898630679527
30
6.335146041080522e-14
 70
     32
  0
VERTEX
  8
MY3DLAYER
10
98.6856250397773
20
54.03668963391087
30
6.320415948585962e-14
 70
     32
  0
VERTEX
  8
MY3DLAYER
10
104.99933353876185
20
60.35039813289505
30
6.012210168737666e-14
 70
     32
  0
VERTEX
  8
MY3DLAYER
10
105.3470368658775
20
60.655325766879905
30
5.995081863849554e-14
 70
     32
  0
VERTEX
  8
MY3DLAYER
10
105.73156658579542
20
60.912260311374034
30
5.97584841661341e-14
 70
     32
  0
VERTEX
  8
MY3DLAYER
10
106.14634328839615
20
61.11680554508611
30
5.954838916643962e-14
 70
     32
  0
VERTEX
  8
MY3DLAYER
10
106.58427002930047
20
61.2654616423564
30
5.93241284231061e-14
 70
     32
  0
VERTEX
  8
MY3DLAYER
10
107.03785376055554
20
61.35568505614514
30
5.908953909962866e-14
 70
     32
  0
VERTEX
  8
MY3DLAYER
10
107.49933353876145
20
61.385932038827605
30
5.884863508437299e-14
 70
     32
  0
VERTEX
  8
MY3DLAYER
10
107.96081331696782
20
61.35568505614489
30
5.860553831183076e-14
 70
     32
  0
VERTEX
  8
MY3DLAYER
10
108.41439704822271
20
61.26546164235617
30
5.83644082351795e-14
 70
     32
  0
VERTEX
  8
MY3DLAYER
10
108.85232378912711
20
61.11680554508611
30
5.812937065688473e-14
 70
     32
  0
VERTEX
  8
MY3DLAYER
10
109.26710049172785
20
60.9122603113741
30
5.790444713507576e-14
 70
     32
  0
VERTEX
  8
MY3DLAYER
10
109.6516302116463
20
60.65532576688004
30
5.7693486173571e-14
 70
     32
  0
VERTEX
  8
MY3DLAYER
10
109.99933353876142
20
60.35039813289519
30
5.750009737291199e-14
 70
     32
  0
VERTEX
  8
MY3DLAYER
10
132.17574040995453
20
38.173991261702206
30
4.506693033109926e-14
 70
     32
  0
VERTEX
  8
MY3DLAYER
10
132.48066804393918
20
37.82628793458706
30
4.489442262728206e-14
 70
     32
  0
VERTEX
  8
MY3DLAYER
10
132.73760258843416
20
37.44175821466872
30
4.474574767494699e-14
 70
     32
  0
VERTEX
  8
MY3DLAYER
10
132.94214782214536
20
37.0269815120678
30
4.4623449343750167e-14
 70
     32
  0
VERTEX
  8
MY3DLAYER
10
133.09080391941583
20
36.58905477116344
30
4.4529620192044495e-14
 70
     32
  0
VERTEX
  8
MY3DLAYER
10
133.18102733320455
20
36.135471039908545
30
4.4465865662630846e-14
 70
     32
  0
VERTEX
  8
MY3DLAYER
10
133.21127431588758
20
35.67399126170254
30
4.443327661318321e-14
 70
     32
  0
VERTEX
  8
MY3DLAYER
10
133.18102733320438
20
35.212511483496044
30
4.443241065137342e-14
 70
     32
  0
VERTEX
  8
MY3DLAYER
10
133.09080391941583
20
34.7589277522412
30
4.446328259404759e-14
 70
     32
  0
VERTEX
  8
MY3DLAYER
10
132.9421478221457
20
34.321001011336904
30
4.452536421370762e-14
 70
     32
  0
VERTEX
  8
MY3DLAYER
10
132.73760258843362
20
33.90622430873583
30
4.461759327662885e-14
 70
     32
  0
SEQEND
  0
POLYLINE
 8
Layer0
 66
     1
70
    8
 10
0.0
 20
 0.0
 30
0.0
  0
VERTEX
  8
MY3DLAYER
10
62.971411477403755
20
75.28237864823409
30
8.270282780766038e-14
 70
     32
  0
VERTEX
  8
MY3DLAYER
10
62.971411477403755
20
83.74684474230132
30
8.300964386097314e-14
 70
     32
  0
VERTEX
  8
MY3DLAYER
10
63.03164667563963
20
84.20437649703187
30
8.299464087054094e-14
 70
     32
  0
VERTEX
  8
MY3DLAYER
10
63.10597472427466
20
84.42333986748407
30
8.296360006071095e-14
 70
     32
  0
VERTEX
  8
MY3DLAYER
10
63.208247341130715
20
84.6307282187845
30
8.291748552925033e-14
 70
     32
  0
VERTEX
  8
MY3DLAYER
10
63.33671461337784
20
84.82299307874352
30
8.285708630857787e-14
 70
     32
  0
VERTEX
  8
MY3DLAYER
10
63.48917843037017
20
84.99684474230132
30
8.278343584610502e-14
 70
     32
  0
VERTEX
  8
MY3DLAYER
10
63.663030093928
20
85.14930855929364
30
8.269779432166446e-14
 70
     32
  0
VERTEX
  8
MY3DLAYER
10
63.85529495388705
20
85.27777583154081
30
8.26016270854837e-14
 70
     32
  0
VERTEX
  8
MY3DLAYER
10
64.0626833051875
20
85.38004844839679
30
8.24965795856364e-14
 70
     32
  0
VERTEX
  8
MY3DLAYER
10
64.28164667563962
20
85.45437649703186
30
8.238444921396966e-14
 70
     32
  0
VERTEX
  8
MY3DLAYER
10
64.73917843037016
20
85.51461169526767
30
8.214670254460308e-14
 70
     32
  0
VERTEX
  8
MY3DLAYER
10
66.00364452443745
20
85.51461169526765
30
8.14836154337753e-14
 70
     32
  0
VERTEX
  8
MY3DLAYER
10
66.46117627916799
20
85.45437649703183
30
8.12415020091786e-14
 70
     32
  0
VERTEX
  8
MY3DLAYER
10
66.68013964962019
20
85.38004844839675
30
8.11239832200312e-14
 70
     32
  0
VERTEX
  8
MY3DLAYER
10
66.88752800092064
20
85.27777583154077
30
8.101152145912666e-14
 70
     32
  0
VERTEX
  8
MY3DLAYER
10
67.07979286087959
20
85.1493085592936
30
8.090604097837444e-14
 70
     32
  0
VERTEX
  8
MY3DLAYER
10
67.25364452443743
20
84.99684474230128
30
8.080934657804477e-14
 70
     32
  0
VERTEX
  8
MY3DLAYER
10
67.40610834142976
20
84.82299307874348
30
8.072309272613618e-14
 70
     32
  0
VERTEX
  8
MY3DLAYER
10
67.53457561367689
20
84.63072821878447
30
8.064875524996882e-14
 70
     32
  0
VERTEX
  8
MY3DLAYER
10
67.63684823053285
20
84.42333986748403
30
8.058760608437023e-14
 70
     32
  0
VERTEX
  8
MY3DLAYER
10
67.71117627916797
20
84.20437649703184
30
8.054069150851746e-14
 70
     32
  0
VERTEX
  8
MY3DLAYER
10
67.75628798606243
20
83.97758463140443
30
8.050881424381058e-14
 70
     32
  0
VERTEX
  8
MY3DLAYER
10
67.77141147740384
20
75.28237864823407
30
8.018570366577405e-14
 70
     32
  0
VERTEX
  8
MY3DLAYER
10
67.71117627916797
20
74.82484689350353
30
8.020070665620622e-14
 70
     32
  0
VERTEX
  8
MY3DLAYER
10
67.63684823053293
20
74.60588352305132
30
8.023174746603623e-14
 70
     32
  0
VERTEX
  8
MY3DLAYER
10
67.53457561367689
20
74.39849517175088
30
8.027786199749686e-14
 70
     32
  0
VERTEX
  8
MY3DLAYER
10
67.40610834142984
20
74.20623031179187
30
8.033826121816927e-14
 70
     32
  0
VERTEX
  8
MY3DLAYER
10
67.25364452443743
20
74.03237864823407
30
8.041191168064216e-14
 70
     32
  0
VERTEX
  8
MY3DLAYER
10
67.07979286087959
20
73.87991483124173
30
8.049755320508273e-14
 70
     32
  0
VERTEX
  8
MY3DLAYER
10
66.88752800092064
20
73.75144755899457
30
8.059372044126343e-14
 70
     32
  0
VERTEX
  8
MY3DLAYER
10
66.68013964962019
20
73.6491749421386
30
8.069876794111074e-14
 70
     32
  0
VERTEX
  8
MY3DLAYER
10
66.46117627916799
20
73.5748468935035
30
8.081089831277752e-14
 70
     32
  0
VERTEX
  8
MY3DLAYER
10
66.00364452443745
20
73.51461169526769
30
8.104864498214409e-14
 70
     32
  0
VERTEX
  8
MY3DLAYER
10
64.73917843037016
20
73.51461169526769
30
8.171173209297188e-14
 70
     32
  0
VERTEX
  8
MY3DLAYER
10
64.28164667563962
20
73.57484689350352
30
8.195384551756858e-14
 70
     32
  0
VERTEX
  8
MY3DLAYER
10
64.06268330518742
20
73.6491749421386
30
8.207136430671598e-14
 70
     32
  0
VERTEX
  8
MY3DLAYER
10
63.855294953886954
20
73.75144755899457
30
8.218382606762052e-14
 70
     32
  0
VERTEX
  8
MY3DLAYER
10
63.66303009392791
20
73.87991483124173
30
8.228930654837279e-14
 70
     32
  0
VERTEX
  8
MY3DLAYER
10
63.489178430370075
20
74.03237864823407
30
8.238600094870246e-14
 70
     32
  0
VERTEX
  8
MY3DLAYER
10
63.33671461337784
20
74.20623031179187
30
8.247225480061102e-14
 70
     32
  0
VERTEX
  8
MY3DLAYER
10
63.20824734113062
20
74.3984951717509
30
8.25465922767784e-14
 70
     32
  0
VERTEX
  8
MY3DLAYER
10
63.10597472427466
20
74.60588352305132
30
8.2607741442377e-14
 70
     32
  0
VERTEX
  8
MY3DLAYER
10
63.03164667563954
20
74.82484689350353
30
8.265465601822977e-14
 70
     32
  0
VERTEX
  8
MY3DLAYER
10
62.971411477403755
20
75.28237864823409
30
8.270282780766038e-14
 70
     32
  0
SEQEND
  0
POLYLINE
 8
Layer0
 66
     1
70
    8
 10
0.0
 20
 0.0
 30
0.0
  0
VERTEX
  8
MY3DLAYER
10
96.07141147740388
20
75.28237864823406
30
6.534515924590278e-14
 70
     32
  0
VERTEX
  8
MY3DLAYER
10
96.01117627916801
20
74.82484689350352
30
6.536016223633496e-14
 70
     32
  0
VERTEX
  8
MY3DLAYER
10
95.93684823053297
20
74.60588352305132
30
6.539120304616498e-14
 70
     32
  0
VERTEX
  8
MY3DLAYER
10
95.83457561367692
20
74.39849517175087
30
6.543731757762558e-14
 70
     32
  0
VERTEX
  8
MY3DLAYER
10
95.70610834142988
20
74.20623031179186
30
6.549771679829801e-14
 70
     32
  0
VERTEX
  8
MY3DLAYER
10
95.55364452443747
20
74.03237864823406
30
6.55713672607709e-14
 70
     32
  0
VERTEX
  8
MY3DLAYER
10
95.37979286087963
20
73.87991483124172
30
6.565700878521145e-14
 70
     32
  0
VERTEX
  8
MY3DLAYER
10
95.18752800092066
20
73.75144755899457
30
6.57531760213922e-14
 70
     32
  0
VERTEX
  8
MY3DLAYER
10
94.9801396496202
20
73.64917494213859
30
6.585822352123948e-14
 70
     32
  0
VERTEX
  8
MY3DLAYER
10
94.761176279168
20
73.57484689350349
30
6.597035389290627e-14
 70
     32
  0
VERTEX
  8
MY3DLAYER
10
94.30364452443746
20
73.51461169526767
30
6.620810056227284e-14
 70
     32
  0
VERTEX
  8
MY3DLAYER
10
93.03917843037017
20
73.51461169526767
30
6.687118767310063e-14
 70
     32
  0
VERTEX
  8
MY3DLAYER
10
92.58164667563959
20
73.5748468935035
30
6.711330109769737e-14
 70
     32
  0
VERTEX
  8
MY3DLAYER
10
92.3626833051874
20
73.64917494213859
30
6.723081988684476e-14
 70
     32
  0
VERTEX
  8
MY3DLAYER
10
92.15529495388697
20
73.75144755899457
30
6.734328164774927e-14
 70
     32
  0
VERTEX
  8
MY3DLAYER
10
91.9630300939279
20
73.87991483124172
30
6.744876212850154e-14
 70
     32
  0
VERTEX
  8
MY3DLAYER
10
91.78917843037007
20
74.03237864823406
30
6.754545652883121e-14
 70
     32
  0
VERTEX
  8
MY3DLAYER
10
91.63671461337783
20
74.20623031179187
30
6.763171038073976e-14
 70
     32
  0
VERTEX
  8
MY3DLAYER
10
91.50824734113061
20
74.39849517175088
30
6.770604785690715e-14
 70
     32
  0
VERTEX
  8
MY3DLAYER
10
91.40597472427466
20
74.60588352305132
30
6.776719702250575e-14
 70
     32
  0
VERTEX
  8
MY3DLAYER
10
91.33164667563953
20
74.82484689350352
30
6.781411159835853e-14
 70
     32
  0
VERTEX
  8
MY3DLAYER
10
91.27141147740375
20
75.28237864823407
30
6.786228338778913e-14
 70
     32
  0
VERTEX
  8
MY3DLAYER
10
91.27141147740375
20
83.7468447423013
30
6.816909944110192e-14
 70
     32
  0
VERTEX
  8
MY3DLAYER
10
91.33164667563962
20
84.20437649703186
30
6.815409645066973e-14
 70
     32
  0
VERTEX
  8
MY3DLAYER
10
91.40597472427466
20
84.42333986748406
30
6.812305564083972e-14
 70
     32
  0
VERTEX
  8
MY3DLAYER
10
91.5082473411307
20
84.6307282187845
30
6.807694110937909e-14
 70
     32
  0
VERTEX
  8
MY3DLAYER
10
91.63671461337783
20
84.82299307874351
30
6.801654188870662e-14
 70
     32
  0
VERTEX
  8
MY3DLAYER
10
91.78917843037016
20
84.9968447423013
30
6.794289142623378e-14
 70
     32
  0
VERTEX
  8
MY3DLAYER
10
91.963030093928
20
85.14930855929364
30
6.785724990179322e-14
 70
     32
  0
VERTEX
  8
MY3DLAYER
10
92.15529495388706
20
85.2777758315408
30
6.776108266561245e-14
 70
     32
  0
VERTEX
  8
MY3DLAYER
10
92.3626833051875
20
85.38004844839678
30
6.765603516576515e-14
 70
     32
  0
VERTEX
  8
MY3DLAYER
10
92.58164667563959
20
85.45437649703184
30
6.754390479409844e-14
 70
     32
  0
VERTEX
  8
MY3DLAYER
10
93.03917843037017
20
85.51461169526766
30
6.730615812473184e-14
 70
     32
  0
VERTEX
  8
MY3DLAYER
10
94.30364452443746
20
85.51461169526763
30
6.664307101390404e-14
 70
     32
  0
VERTEX
  8
MY3DLAYER
10
94.761176279168
20
85.45437649703182
30
6.640095758930735e-14
 70
     32
  0
VERTEX
  8
MY3DLAYER
10
94.9801396496202
20
85.38004844839674
30
6.628343880015995e-14
 70
     32
  0
VERTEX
  8
MY3DLAYER
10
95.18752800092066
20
85.27777583154075
30
6.617097703925543e-14
 70
     32
  0
VERTEX
  8
MY3DLAYER
10
95.37979286087963
20
85.14930855929359
30
6.606549655850319e-14
 70
     32
  0
VERTEX
  8
MY3DLAYER
10
95.55364452443747
20
84.99684474230126
30
6.596880215817352e-14
 70
     32
  0
VERTEX
  8
MY3DLAYER
10
95.7061083414298
20
84.82299307874347
30
6.588254830626491e-14
 70
     32
  0
VERTEX
  8
MY3DLAYER
10
95.83457561367692
20
84.63072821878445
30
6.580821083009757e-14
 70
     32
  0
VERTEX
  8
MY3DLAYER
10
95.93684823053289
20
84.42333986748402
30
6.574706166449898e-14
 70
     32
  0
VERTEX
  8
MY3DLAYER
10
96.01117627916801
20
84.20437649703183
30
6.57001470886462e-14
 70
     32
  0
VERTEX
  8
MY3DLAYER
10
96.05628798606247
20
83.97758463140443
30
6.566826982393932e-14
 70
     32
  0
VERTEX
  8
MY3DLAYER
10
96.07141147740388
20
75.28237864823406
30
6.534515924590278e-14
 70
     32
  0
SEQEND
  0
POLYLINE
 8
Layer0
 66
     1
70
    8
 10
0.0
 20
 0.0
 30
0.0
  0
VERTEX
  8
MY3DLAYER
10
102.91160218969452
20
119.77291258663978
30
6.337082963740015e-14
 70
     32
  0
VERTEX
  8
MY3DLAYER
10
102.9573957686674
20
119.75524805396803
30
6.334617514925897e-14
 70
     32
  0
VERTEX
  8
MY3DLAYER
10
103.00226742973258
20
119.73535781458018
30
6.332192343927615e-14
 70
     32
  0
VERTEX
  8
MY3DLAYER
10
103.0461090731283
20
119.71328978580506
30
6.32981329319452e-14
 70
     32
  0
VERTEX
  8
MY3DLAYER
10
103.08881508049552
20
119.689097131457
30
6.327486094068213e-14
 70
     32
  0
VERTEX
  8
MY3DLAYER
10
103.13028256932185
20
119.66283813375928
30
6.325216352975227e-14
 70
     32
  0
VERTEX
  8
MY3DLAYER
10
103.17041164079471
20
119.63457605293738
30
6.323009537920654e-14
 70
     32
  0
VERTEX
  8
MY3DLAYER
10
103.20910562046588
20
119.60437897481945
30
6.320870965315265e-14
 70
     32
  0
VERTEX
  8
MY3DLAYER
10
103.24627129114926
20
119.57231964681166
30
6.318805787167774e-14
 70
     32
  0
VERTEX
  8
MY3DLAYER
10
103.28181911748878
20
119.53847530264328
30
6.316818978673232e-14
 70
     32
  0
VERTEX
  8
MY3DLAYER
10
103.31566346165725
20
119.50292747630373
30
6.314915326227321e-14
 70
     32
  0
VERTEX
  8
MY3DLAYER
10
103.347722789665
20
119.46576180562037
30
6.313099415895532e-14
 70
     32
  0
VERTEX
  8
MY3DLAYER
10
103.37791986778286
20
119.42706782594912
30
6.311375622364905e-14
 70
     32
  0
VERTEX
  8
MY3DLAYER
10
103.40618194860477
20
119.38693875447632
30
6.309748098405037e-14
 70
     32
  0
VERTEX
  8
MY3DLAYER
10
103.43244094630253
20
119.34547126564993
30
6.308220764863706e-14
 70
     32
  0
VERTEX
  8
MY3DLAYER
10
103.45663360065063
20
119.30276525828272
30
6.306797301221192e-14
 70
     32
  0
VERTEX
  8
MY3DLAYER
10
103.47870162942573
20
119.258923614887
30
6.30548113672609e-14
 70
     32
  0
VERTEX
  8
MY3DLAYER
10
103.49859186881353
20
119.21405195382181
30
6.304275442133957e-14
 70
     32
  0
VERTEX
  8
MY3DLAYER
10
103.51625640148526
20
119.16825837484897
30
6.303183122068659e-14
 70
     32
  0
VERTEX
  8
MY3DLAYER
10
103.5316526720345
20
119.12165319871121
30
6.302206808024917e-14
 70
     32
  0
VERTEX
  8
MY3DLAYER
10
103.54474358949683
20
119.07434870136001
30
6.301348852028776e-14
 70
     32
  0
VERTEX
  8
MY3DLAYER
10
103.55549761670548
20
119.02645884347288
30
6.300611320971384e-14
 70
     32
  0
VERTEX
  8
MY3DLAYER
10
103.56388884626703
20
118.97809899591213
30
6.299995991629648e-14
 70
     32
  0
VERTEX
  8
MY3DLAYER
10
103.56989706297448
20
118.92938566178633
30
6.299504346385857e-14
 70
     32
  0
VERTEX
  8
MY3DLAYER
10
103.57350779250746
20
118.88043619578418
30
6.299137569656464e-14
 70
     32
  0
VERTEX
  8
MY3DLAYER
10
103.57471233630223
20
118.83136852145678
30
6.298896545038736e-14
 70
     32
  0
VERTEX
  8
MY3DLAYER
10
103.57350779250746
20
118.78230084712933
30
6.298781853182085e-14
 70
     32
  0
VERTEX
  8
MY3DLAYER
10
103.56989706297439
20
118.73335138112719
30
6.298793770389247e-14
 70
     32
  0
VERTEX
  8
MY3DLAYER
10
103.56388884626703
20
118.68463804700143
30
6.298932267950618e-14
 70
     32
  0
VERTEX
  8
MY3DLAYER
10
103.55549761670548
20
118.63627819944064
30
6.299197012213447e-14
 70
     32
  0
VERTEX
  8
MY3DLAYER
10
103.54474358949673
20
118.58838834155351
30
6.299587365385616e-14
 70
     32
  0
VERTEX
  8
MY3DLAYER
10
103.5316526720344
20
118.5410838442023
30
6.300102387072138e-14
 70
     32
  0
VERTEX
  8
MY3DLAYER
10
103.51625640148526
20
118.49447866806453
30
6.30074083654066e-14
 70
     32
  0
VERTEX
  8
MY3DLAYER
10
103.49859186881353
20
118.44868508909171
30
6.301501175710496e-14
 70
     32
  0
VERTEX
  8
MY3DLAYER
10
103.47870162942563
20
118.40381342802651
30
6.302381572857987e-14
 70
     32
  0
VERTEX
  8
MY3DLAYER
10
103.45663360065055
20
118.3599717846308
30
6.303379907029286e-14
 70
     32
  0
VERTEX
  8
MY3DLAYER
10
103.43244094630253
20
118.31726577726353
30
6.304493773149931e-14
 70
     32
  0
VERTEX
  8
MY3DLAYER
10
103.40618194860477
20
118.2757982884372
30
6.305720487818882e-14
 70
     32
  0
VERTEX
  8
MY3DLAYER
10
103.37791986778286
20
118.23566921696435
30
6.307057095773047e-14
 70
     32
  0
VERTEX
  8
MY3DLAYER
10
103.347722789665
20
118.19697523729313
30
6.30850037700679e-14
 70
     32
  0
VERTEX
  8
MY3DLAYER
10
103.31566346165717
20
118.1598095666098
30
6.310046854529213e-14
 70
     32
  0
VERTEX
  8
MY3DLAYER
10
103.28181911748878
20
118.12426174027023
30
6.311692802740495e-14
 70
     32
  0
VERTEX
  8
MY3DLAYER
10
101.86760555511567
20
116.71004817789714
30
6.3807281080501e-14
 70
     32
  0
VERTEX
  8
MY3DLAYER
10
101.83205772877616
20
116.67620383372875
30
6.382469561716839e-14
 70
     32
  0
VERTEX
  8
MY3DLAYER
10
101.79489205809277
20
116.64414450572096
30
6.384302325524622e-14
 70
     32
  0
VERTEX
  8
MY3DLAYER
10
101.7561980784216
20
116.61394742760304
30
6.386221984184896e-14
 70
     32
  0
VERTEX
  8
MY3DLAYER
10
101.71606900694876
20
116.58568534678119
30
6.388223913071817e-14
 70
     32
  0
VERTEX
  8
MY3DLAYER
10
101.67460151812233
20
116.55942634908342
30
6.39030328936334e-14
 70
     32
  0
VERTEX
  8
MY3DLAYER
10
101.63189551075511
20
116.53523369473537
30
6.39245510365985e-14
 70
     32
  0
VERTEX
  8
MY3DLAYER
10
101.58805386735939
20
116.51316566596027
30
6.394674172052227e-14
 70
     32
  0
VERTEX
  8
MY3DLAYER
10
101.5431822062942
20
116.49327542657242
30
6.396955148610351e-14
 70
     32
  0
VERTEX
  8
MY3DLAYER
10
101.49738862732133
20
116.4756108939007
30
6.399292538261901e-14
 70
     32
  0
VERTEX
  8
MY3DLAYER
10
101.45078345118361
20
116.4602146233515
30
6.401680710030474e-14
 70
     32
  0
VERTEX
  8
MY3DLAYER
10
101.40347895383236
20
116.44712370588917
30
6.404113910601104e-14
 70
     32
  0
VERTEX
  8
MY3DLAYER
10
101.35558909594528
20
116.43636967868048
30
6.406586278180487e-14
 70
     32
  0
VERTEX
  8
MY3DLAYER
10
101.30722924838453
20
116.42797844911897
30
6.409091856618574e-14
 70
     32
  0
VERTEX
  8
MY3DLAYER
10
101.25851591425872
20
116.42197023241152
30
6.411624609757449e-14
 70
     32
  0
VERTEX
  8
MY3DLAYER
10
101.20956644825658
20
116.41835950287854
30
6.414178435972951e-14
 70
     32
  0
VERTEX
  8
MY3DLAYER
10
101.16049877392918
20
116.41715495908373
30
6.416747182874042e-14
 70
     32
  0
VERTEX
  8
MY3DLAYER
10
101.11143109960179
20
116.41835950287854
30
6.41932466212444e-14
 70
     32
  0
VERTEX
  8
MY3DLAYER
10
101.06248163359956
20
116.42197023241152
30
6.421904664350875e-14
 70
     32
  0
VERTEX
  8
MY3DLAYER
10
101.01376829947384
20
116.42797844911897
30
6.424480974101991e-14
 70
     32
  0
VERTEX
  8
MY3DLAYER
10
100.965408451913
20
116.43636967868052
30
6.427047384821952e-14
 70
     32
  0
VERTEX
  8
MY3DLAYER
10
100.91751859402592
20
116.44712370588921
30
6.42959771380253e-14
 70
     32
  0
VERTEX
  8
MY3DLAYER
10
100.87021409667467
20
116.4602146233515
30
6.432125817077844e-14
 70
     32
  0
VERTEX
  8
MY3DLAYER
10
100.82360892053696
20
116.47561089390074
30
6.434625604225653e-14
 70
     32
  0
VERTEX
  8
MY3DLAYER
10
100.77781534156408
20
116.49327542657247
30
6.43709105303977e-14
 70
     32
  0
VERTEX
  8
MY3DLAYER
10
100.73294368049889
20
116.51316566596027
30
6.43951622403805e-14
 70
     32
  0
VERTEX
  8
MY3DLAYER
10
100.68910203710317
20
116.53523369473541
30
6.441895274771145e-14
 70
     32
  0
VERTEX
  8
MY3DLAYER
10
100.64639602973595
20
116.55942634908347
30
6.444222473897452e-14
 70
     32
  0
VERTEX
  8
MY3DLAYER
10
100.60492854090963
20
116.58568534678119
30
6.446492214990438e-14
 70
     32
  0
VERTEX
  8
MY3DLAYER
10
100.56479946943676
20
116.61394742760308
30
6.448699030045012e-14
 70
     32
  0
VERTEX
  8
MY3DLAYER
10
100.52610548976551
20
116.644144505721
30
6.450837602650406e-14
 70
     32
  0
VERTEX
  8
MY3DLAYER
10
100.48893981908222
20
116.67620383372879
30
6.452902780797891e-14
 70
     32
  0
VERTEX
  8
MY3DLAYER
10
100.45339199274261
20
116.71004817789718
30
6.45488958929244e-14
 70
     32
  0
VERTEX
  8
MY3DLAYER
10
100.41954764857422
20
116.74559600423675
30
6.456793241738347e-14
 70
     32
  0
VERTEX
  8
MY3DLAYER
10
100.38748832056648
20
116.78276167492008
30
6.458609152070134e-14
 70
     32
  0
VERTEX
  8
MY3DLAYER
10
100.3572912424486
20
116.82145565459133
30
6.460332945600761e-14
 70
     32
  0
VERTEX
  8
MY3DLAYER
10
100.32902916162672
20
116.86158472606415
30
6.461960469560629e-14
 70
     32
  0
VERTEX
  8
MY3DLAYER
10
100.30277016392895
20
116.90305221489052
30
6.463487803101959e-14
 70
     32
  0
VERTEX
  8
MY3DLAYER
10
100.27857750958086
20
116.94575822225774
30
6.464911266744473e-14
 70
     32
  0
VERTEX
  8
MY3DLAYER
10
100.25650948080578
20
116.98959986565346
30
6.466227431239573e-14
 70
     32
  0
VERTEX
  8
MY3DLAYER
10
100.23661924141797
20
117.03447152671865
30
6.467433125831709e-14
 70
     32
  0
VERTEX
  8
MY3DLAYER
10
100.21895470874622
20
117.08026510569152
30
6.468525445897006e-14
 70
     32
  0
VERTEX
  8
MY3DLAYER
10
100.203558438197
20
117.12687028182928
30
6.46950175994075e-14
 70
     32
  0
VERTEX
  8
MY3DLAYER
10
100.19046752073467
20
117.1741747791805
30
6.470359715936887e-14
 70
     32
  0
VERTEX
  8
MY3DLAYER
10
100.17971349352602
20
117.22206463706763
30
6.471097246994282e-14
 70
     32
  0
VERTEX
  8
MY3DLAYER
10
100.17132226396446
20
117.27042448462836
30
6.471712576336016e-14
 70
     32
  0
VERTEX
  8
MY3DLAYER
10
100.16531404725701
20
117.31913781875419
30
6.472204221579809e-14
 70
     32
  0
VERTEX
  8
MY3DLAYER
10
100.16170331772405
20
117.36808728475633
30
6.472570998309202e-14
 70
     32
  0
VERTEX
  8
MY3DLAYER
10
100.16049877392926
20
117.41715495908373
30
6.472812022926927e-14
 70
     32
  0
VERTEX
  8
MY3DLAYER
10
100.16170331772405
20
117.46622263341118
30
6.472926714783581e-14
 70
     32
  0
VERTEX
  8
MY3DLAYER
10
100.16531404725701
20
117.51517209941326
30
6.472914797576422e-14
 70
     32
  0
VERTEX
  8
MY3DLAYER
10
100.17132226396446
20
117.56388543353908
30
6.472776300015047e-14
 70
     32
  0
VERTEX
  8
MY3DLAYER
10
100.17971349352602
20
117.61224528109987
30
6.472511555752219e-14
 70
     32
  0
VERTEX
  8
MY3DLAYER
10
100.19046752073476
20
117.660135138987
30
6.472121202580048e-14
 70
     32
  0
VERTEX
  8
MY3DLAYER
10
100.203558438197
20
117.70743963633821
30
6.471606180893532e-14
 70
     32
  0
VERTEX
  8
MY3DLAYER
10
100.21895470874622
20
117.75404481247593
30
6.470967731425006e-14
 70
     32
  0
VERTEX
  8
MY3DLAYER
10
100.23661924141797
20
117.7998383914488
30
6.470207392255169e-14
 70
     32
  0
VERTEX
  8
MY3DLAYER
10
100.25650948080578
20
117.84471005251399
30
6.469326995107683e-14
 70
     32
  0
VERTEX
  8
MY3DLAYER
10
100.27857750958094
20
117.88855169590975
30
6.46832866093638e-14
 70
     32
  0
VERTEX
  8
MY3DLAYER
10
100.30277016392895
20
117.93125770327693
30
6.467214794815734e-14
 70
     32
  0
VERTEX
  8
MY3DLAYER
10
100.32902916162672
20
117.97272519210331
30
6.465988080146784e-14
 70
     32
  0
VERTEX
  8
MY3DLAYER
10
100.3572912424486
20
118.01285426357616
30
6.464651472192619e-14
 70
     32
  0
VERTEX
  8
MY3DLAYER
10
100.38748832056648
20
118.05154824324737
30
6.463208190958875e-14
 70
     32
  0
VERTEX
  8
MY3DLAYER
10
100.41954764857431
20
118.08871391393072
30
6.461661713436455e-14
 70
     32
  0
VERTEX
  8
MY3DLAYER
10
100.4533919927427
20
118.12426174027027
30
6.460015765225169e-14
 70
     32
  0
VERTEX
  8
MY3DLAYER
10
101.86760555511577
20
119.53847530264328
30
6.390980459915568e-14
 70
     32
  0
VERTEX
  8
MY3DLAYER
10
101.90315338145528
20
119.57231964681172
30
6.389239006248828e-14
 70
     32
  0
VERTEX
  8
MY3DLAYER
10
101.94031905213868
20
119.6043789748195
30
6.387406242441045e-14
 70
     32
  0
VERTEX
  8
MY3DLAYER
10
101.97901303180984
20
119.63457605293738
30
6.385486583780768e-14
 70
     32
  0
VERTEX
  8
MY3DLAYER
10
102.01914210328269
20
119.66283813375928
30
6.38348465489385e-14
 70
     32
  0
VERTEX
  8
MY3DLAYER
10
102.06060959210912
20
119.689097131457
30
6.381405278602326e-14
 70
     32
  0
VERTEX
  8
MY3DLAYER
10
102.10331559947633
20
119.7132897858051
30
6.379253464305816e-14
 70
     32
  0
VERTEX
  8
MY3DLAYER
10
102.14715724287205
20
119.73535781458018
30
6.377034395913437e-14
 70
     32
  0
VERTEX
  8
MY3DLAYER
10
102.19202890393724
20
119.75524805396803
30
6.374753419355315e-14
 70
     32
  0
VERTEX
  8
MY3DLAYER
10
102.23782248291012
20
119.77291258663978
30
6.372416029703765e-14
 70
     32
  0
VERTEX
  8
MY3DLAYER
10
102.28442765904784
20
119.78830885718895
30
6.370027857935195e-14
 70
     32
  0
VERTEX
  8
MY3DLAYER
10
102.331732156399
20
119.80139977465129
30
6.367594657364569e-14
 70
     32
  0
VERTEX
  8
MY3DLAYER
10
102.37962201428617
20
119.81215380185998
30
6.365122289785183e-14
 70
     32
  0
VERTEX
  8
MY3DLAYER
10
102.42798186184692
20
119.82054503142149
30
6.362616711347093e-14
 70
     32
  0
VERTEX
  8
MY3DLAYER
10
102.47669519597274
20
119.82655324812893
30
6.36008395820822e-14
 70
     32
  0
VERTEX
  8
MY3DLAYER
10
102.52564466197487
20
119.83016397766191
30
6.357530131992715e-14
 70
     32
  0
VERTEX
  8
MY3DLAYER
10
102.57471233630227
20
119.83136852145674
30
6.354961385091627e-14
 70
     32
  0
VERTEX
  8
MY3DLAYER
10
102.62378001062967
20
119.83016397766191
30
6.352383905841226e-14
 70
     32
  0
VERTEX
  8
MY3DLAYER
10
102.67272947663182
20
119.82655324812893
30
6.349803903614795e-14
 70
     32
  0
VERTEX
  8
MY3DLAYER
10
102.72144281075764
20
119.82054503142149
30
6.347227593863677e-14
 70
     32
  0
VERTEX
  8
MY3DLAYER
10
102.76980265831837
20
119.81215380185998
30
6.344661183143718e-14
 70
     32
  0
VERTEX
  8
MY3DLAYER
10
102.81769251620555
20
119.80139977465129
30
6.342110854163135e-14
 70
     32
  0
VERTEX
  8
MY3DLAYER
10
102.86499701355672
20
119.78830885718895
30
6.339582750887827e-14
 70
     32
  0
VERTEX
  8
MY3DLAYER
10
102.91160218969452
20
119.77291258663978
30
6.337082963740015e-14
 70
     32
  0
SEQEND
  0
POLYLINE
 8
Layer0
 66
     1
70
    8
 10
0.0
 20
 0.0
 30
0.0
  0
VERTEX
  8
MY3DLAYER
10
130.03769452938317
20
114.37209299174738
30
4.89501169960221e-14
 70
     32
  0
VERTEX
  8
MY3DLAYER
10
130.08348810835605
20
114.35442845907565
30
4.892546250788093e-14
 70
     32
  0
VERTEX
  8
MY3DLAYER
10
130.1283597694213
20
114.33453821968779
30
4.890121079789806e-14
 70
     32
  0
VERTEX
  8
MY3DLAYER
10
130.17220141281695
20
114.31247019091266
30
4.8877420290567164e-14
 70
     32
  0
VERTEX
  8
MY3DLAYER
10
130.21490742018426
20
114.2882775365646
30
4.885414829930405e-14
 70
     32
  0
VERTEX
  8
MY3DLAYER
10
130.2563749090105
20
114.26201853886688
30
4.883145088837423e-14
 70
     32
  0
VERTEX
  8
MY3DLAYER
10
130.29650398048344
20
114.23375645804498
30
4.880938273782847e-14
 70
     32
  0
VERTEX
  8
MY3DLAYER
10
130.3351979601546
20
114.20355937992706
30
4.878799701177457e-14
 70
     32
  0
VERTEX
  8
MY3DLAYER
10
130.372363630838
20
114.17150005191928
30
4.8767345230299657e-14
 70
     32
  0
VERTEX
  8
MY3DLAYER
10
130.40791145717742
20
114.13765570775085
30
4.8747477145354274e-14
 70
     32
  0
VERTEX
  8
MY3DLAYER
10
130.4417558013459
20
114.10210788141133
30
4.8728440620895166e-14
 70
     32
  0
VERTEX
  8
MY3DLAYER
10
130.47381512935365
20
114.06494221072793
30
4.8710281517577283e-14
 70
     32
  0
VERTEX
  8
MY3DLAYER
10
130.5040122074715
20
114.02624823105673
30
4.869304358227102e-14
 70
     32
  0
VERTEX
  8
MY3DLAYER
10
130.53227428829342
20
113.98611915958392
30
4.8676768342672344e-14
 70
     32
  0
VERTEX
  8
MY3DLAYER
10
130.55853328599127
20
113.9446516707575
30
4.866149500725898e-14
 70
     32
  0
VERTEX
  8
MY3DLAYER
10
130.5827259403393
20
113.90194566339032
30
4.864726037083389e-14
 70
     32
  0
VERTEX
  8
MY3DLAYER
10
130.60479396911447
20
113.85810401999456
30
4.863409872588284e-14
 70
     32
  0
VERTEX
  8
MY3DLAYER
10
130.62468420850226
20
113.81323235892941
30
4.862204177996146e-14
 70
     32
  0
VERTEX
  8
MY3DLAYER
10
130.642348741174
20
113.76743877995654
30
4.861111857930851e-14
 70
     32
  0
VERTEX
  8
MY3DLAYER
10
130.65774501172314
20
113.72083360381878
30
4.8601355438871126e-14
 70
     32
  0
VERTEX
  8
MY3DLAYER
10
130.67083592918556
20
113.67352910646757
30
4.8592775878909696e-14
 70
     32
  0
VERTEX
  8
MY3DLAYER
10
130.68158995639422
20
113.62563924858044
30
4.8585400568335754e-14
 70
     32
  0
VERTEX
  8
MY3DLAYER
10
130.68998118595567
20
113.5772794010197
30
4.857924727491847e-14
 70
     32
  0
VERTEX
  8
MY3DLAYER
10
130.69598940266312
20
113.52856606689389
30
4.857433082248052e-14
 70
     32
  0
VERTEX
  8
MY3DLAYER
10
130.6996001321962
20
113.4796166008917
30
4.857066305518653e-14
 70
     32
  0
VERTEX
  8
MY3DLAYER
10
130.70080467599095
20
113.43054892656434
30
4.856825280900928e-14
 70
     32
  0
VERTEX
  8
MY3DLAYER
10
130.6996001321962
20
113.3814812522369
30
4.856710589044276e-14
 70
     32
  0
VERTEX
  8
MY3DLAYER
10
130.69598940266312
20
113.33253178623475
30
4.856722506251441e-14
 70
     32
  0
VERTEX
  8
MY3DLAYER
10
130.68998118595567
20
113.28381845210895
30
4.8568610038128133e-14
 70
     32
  0
VERTEX
  8
MY3DLAYER
10
130.68158995639422
20
113.2354586045482
30
4.857125748075638e-14
 70
     32
  0
VERTEX
  8
MY3DLAYER
10
130.6708359291854
20
113.18756874666107
30
4.857516101247812e-14
 70
     32
  0
VERTEX
  8
MY3DLAYER
10
130.65774501172314
20
113.14026424930987
30
4.8580311229343304e-14
 70
     32
  0
VERTEX
  8
MY3DLAYER
10
130.642348741174
20
113.09365907317209
30
4.858669572402851e-14
 70
     32
  0
VERTEX
  8
MY3DLAYER
10
130.62468420850226
20
113.04786549419927
30
4.8594299115726854e-14
 70
     32
  0
VERTEX
  8
MY3DLAYER
10
130.60479396911427
20
113.00299383313407
30
4.8603103087201813e-14
 70
     32
  0
VERTEX
  8
MY3DLAYER
10
130.5827259403393
20
112.95915218973836
30
4.861308642891478e-14
 70
     32
  0
VERTEX
  8
MY3DLAYER
10
130.55853328599127
20
112.91644618237109
30
4.8624225090121226e-14
 70
     32
  0
VERTEX
  8
MY3DLAYER
10
130.53227428829342
20
112.87497869354476
30
4.863649223681078e-14
 70
     32
  0
VERTEX
  8
MY3DLAYER
10
130.5040122074715
20
112.83484962207191
30
4.864985831635243e-14
 70
     32
  0
VERTEX
  8
MY3DLAYER
10
130.47381512935365
20
112.7961556424007
30
4.866429112868987e-14
 70
     32
  0
VERTEX
  8
MY3DLAYER
10
130.4417558013459
20
112.75898997171736
30
4.867975590391404e-14
 70
     32
  0
VERTEX
  8
MY3DLAYER
10
130.40791145717742
20
112.72344214537779
30
4.869621538602691e-14
 70
     32
  0
VERTEX
  8
MY3DLAYER
10
128.99369789480443
20
111.3092285830047
30
4.938656843912291e-14
 70
     32
  0
VERTEX
  8
MY3DLAYER
10
128.95815006846482
20
111.27538423883631
30
4.940398297579037e-14
 70
     32
  0
VERTEX
  8
MY3DLAYER
10
128.9209843977814
20
111.24332491082852
30
4.942231061386818e-14
 70
     32
  0
VERTEX
  8
MY3DLAYER
10
128.88229041811024
20
111.2131278327106
30
4.944150720047092e-14
 70
     32
  0
VERTEX
  8
MY3DLAYER
10
128.84216134663748
20
111.18486575188871
30
4.946152648934007e-14
 70
     32
  0
VERTEX
  8
MY3DLAYER
10
128.80069385781107
20
111.15860675419098
30
4.9482320252255345e-14
 70
     32
  0
VERTEX
  8
MY3DLAYER
10
128.75798785044375
20
111.13441409984293
30
4.9503838395220456e-14
 70
     32
  0
VERTEX
  8
MY3DLAYER
10
128.71414620704815
20
111.11234607106785
30
4.952602907914421e-14
 70
     32
  0
VERTEX
  8
MY3DLAYER
10
128.66927454598286
20
111.09245583167998
30
4.9548838844725474e-14
 70
     32
  0
VERTEX
  8
MY3DLAYER
10
128.62348096700998
20
111.07479129900825
30
4.957221274124096e-14
 70
     32
  0
VERTEX
  8
MY3DLAYER
10
128.57687579087226
20
111.05939502845906
30
4.959609445892668e-14
 70
     32
  0
VERTEX
  8
MY3DLAYER
10
128.5295712935211
20
111.04630411099673
30
4.962042646463294e-14
 70
     32
  0
VERTEX
  8
MY3DLAYER
10
128.48168143563402
20
111.03555008378804
30
4.964515014042677e-14
 70
     32
  0
VERTEX
  8
MY3DLAYER
10
128.43332158807317
20
111.02715885422649
30
4.967020592480769e-14
 70
     32
  0
VERTEX
  8
MY3DLAYER
10
128.38460825394736
20
111.02115063751909
30
4.969553345619643e-14
 70
     32
  0
VERTEX
  8
MY3DLAYER
10
128.33565878794522
20
111.01753990798612
30
4.972107171835147e-14
 70
     32
  0
VERTEX
  8
MY3DLAYER
10
128.28659111361782
20
111.01633536419129
30
4.9746759187362384e-14
 70
     32
  0
VERTEX
  8
MY3DLAYER
10
128.2375234392904
20
111.01753990798612
30
4.9772533979866355e-14
 70
     32
  0
VERTEX
  8
MY3DLAYER
10
128.18857397328827
20
111.02115063751909
30
4.979833400213069e-14
 70
     32
  0
VERTEX
  8
MY3DLAYER
10
128.13986063916246
20
111.02715885422649
30
4.9824097099641864e-14
 70
     32
  0
VERTEX
  8
MY3DLAYER
10
128.09150079160165
20
111.03555008378804
30
4.984976120684148e-14
 70
     32
  0
VERTEX
  8
MY3DLAYER
10
128.04361093371455
20
111.04630411099673
30
4.987526449664728e-14
 70
     32
  0
VERTEX
  8
MY3DLAYER
10
127.99630643636338
20
111.05939502845906
30
4.990054552940036e-14
 70
     32
  0
VERTEX
  8
MY3DLAYER
10
127.94970126022567
20
111.0747912990083
30
4.9925543400878446e-14
 70
     32
  0
VERTEX
  8
MY3DLAYER
10
127.90390768125279
20
111.09245583168003
30
4.9950197889019615e-14
 70
     32
  0
VERTEX
  8
MY3DLAYER
10
127.85903602018752
20
111.11234607106785
30
4.9974449599002483e-14
 70
     32
  0
VERTEX
  8
MY3DLAYER
10
127.81519437679188
20
111.13441409984293
30
4.999824010633338e-14
 70
     32
  0
VERTEX
  8
MY3DLAYER
10
127.77248836942458
20
111.15860675419103
30
5.002151209759652e-14
 70
     32
  0
VERTEX
  8
MY3DLAYER
10
127.73102088059834
20
111.18486575188875
30
5.004420950852632e-14
 70
     32
  0
VERTEX
  8
MY3DLAYER
10
127.69089180912539
20
111.21312783271065
30
5.006627765907207e-14
 70
     32
  0
VERTEX
  8
MY3DLAYER
10
127.65219782945422
20
111.24332491082856
30
5.008766338512597e-14
 70
     32
  0
VERTEX
  8
MY3DLAYER
10
127.61503215877084
20
111.27538423883635
30
5.0108315166600905e-14
 70
     32
  0
VERTEX
  8
MY3DLAYER
10
127.57948433243124
20
111.30922858300474
30
5.012818325154635e-14
 70
     32
  0
VERTEX
  8
MY3DLAYER
10
127.54563998826293
20
111.34477640934426
30
5.014721977600538e-14
 70
     32
  0
VERTEX
  8
MY3DLAYER
10
127.51358066025519
20
111.38194208002764
30
5.0165378879323266e-14
 70
     32
  0
VERTEX
  8
MY3DLAYER
10
127.48338358213732
20
111.42063605969885
30
5.018261681462954e-14
 70
     32
  0
VERTEX
  8
MY3DLAYER
10
127.45512150131542
20
111.46076513117171
30
5.01988920542282e-14
 70
     32
  0
VERTEX
  8
MY3DLAYER
10
127.42886250361757
20
111.50223261999808
30
5.0214165389641565e-14
 70
     32
  0
VERTEX
  8
MY3DLAYER
10
127.40466984926955
20
111.5449386273653
30
5.0228400026066655e-14
 70
     32
  0
VERTEX
  8
MY3DLAYER
10
127.38260182049437
20
111.58878027076102
30
5.02415616710177e-14
 70
     32
  0
VERTEX
  8
MY3DLAYER
10
127.36271158110657
20
111.63365193182621
30
5.025361861693908e-14
 70
     32
  0
VERTEX
  8
MY3DLAYER
10
127.34504704843484
20
111.67944551079908
30
5.0264541817592054e-14
 70
     32
  0
VERTEX
  8
MY3DLAYER
10
127.3296507778857
20
111.7260506869368
30
5.027430495802942e-14
 70
     32
  0
VERTEX
  8
MY3DLAYER
10
127.31655986042327
20
111.77335518428801
30
5.0282884517990847e-14
 70
     32
  0
VERTEX
  8
MY3DLAYER
10
127.30580583321462
20
111.82124504217515
30
5.029025982856479e-14
 70
     32
  0
VERTEX
  8
MY3DLAYER
10
127.29741460365315
20
111.86960488973594
30
5.029641312198208e-14
 70
     32
  0
VERTEX
  8
MY3DLAYER
10
127.29140638694571
20
111.91831822386175
30
5.030132957442002e-14
 70
     32
  0
VERTEX
  8
MY3DLAYER
10
127.28779565741264
20
111.96726768986389
30
5.0304997341713996e-14
 70
     32
  0
VERTEX
  8
MY3DLAYER
10
127.28659111361787
20
112.01633536419129
30
5.0307407587891265e-14
 70
     32
  0
VERTEX
  8
MY3DLAYER
10
127.28779565741264
20
112.0654030385187
30
5.030855450645778e-14
 70
     32
  0
VERTEX
  8
MY3DLAYER
10
127.29140638694571
20
112.11435250452084
30
5.0308435334386134e-14
 70
     32
  0
VERTEX
  8
MY3DLAYER
10
127.29741460365315
20
112.16306583864665
30
5.030705035877241e-14
 70
     32
  0
VERTEX
  8
MY3DLAYER
10
127.30580583321462
20
112.21142568620743
30
5.030440291614416e-14
 70
     32
  0
VERTEX
  8
MY3DLAYER
10
127.31655986042345
20
112.25931554409456
30
5.030049938442244e-14
 70
     32
  0
VERTEX
  8
MY3DLAYER
10
127.3296507778857
20
112.30662004144577
30
5.029534916755724e-14
 70
     32
  0
VERTEX
  8
MY3DLAYER
10
127.34504704843484
20
112.35322521758349
30
5.028896467287203e-14
 70
     32
  0
VERTEX
  8
MY3DLAYER
10
127.36271158110657
20
112.39901879655636
30
5.028136128117367e-14
 70
     32
  0
VERTEX
  8
MY3DLAYER
10
127.38260182049437
20
112.44389045762155
30
5.027255730969881e-14
 70
     32
  0
VERTEX
  8
MY3DLAYER
10
127.40466984926955
20
112.48773210101727
30
5.0262573967985786e-14
 70
     32
  0
VERTEX
  8
MY3DLAYER
10
127.42886250361757
20
112.53043810838449
30
5.0251435306779336e-14
 70
     32
  0
VERTEX
  8
MY3DLAYER
10
127.45512150131542
20
112.57190559721087
30
5.023916816008976e-14
 70
     32
  0
VERTEX
  8
MY3DLAYER
10
127.48338358213732
20
112.61203466868372
30
5.0225802080548116e-14
 70
     32
  0
VERTEX
  8
MY3DLAYER
10
127.51358066025519
20
112.65072864835493
30
5.021136926821067e-14
 70
     32
  0
VERTEX
  8
MY3DLAYER
10
127.54563998826293
20
112.68789431903828
30
5.01959044929865e-14
 70
     32
  0
VERTEX
  8
MY3DLAYER
10
127.5794843324314
20
112.72344214537783
30
5.017944501087363e-14
 70
     32
  0
VERTEX
  8
MY3DLAYER
10
128.99369789480443
20
114.1376557077509
30
4.948909195777764e-14
 70
     32
  0
VERTEX
  8
MY3DLAYER
10
129.02924572114404
20
114.17150005191928
30
4.9471677421110174e-14
 70
     32
  0
VERTEX
  8
MY3DLAYER
10
129.06641139182742
20
114.20355937992706
30
4.945334978303237e-14
 70
     32
  0
VERTEX
  8
MY3DLAYER
10
129.10510537149858
20
114.23375645804498
30
4.943415319642962e-14
 70
     32
  0
VERTEX
  8
MY3DLAYER
10
129.14523444297134
20
114.26201853886688
30
4.9414133907560454e-14
 70
     32
  0
VERTEX
  8
MY3DLAYER
10
129.18670193179776
20
114.2882775365646
30
4.939334014464522e-14
 70
     32
  0
VERTEX
  8
MY3DLAYER
10
129.22940793916507
20
114.3124701909127
30
4.9371822001680086e-14
 70
     32
  0
VERTEX
  8
MY3DLAYER
10
129.2732495825607
20
114.33453821968779
30
4.934963131775635e-14
 70
     32
  0
VERTEX
  8
MY3DLAYER
10
129.318121243626
20
114.35442845907565
30
4.932682155217507e-14
 70
     32
  0
VERTEX
  8
MY3DLAYER
10
129.36391482259887
20
114.37209299174738
30
4.9303447655659564e-14
 70
     32
  0
VERTEX
  8
MY3DLAYER
10
129.4105199987366
20
114.38748926229655
30
4.927956593797386e-14
 70
     32
  0
VERTEX
  8
MY3DLAYER
10
129.45782449608774
20
114.40058017975889
30
4.9255233932267585e-14
 70
     32
  0
VERTEX
  8
MY3DLAYER
10
129.5057143539748
20
114.41133420696758
30
4.9230510256473774e-14
 70
     32
  0
VERTEX
  8
MY3DLAYER
10
129.55407420153566
20
114.4197254365291
30
4.9205454472092834e-14
 70
     32
  0
VERTEX
  8
MY3DLAYER
10
129.60278753566146
20
114.4257336532365
30
4.918012694070409e-14
 70
     32
  0
VERTEX
  8
MY3DLAYER
10
129.6517370016636
20
114.42934438276947
30
4.9154588678549056e-14
 70
     32
  0
VERTEX
  8
MY3DLAYER
10
129.700804675991
20
114.4305489265643
30
4.912890120953816e-14
 70
     32
  0
VERTEX
  8
MY3DLAYER
10
129.7498723503184
20
114.42934438276947
30
4.910312641703417e-14
 70
     32
  0
VERTEX
  8
MY3DLAYER
10
129.79882181632055
20
114.4257336532365
30
4.9077326394769877e-14
 70
     32
  0
VERTEX
  8
MY3DLAYER
10
129.84753515044636
20
114.4197254365291
30
4.905156329725866e-14
 70
     32
  0
VERTEX
  8
MY3DLAYER
10
129.895894998007
20
114.41133420696758
30
4.902589919005915e-14
 70
     32
  0
VERTEX
  8
MY3DLAYER
10
129.94378485589428
20
114.40058017975889
30
4.900039590025326e-14
 70
     32
  0
VERTEX
  8
MY3DLAYER
10
129.99108935324546
20
114.38748926229655
30
4.897511486750019e-14
 70
     32
  0
VERTEX
  8
MY3DLAYER
10
130.03769452938317
20
114.37209299174738
30
4.89501169960221e-14
 70
     32
  0
SEQEND
  0
POLYLINE
 8
Layer0
 66
     1
70
    8
 10
0.0
 20
 0.0
 30
0.0
  0
VERTEX
  8
MY3DLAYER
10
58.85229343426108
20
41.85498661154544
30
8.365123621292145e-14
 70
     32
  0
VERTEX
  8
MY3DLAYER
10
58.86304746146972
20
41.807096753658314
30
8.364386090234753e-14
 70
     32
  0
VERTEX
  8
MY3DLAYER
10
58.87143869103128
20
41.75873690609757
30
8.363770760893019e-14
 70
     32
  0
VERTEX
  8
MY3DLAYER
10
58.87744690773872
20
41.71002357197173
30
8.363279115649226e-14
 70
     32
  0
VERTEX
  8
MY3DLAYER
10
58.881057637271695
20
41.661074105969575
30
8.362912338919833e-14
 70
     32
  0
VERTEX
  8
MY3DLAYER
10
58.88226218106647
20
41.61200643164219
30
8.362671314302107e-14
 70
     32
  0
VERTEX
  8
MY3DLAYER
10
58.881057637271695
20
41.56293875731474
30
8.362556622445454e-14
 70
     32
  0
VERTEX
  8
MY3DLAYER
10
58.87744690773864
20
41.513989291312605
30
8.362568539652619e-14
 70
     32
  0
VERTEX
  8
MY3DLAYER
10
58.87143869103128
20
41.46527595718681
30
8.362707037213987e-14
 70
     32
  0
VERTEX
  8
MY3DLAYER
10
58.86304746146972
20
41.41691610962607
30
8.362971781476816e-14
 70
     32
  0
VERTEX
  8
MY3DLAYER
10
58.852293434260986
20
41.369026251738916
30
8.363362134648986e-14
 70
     32
  0
VERTEX
  8
MY3DLAYER
10
58.83920251679865
20
41.32172175438771
30
8.363877156335508e-14
 70
     32
  0
VERTEX
  8
MY3DLAYER
10
58.82380624624952
20
41.27511657824995
30
8.364515605804029e-14
 70
     32
  0
VERTEX
  8
MY3DLAYER
10
58.80614171357778
20
41.229322999277116
30
8.365275944973866e-14
 70
     32
  0
VERTEX
  8
MY3DLAYER
10
58.78625147418988
20
41.18445133821193
30
8.366156342121358e-14
 70
     32
  0
VERTEX
  8
MY3DLAYER
10
58.764183445414794
20
41.140609694816206
30
8.367154676292656e-14
 70
     32
  0
VERTEX
  8
MY3DLAYER
10
58.73999079106679
20
41.09790368744897
30
8.368268542413301e-14
 70
     32
  0
VERTEX
  8
MY3DLAYER
10
58.71373179336902
20
41.05643619862261
30
8.369495257082253e-14
 70
     32
  0
VERTEX
  8
MY3DLAYER
10
58.68546971254712
20
41.01630712714978
30
8.370831865036417e-14
 70
     32
  0
VERTEX
  8
MY3DLAYER
10
58.655272634429245
20
40.97761314747857
30
8.372275146270162e-14
 70
     32
  0
VERTEX
  8
MY3DLAYER
10
58.62321330642141
20
40.94044747679521
30
8.373821623792582e-14
 70
     32
  0
VERTEX
  8
MY3DLAYER
10
58.589368962253026
20
40.90489965045567
30
8.375467572003865e-14
 70
     32
  0
VERTEX
  8
MY3DLAYER
10
57.17515539987993
20
39.49068608808257
30
8.444502877313471e-14
 70
     32
  0
VERTEX
  8
MY3DLAYER
10
57.13960757354041
20
39.45684174391416
30
8.44624433098021e-14
 70
     32
  0
VERTEX
  8
MY3DLAYER
10
57.102441902857024
20
39.42478241590639
30
8.448077094787991e-14
 70
     32
  0
VERTEX
  8
MY3DLAYER
10
57.06374792318586
20
39.39458533778848
30
8.449996753448268e-14
 70
     32
  0
VERTEX
  8
MY3DLAYER
10
57.023618851713
20
39.366323256966574
30
8.451998682335187e-14
 70
     32
  0
VERTEX
  8
MY3DLAYER
10
56.98215136288658
20
39.34006425926885
30
8.454078058626712e-14
 70
     32
  0
VERTEX
  8
MY3DLAYER
10
56.93944535551936
20
39.31587160492077
30
8.45622987292322e-14
 70
     32
  0
VERTEX
  8
MY3DLAYER
10
56.895603712123645
20
39.29380357614569
30
8.458448941315599e-14
 70
     32
  0
VERTEX
  8
MY3DLAYER
10
56.85073205105845
20
39.27391333675786
30
8.460729917873722e-14
 70
     32
  0
VERTEX
  8
MY3DLAYER
10
56.804938472085574
20
39.25624880408612
30
8.463067307525272e-14
 70
     32
  0
VERTEX
  8
MY3DLAYER
10
56.75833329594786
20
39.240852533536945
30
8.465455479293844e-14
 70
     32
  0
VERTEX
  8
MY3DLAYER
10
56.71102879859661
20
39.22776161607461
30
8.467888679864473e-14
 70
     32
  0
VERTEX
  8
MY3DLAYER
10
56.66313894070952
20
39.21700758886592
30
8.470361047443857e-14
 70
     32
  0
VERTEX
  8
MY3DLAYER
10
56.614779093148776
20
39.20861635930436
30
8.472866625881943e-14
 70
     32
  0
VERTEX
  8
MY3DLAYER
10
56.56606575902297
20
39.20260814259696
30
8.475399379020819e-14
 70
     32
  0
VERTEX
  8
MY3DLAYER
10
56.51711629302083
20
39.198997413063985
30
8.47795320523632e-14
 70
     32
  0
VERTEX
  8
MY3DLAYER
10
56.46804861869342
20
39.197792869269165
30
8.480521952137413e-14
 70
     32
  0
VERTEX
  8
MY3DLAYER
10
56.41898094436602
20
39.198997413063985
30
8.48309943138781e-14
 70
     32
  0
VERTEX
  8
MY3DLAYER
10
56.37003147836379
20
39.20260814259696
30
8.485679433614247e-14
 70
     32
  0
VERTEX
  8
MY3DLAYER
10
56.32131814423807
20
39.20861635930436
30
8.48825574336536e-14
 70
     32
  0
VERTEX
  8
MY3DLAYER
10
56.27295829667723
20
39.21700758886592
30
8.490822154085323e-14
 70
     32
  0
VERTEX
  8
MY3DLAYER
10
56.225068438790146
20
39.22776161607461
30
8.493372483065902e-14
 70
     32
  0
VERTEX
  8
MY3DLAYER
10
56.1777639414389
20
39.240852533536945
30
8.495900586341216e-14
 70
     32
  0
VERTEX
  8
MY3DLAYER
10
56.13115876530118
20
39.25624880408614
30
8.498400373489022e-14
 70
     32
  0
VERTEX
  8
MY3DLAYER
10
56.0853651863283
20
39.27391333675788
30
8.50086582230314e-14
 70
     32
  0
VERTEX
  8
MY3DLAYER
10
56.040493525263116
20
39.29380357614571
30
8.503290993301422e-14
 70
     32
  0
VERTEX
  8
MY3DLAYER
10
55.99665188186739
20
39.3158716049208
30
8.505670044034516e-14
 70
     32
  0
VERTEX
  8
MY3DLAYER
10
55.95394587450018
20
39.3400642592689
30
8.507997243160824e-14
 70
     32
  0
VERTEX
  8
MY3DLAYER
10
55.91247838567384
20
39.366323256966616
30
8.51026698425381e-14
 70
     32
  0
VERTEX
  8
MY3DLAYER
10
55.87234931420099
20
39.39458533778852
30
8.512473799308384e-14
 70
     32
  0
VERTEX
  8
MY3DLAYER
10
55.83365533452974
20
39.42478241590644
30
8.514612371913777e-14
 70
     32
  0
VERTEX
  8
MY3DLAYER
10
55.79648966384644
20
39.456841743914204
30
8.516677550061263e-14
 70
     32
  0
VERTEX
  8
MY3DLAYER
10
55.76094183750683
20
39.49068608808261
30
8.518664358555811e-14
 70
     32
  0
VERTEX
  8
MY3DLAYER
10
55.72709749333844
20
39.52623391442213
30
8.520568011001717e-14
 70
     32
  0
VERTEX
  8
MY3DLAYER
10
55.6950381653307
20
39.56339958510552
30
8.522383921333506e-14
 70
     32
  0
VERTEX
  8
MY3DLAYER
10
55.66484108721283
20
39.60209356477673
30
8.524107714864132e-14
 70
     32
  0
VERTEX
  8
MY3DLAYER
10
55.636579006390924
20
39.642222636249585
30
8.525735238824001e-14
 70
     32
  0
VERTEX
  8
MY3DLAYER
10
55.61032000869316
20
39.68369012507596
30
8.527262572365331e-14
 70
     32
  0
VERTEX
  8
MY3DLAYER
10
55.58612735434506
20
39.72639613244318
30
8.528686036007846e-14
 70
     32
  0
VERTEX
  8
MY3DLAYER
10
55.56405932556998
20
39.77023777583889
30
8.530002200502946e-14
 70
     32
  0
VERTEX
  8
MY3DLAYER
10
55.544169086182166
20
39.81510943690409
30
8.531207895095083e-14
 70
     32
  0
VERTEX
  8
MY3DLAYER
10
55.52650455351043
20
39.860903015876964
30
8.532300215160378e-14
 70
     32
  0
VERTEX
  8
MY3DLAYER
10
55.51110828296121
20
39.90750819201468
30
8.533276529204122e-14
 70
     32
  0
VERTEX
  8
MY3DLAYER
10
55.49801736549887
20
39.95481268936589
30
8.534134485200261e-14
 70
     32
  0
VERTEX
  8
MY3DLAYER
10
55.48726333829023
20
40.002702547253016
30
8.534872016257653e-14
 70
     32
  0
VERTEX
  8
MY3DLAYER
10
55.478872108728666
20
40.051062394813805
30
8.535487345599387e-14
 70
     32
  0
VERTEX
  8
MY3DLAYER
10
55.47286389202122
20
40.09977572893962
30
8.535978990843182e-14
 70
     32
  0
VERTEX
  8
MY3DLAYER
10
55.46925316248825
20
40.148725194941754
30
8.536345767572576e-14
 70
     32
  0
VERTEX
  8
MY3DLAYER
10
55.46804861869347
20
40.19779286926916
30
8.5365867921903e-14
 70
     32
  0
VERTEX
  8
MY3DLAYER
10
55.46925316248825
20
40.24686054359656
30
8.536701484046952e-14
 70
     32
  0
VERTEX
  8
MY3DLAYER
10
55.47286389202122
20
40.2958100095987
30
8.536689566839794e-14
 70
     32
  0
VERTEX
  8
MY3DLAYER
10
55.478872108728666
20
40.34452334372452
30
8.536551069278419e-14
 70
     32
  0
VERTEX
  8
MY3DLAYER
10
55.48726333829023
20
40.392883191285286
30
8.536286325015591e-14
 70
     32
  0
VERTEX
  8
MY3DLAYER
10
55.49801736549896
20
40.440773049172414
30
8.53589597184342e-14
 70
     32
  0
VERTEX
  8
MY3DLAYER
10
55.51110828296121
20
40.48807754652362
30
8.535380950156903e-14
 70
     32
  0
VERTEX
  8
MY3DLAYER
10
55.52650455351043
20
40.53468272266136
30
8.534742500688378e-14
 70
     32
  0
VERTEX
  8
MY3DLAYER
10
55.544169086182166
20
40.580476301634235
30
8.533982161518543e-14
 70
     32
  0
VERTEX
  8
MY3DLAYER
10
55.56405932556998
20
40.62534796269943
30
8.533101764371055e-14
 70
     32
  0
VERTEX
  8
MY3DLAYER
10
55.58612735434515
20
40.669189606095145
30
8.53210343019975e-14
 70
     32
  0
VERTEX
  8
MY3DLAYER
10
55.61032000869316
20
40.71189561346236
30
8.530989564079107e-14
 70
     32
  0
VERTEX
  8
MY3DLAYER
10
55.636579006390924
20
40.75336310228874
30
8.529762849410156e-14
 70
     32
  0
VERTEX
  8
MY3DLAYER
10
55.66484108721283
20
40.79349217376157
30
8.528426241455989e-14
 70
     32
  0
VERTEX
  8
MY3DLAYER
10
55.6950381653307
20
40.83218615343278
30
8.526982960222247e-14
 70
     32
  0
VERTEX
  8
MY3DLAYER
10
55.72709749333853
20
40.869351824116144
30
8.525436482699824e-14
 70
     32
  0
VERTEX
  8
MY3DLAYER
10
55.76094183750692
20
40.90489965045569
30
8.523790534488541e-14
 70
     32
  0
VERTEX
  8
MY3DLAYER
10
57.17515539988002
20
42.31911321282876
30
8.454755229178938e-14
 70
     32
  0
VERTEX
  8
MY3DLAYER
10
57.210703226219536
20
42.35295755699715
30
8.453013775512197e-14
 70
     32
  0
VERTEX
  8
MY3DLAYER
10
57.24786889690292
20
42.38501688500494
30
8.451181011704415e-14
 70
     32
  0
VERTEX
  8
MY3DLAYER
10
57.28656287657409
20
42.41521396312285
30
8.44926135304414e-14
 70
     32
  0
VERTEX
  8
MY3DLAYER
10
57.32669194804694
20
42.443476043944756
30
8.447259424157221e-14
 70
     32
  0
VERTEX
  8
MY3DLAYER
10
57.36815943687336
20
42.46973504164248
30
8.445180047865697e-14
 70
     32
  0
VERTEX
  8
MY3DLAYER
10
57.410865444240585
20
42.49392769599056
30
8.443028233569187e-14
 70
     32
  0
VERTEX
  8
MY3DLAYER
10
57.4547070876363
20
42.51599572476566
30
8.440809165176809e-14
 70
     32
  0
VERTEX
  8
MY3DLAYER
10
57.499578748701495
20
42.53588596415349
30
8.438528188618684e-14
 70
     32
  0
VERTEX
  8
MY3DLAYER
10
57.54537232767437
20
42.55355049682523
30
8.436190798967137e-14
 70
     32
  0
VERTEX
  8
MY3DLAYER
10
57.59197750381209
20
42.56894676737443
30
8.433802627198565e-14
 70
     32
  0
VERTEX
  8
MY3DLAYER
10
57.639282001163245
20
42.58203768483675
30
8.431369426627939e-14
 70
     32
  0
VERTEX
  8
MY3DLAYER
10
57.68717185905042
20
42.59279171204544
30
8.428897059048552e-14
 70
     32
  0
VERTEX
  8
MY3DLAYER
10
57.73553170661117
20
42.60118294160697
30
8.426391480610464e-14
 70
     32
  0
VERTEX
  8
MY3DLAYER
10
57.78424504073698
20
42.60719115831437
30
8.423858727471589e-14
 70
     32
  0
VERTEX
  8
MY3DLAYER
10
57.83319450673912
20
42.610801887847344
30
8.421304901256085e-14
 70
     32
  0
VERTEX
  8
MY3DLAYER
10
57.88226218106652
20
42.612006431642165
30
8.418736154354996e-14
 70
     32
  0
VERTEX
  8
MY3DLAYER
10
57.931329855393926
20
42.610801887847344
30
8.416158675104596e-14
 70
     32
  0
VERTEX
  8
MY3DLAYER
10
57.98027932139607
20
42.60719115831437
30
8.413578672878166e-14
 70
     32
  0
VERTEX
  8
MY3DLAYER
10
58.028992655521876
20
42.60118294160697
30
8.411002363127046e-14
 70
     32
  0
VERTEX
  8
MY3DLAYER
10
58.07735250308262
20
42.59279171204544
30
8.408435952407089e-14
 70
     32
  0
VERTEX
  8
MY3DLAYER
10
58.1252423609698
20
42.58203768483675
30
8.405885623426506e-14
 70
     32
  0
VERTEX
  8
MY3DLAYER
10
58.172546858320956
20
42.568946767374406
30
8.403357520151198e-14
 70
     32
  0
VERTEX
  8
MY3DLAYER
10
58.219152034458766
20
42.55355049682523
30
8.400857733003385e-14
 70
     32
  0
VERTEX
  8
MY3DLAYER
10
58.26494561343164
20
42.53588596415349
30
8.398392284189267e-14
 70
     32
  0
VERTEX
  8
MY3DLAYER
10
58.30981727449683
20
42.51599572476564
30
8.395967113190984e-14
 70
     32
  0
VERTEX
  8
MY3DLAYER
10
58.35365891789255
20
42.493927695990536
30
8.393588062457891e-14
 70
     32
  0
VERTEX
  8
MY3DLAYER
10
58.39636492525977
20
42.46973504164246
30
8.391260863331583e-14
 70
     32
  0
VERTEX
  8
MY3DLAYER
10
58.4378324140861
20
42.443476043944734
30
8.388991122238597e-14
 70
     32
  0
VERTEX
  8
MY3DLAYER
10
58.47796148555896
20
42.41521396312283
30
8.386784307184025e-14
 70
     32
  0
VERTEX
  8
MY3DLAYER
10
58.51665546523012
20
42.38501688500494
30
8.384645734578635e-14
 70
     32
  0
VERTEX
  8
MY3DLAYER
10
58.55382113591351
20
42.35295755699715
30
8.382580556431146e-14
 70
     32
  0
VERTEX
  8
MY3DLAYER
10
58.589368962253026
20
42.31911321282872
30
8.380593747936601e-14
 70
     32
  0
VERTEX
  8
MY3DLAYER
10
58.623213306421505
20
42.2835653864892
30
8.37869009549069e-14
 70
     32
  0
VERTEX
  8
MY3DLAYER
10
58.655272634429245
20
42.246399715805815
30
8.376874185158902e-14
 70
     32
  0
VERTEX
  8
MY3DLAYER
10
58.68546971254712
20
42.2077057361346
30
8.375150391628274e-14
 70
     32
  0
VERTEX
  8
MY3DLAYER
10
58.71373179336902
20
42.167576664661794
30
8.373522867668408e-14
 70
     32
  0
VERTEX
  8
MY3DLAYER
10
58.73999079106679
20
42.12610917583537
30
8.371995534127075e-14
 70
     32
  0
VERTEX
  8
MY3DLAYER
10
58.764183445414886
20
42.0834031684682
30
8.370572070484562e-14
 70
     32
  0
VERTEX
  8
MY3DLAYER
10
58.78625147418997
20
42.039561525072436
30
8.369255905989462e-14
 70
     32
  0
VERTEX
  8
MY3DLAYER
10
58.80614171357778
20
41.99468986400726
30
8.368050211397326e-14
 70
     32
  0
VERTEX
  8
MY3DLAYER
10
58.82380624624952
20
41.948896285034415
30
8.366957891332028e-14
 70
     32
  0
VERTEX
  8
MY3DLAYER
10
58.839202516798736
20
41.90229110889665
30
8.365981577288287e-14
 70
     32
  0
VERTEX
  8
MY3DLAYER
10
58.85229343426108
20
41.85498661154544
30
8.365123621292145e-14
 70
     32
  0
SEQEND
  0
POLYLINE
 8
Layer0
 66
     1
70
    8
 10
0.0
 20
 0.0
 30
0.0
  0
VERTEX
  8
MY3DLAYER
10
31.713110177110124
20
47.30311070378904
30
9.808052841426089e-14
 70
     32
  0
VERTEX
  8
MY3DLAYER
10
31.726201094572463
20
47.25580620643785
30
9.80719488542995e-14
 70
     32
  0
VERTEX
  8
MY3DLAYER
10
31.736955121781108
20
47.207916348550704
30
9.806457354372555e-14
 70
     32
  0
VERTEX
  8
MY3DLAYER
10
31.74534635134267
20
47.15955650098996
30
9.805842025030821e-14
 70
     32
  0
VERTEX
  8
MY3DLAYER
10
31.75135456805011
20
47.11084316686414
30
9.805350379787028e-14
 70
     32
  0
VERTEX
  8
MY3DLAYER
10
31.754965297583084
20
47.06189370086201
30
9.804983603057635e-14
 70
     32
  0
VERTEX
  8
MY3DLAYER
10
31.75616984137786
20
47.012826026534604
30
9.804742578439908e-14
 70
     32
  0
VERTEX
  8
MY3DLAYER
10
31.754965297583084
20
46.96375835220717
30
9.804627886583257e-14
 70
     32
  0
VERTEX
  8
MY3DLAYER
10
31.751354568050022
20
46.91480888620504
30
9.804639803790421e-14
 70
     32
  0
VERTEX
  8
MY3DLAYER
10
31.74534635134267
20
46.866095552079244
30
9.804778301351789e-14
 70
     32
  0
VERTEX
  8
MY3DLAYER
10
31.736955121781108
20
46.81773570451848
30
9.805043045614618e-14
 70
     32
  0
VERTEX
  8
MY3DLAYER
10
31.72620109457237
20
46.76984584663135
30
9.805433398786789e-14
 70
     32
  0
VERTEX
  8
MY3DLAYER
10
31.713110177110035
20
46.72254134928014
30
9.805948420473311e-14
 70
     32
  0
VERTEX
  8
MY3DLAYER
10
31.697713906560903
20
46.67593617314238
30
9.806586869941831e-14
 70
     32
  0
VERTEX
  8
MY3DLAYER
10
31.680049373889165
20
46.63014259416955
30
9.807347209111668e-14
 70
     32
  0
VERTEX
  8
MY3DLAYER
10
31.660159134501264
20
46.58527093310436
30
9.80822760625916e-14
 70
     32
  0
VERTEX
  8
MY3DLAYER
10
31.63809110572618
20
46.54142928970862
30
9.809225940430459e-14
 70
     32
  0
VERTEX
  8
MY3DLAYER
10
31.613898451378173
20
46.49872328234137
30
9.810339806551104e-14
 70
     32
  0
VERTEX
  8
MY3DLAYER
10
31.587639453680403
20
46.45725579351502
30
9.811566521220055e-14
 70
     32
  0
VERTEX
  8
MY3DLAYER
10
31.559377372858503
20
46.417126722042184
30
9.812903129174219e-14
 70
     32
  0
VERTEX
  8
MY3DLAYER
10
31.52918029474063
20
46.378432742370975
30
9.814346410407964e-14
 70
     32
  0
VERTEX
  8
MY3DLAYER
10
31.497120966732798
20
46.34126707168763
30
9.815892887930384e-14
 70
     32
  0
VERTEX
  8
MY3DLAYER
10
31.46327662256441
20
46.30571924534807
30
9.817538836141668e-14
 70
     32
  0
VERTEX
  8
MY3DLAYER
10
30.049063060191312
20
44.891505682975
30
9.886574141451271e-14
 70
     32
  0
VERTEX
  8
MY3DLAYER
10
30.013515233851795
20
44.85766133880662
30
9.888315595118013e-14
 70
     32
  0
VERTEX
  8
MY3DLAYER
10
29.976349563168405
20
44.82560201079883
30
9.890148358925795e-14
 70
     32
  0
VERTEX
  8
MY3DLAYER
10
29.937655583497243
20
44.79540493268091
30
9.892068017586069e-14
 70
     32
  0
VERTEX
  8
MY3DLAYER
10
29.89752651202439
20
44.76714285185902
30
9.89406994647299e-14
 70
     32
  0
VERTEX
  8
MY3DLAYER
10
29.856059023197965
20
44.74088385416128
30
9.896149322764514e-14
 70
     32
  0
VERTEX
  8
MY3DLAYER
10
29.81335301583075
20
44.716691199813226
30
9.898301137061023e-14
 70
     32
  0
VERTEX
  8
MY3DLAYER
10
29.76951137243503
20
44.69462317103813
30
9.900520205453401e-14
 70
     32
  0
VERTEX
  8
MY3DLAYER
10
29.72463971136984
20
44.674732931650276
30
9.902801182011524e-14
 70
     32
  0
VERTEX
  8
MY3DLAYER
10
29.678846132396963
20
44.65706839897854
30
9.905138571663073e-14
 70
     32
  0
VERTEX
  8
MY3DLAYER
10
29.632240956259245
20
44.64167212842936
30
9.907526743431644e-14
 70
     32
  0
VERTEX
  8
MY3DLAYER
10
29.584936458907993
20
44.62858121096702
30
9.909959944002276e-14
 70
     32
  0
VERTEX
  8
MY3DLAYER
10
29.537046601020908
20
44.61782718375833
30
9.912432311581657e-14
 70
     32
  0
VERTEX
  8
MY3DLAYER
10
29.488686753460165
20
44.60943595419679
30
9.914937890019747e-14
 70
     32
  0
VERTEX
  8
MY3DLAYER
10
29.43997341933435
20
44.603427737489376
30
9.91747064315862e-14
 70
     32
  0
VERTEX
  8
MY3DLAYER
10
29.391023953332212
20
44.5998170079564
30
9.920024469374125e-14
 70
     32
  0
VERTEX
  8
MY3DLAYER
10
29.34195627900481
20
44.598612464161576
30
9.922593216275215e-14
 70
     32
  0
VERTEX
  8
MY3DLAYER
10
29.292888604677405
20
44.5998170079564
30
9.925170695525612e-14
 70
     32
  0
VERTEX
  8
MY3DLAYER
10
29.243939138675177
20
44.603427737489376
30
9.927750697752049e-14
 70
     32
  0
VERTEX
  8
MY3DLAYER
10
29.19522580454945
20
44.60943595419679
30
9.930327007503162e-14
 70
     32
  0
VERTEX
  8
MY3DLAYER
10
29.14686595698862
20
44.61782718375836
30
9.932893418223126e-14
 70
     32
  0
VERTEX
  8
MY3DLAYER
10
29.098976099101534
20
44.62858121096704
30
9.935443747203704e-14
 70
     32
  0
VERTEX
  8
MY3DLAYER
10
29.051671601750282
20
44.64167212842936
30
9.937971850479016e-14
 70
     32
  0
VERTEX
  8
MY3DLAYER
10
29.005066425612565
20
44.65706839897858
30
9.940471637626824e-14
 70
     32
  0
VERTEX
  8
MY3DLAYER
10
28.95927284663969
20
44.67473293165032
30
9.942937086440942e-14
 70
     32
  0
VERTEX
  8
MY3DLAYER
10
28.914401185574498
20
44.69462317103813
30
9.945362257439224e-14
 70
     32
  0
VERTEX
  8
MY3DLAYER
10
28.87055954217878
20
44.71669119981325
30
9.947741308172319e-14
 70
     32
  0
VERTEX
  8
MY3DLAYER
10
28.827853534811563
20
44.740883854161325
30
9.950068507298626e-14
 70
     32
  0
VERTEX
  8
MY3DLAYER
10
28.78638604598523
20
44.76714285185905
30
9.952338248391612e-14
 70
     32
  0
VERTEX
  8
MY3DLAYER
10
28.746256974512377
20
44.79540493268096
30
9.954545063446186e-14
 70
     32
  0
VERTEX
  8
MY3DLAYER
10
28.707562994841123
20
44.825602010798875
30
9.95668363605158e-14
 70
     32
  0
VERTEX
  8
MY3DLAYER
10
28.670397324157825
20
44.857661338806665
30
9.958748814199065e-14
 70
     32
  0
VERTEX
  8
MY3DLAYER
10
28.634849497818216
20
44.89150568297505
30
9.960735622693611e-14
 70
     32
  0
VERTEX
  8
MY3DLAYER
10
28.60100515364983
20
44.92705350931459
30
9.962639275139518e-14
 70
     32
  0
VERTEX
  8
MY3DLAYER
10
28.568945825642086
20
44.964219179997954
30
9.964455185471308e-14
 70
     32
  0
VERTEX
  8
MY3DLAYER
10
28.538748747524213
20
45.002913159669184
30
9.966178979001935e-14
 70
     32
  0
VERTEX
  8
MY3DLAYER
10
28.510486666702313
20
45.04304223114202
30
9.9678065029618e-14
 70
     32
  0
VERTEX
  8
MY3DLAYER
10
28.484227669004547
20
45.08450971996839
30
9.969333836503133e-14
 70
     32
  0
VERTEX
  8
MY3DLAYER
10
28.460035014656444
20
45.127215727335596
30
9.970757300145646e-14
 70
     32
  0
VERTEX
  8
MY3DLAYER
10
28.43796698588136
20
45.17105737073132
30
9.972073464640749e-14
 70
     32
  0
VERTEX
  8
MY3DLAYER
10
28.418076746493554
20
45.215929031796506
30
9.973279159232885e-14
 70
     32
  0
VERTEX
  8
MY3DLAYER
10
28.400412213821816
20
45.26172261076938
30
9.97437147929818e-14
 70
     32
  0
VERTEX
  8
MY3DLAYER
10
28.38501594327259
20
45.30832778690712
30
9.975347793341924e-14
 70
     32
  0
VERTEX
  8
MY3DLAYER
10
28.371925025810256
20
45.35563228425831
30
9.976205749338063e-14
 70
     32
  0
VERTEX
  8
MY3DLAYER
10
28.361170998601608
20
45.40352214214544
30
9.976943280395456e-14
 70
     32
  0
VERTEX
  8
MY3DLAYER
10
28.352779769040048
20
45.45188198970621
30
9.97755860973719e-14
 70
     32
  0
VERTEX
  8
MY3DLAYER
10
28.346771552332605
20
45.500595323832016
30
9.978050254980983e-14
 70
     32
  0
VERTEX
  8
MY3DLAYER
10
28.343160822799632
20
45.549544789834165
30
9.978417031710376e-14
 70
     32
  0
VERTEX
  8
MY3DLAYER
10
28.341956279004854
20
45.59861246416157
30
9.978658056328102e-14
 70
     32
  0
VERTEX
  8
MY3DLAYER
10
28.343160822799632
20
45.647680138488994
30
9.978772748184755e-14
 70
     32
  0
VERTEX
  8
MY3DLAYER
10
28.346771552332605
20
45.69662960449111
30
9.978760830977596e-14
 70
     32
  0
VERTEX
  8
MY3DLAYER
10
28.352779769040048
20
45.74534293861692
30
9.978622333416221e-14
 70
     32
  0
VERTEX
  8
MY3DLAYER
10
28.361170998601608
20
45.79370278617769
30
9.978357589153393e-14
 70
     32
  0
VERTEX
  8
MY3DLAYER
10
28.371925025810345
20
45.84159264406481
30
9.977967235981225e-14
 70
     32
  0
VERTEX
  8
MY3DLAYER
10
28.38501594327259
20
45.88889714141602
30
9.977452214294706e-14
 70
     32
  0
VERTEX
  8
MY3DLAYER
10
28.400412213821816
20
45.935502317553755
30
9.97681376482618e-14
 70
     32
  0
VERTEX
  8
MY3DLAYER
10
28.418076746493554
20
45.98129589652664
30
9.976053425656343e-14
 70
     32
  0
VERTEX
  8
MY3DLAYER
10
28.43796698588136
20
46.026167557591826
30
9.975173028508857e-14
 70
     32
  0
VERTEX
  8
MY3DLAYER
10
28.460035014656537
20
46.07000920098757
30
9.974174694337553e-14
 70
     32
  0
VERTEX
  8
MY3DLAYER
10
28.484227669004547
20
46.112715208354764
30
9.97306082821691e-14
 70
     32
  0
VERTEX
  8
MY3DLAYER
10
28.510486666702313
20
46.15418269718114
30
9.971834113547958e-14
 70
     32
  0
VERTEX
  8
MY3DLAYER
10
28.538748747524213
20
46.194311768653996
30
9.970497505593793e-14
 70
     32
  0
VERTEX
  8
MY3DLAYER
10
28.568945825642086
20
46.233005748325205
30
9.969054224360049e-14
 70
     32
  0
VERTEX
  8
MY3DLAYER
10
28.60100515364992
20
46.27017141900855
30
9.967507746837626e-14
 70
     32
  0
VERTEX
  8
MY3DLAYER
10
28.634849497818305
20
46.305719245348115
30
9.965861798626344e-14
 70
     32
  0
VERTEX
  8
MY3DLAYER
10
30.049063060191404
20
47.71993280772113
30
9.89682649331674e-14
 70
     32
  0
VERTEX
  8
MY3DLAYER
10
30.08461088653092
20
47.75377715188954
30
9.89508503965e-14
 70
     32
  0
VERTEX
  8
MY3DLAYER
10
30.12177655721431
20
47.78583647989733
30
9.893252275842217e-14
 70
     32
  0
VERTEX
  8
MY3DLAYER
10
30.160470536885473
20
47.81603355801522
30
9.891332617181942e-14
 70
     32
  0
VERTEX
  8
MY3DLAYER
10
30.200599608358328
20
47.844295638837124
30
9.889330688295022e-14
 70
     32
  0
VERTEX
  8
MY3DLAYER
10
30.24206709718475
20
47.87055463653484
30
9.887251312003499e-14
 70
     32
  0
VERTEX
  8
MY3DLAYER
10
30.284773104551967
20
47.89474729088292
30
9.885099497706989e-14
 70
     32
  0
VERTEX
  8
MY3DLAYER
10
30.32861474794769
20
47.91681531965803
30
9.88288042931461e-14
 70
     32
  0
VERTEX
  8
MY3DLAYER
10
30.37348640901288
20
47.936705559045855
30
9.880599452756488e-14
 70
     32
  0
VERTEX
  8
MY3DLAYER
10
30.419279987985753
20
47.95437009171759
30
9.878262063104939e-14
 70
     32
  0
VERTEX
  8
MY3DLAYER
10
30.46588516412347
20
47.969766362266796
30
9.875873891336367e-14
 70
     32
  0
VERTEX
  8
MY3DLAYER
10
30.513189661474634
20
47.98285727972911
30
9.873440690765741e-14
 70
     32
  0
VERTEX
  8
MY3DLAYER
10
30.561079519361808
20
47.9936113069378
30
9.870968323186354e-14
 70
     32
  0
VERTEX
  8
MY3DLAYER
10
30.60943936692255
20
48.00200253649934
30
9.868462744748266e-14
 70
     32
  0
VERTEX
  8
MY3DLAYER
10
30.658152701048365
20
48.00801075320676
30
9.865929991609391e-14
 70
     32
  0
VERTEX
  8
MY3DLAYER
10
30.707102167050504
20
48.011621482739734
30
9.863376165393888e-14
 70
     32
  0
VERTEX
  8
MY3DLAYER
10
30.756169841377908
20
48.012826026534555
30
9.860807418492797e-14
 70
     32
  0
VERTEX
  8
MY3DLAYER
10
30.80523751570531
20
48.011621482739734
30
9.8582299392424e-14
 70
     32
  0
VERTEX
  8
MY3DLAYER
10
30.85418698170745
20
48.00801075320676
30
9.855649937015968e-14
 70
     32
  0
VERTEX
  8
MY3DLAYER
10
30.902900315833264
20
48.00200253649934
30
9.853073627264848e-14
 70
     32
  0
VERTEX
  8
MY3DLAYER
10
30.951260163394007
20
47.9936113069378
30
9.850507216544891e-14
 70
     32
  0
VERTEX
  8
MY3DLAYER
10
30.99915002128118
20
47.98285727972911
30
9.847956887564307e-14
 70
     32
  0
VERTEX
  8
MY3DLAYER
10
31.046454518632345
20
47.969766362266775
30
9.845428784288999e-14
 70
     32
  0
VERTEX
  8
MY3DLAYER
10
31.09305969477015
20
47.95437009171759
30
9.842928997141186e-14
 70
     32
  0
VERTEX
  8
MY3DLAYER
10
31.138853273743027
20
47.936705559045855
30
9.840463548327069e-14
 70
     32
  0
VERTEX
  8
MY3DLAYER
10
31.183724934808218
20
47.916815319658006
30
9.838038377328786e-14
 70
     32
  0
VERTEX
  8
MY3DLAYER
10
31.227566578203938
20
47.8947472908829
30
9.835659326595693e-14
 70
     32
  0
VERTEX
  8
MY3DLAYER
10
31.270272585571153
20
47.87055463653482
30
9.833332127469385e-14
 70
     32
  0
VERTEX
  8
MY3DLAYER
10
31.311740074397488
20
47.844295638837096
30
9.831062386376399e-14
 70
     32
  0
VERTEX
  8
MY3DLAYER
10
31.351869145870342
20
47.8160335580152
30
9.828855571321827e-14
 70
     32
  0
VERTEX
  8
MY3DLAYER
10
31.390563125541505
20
47.7858364798973
30
9.826716998716437e-14
 70
     32
  0
VERTEX
  8
MY3DLAYER
10
31.427728796224894
20
47.753777151889516
30
9.824651820568947e-14
 70
     32
  0
VERTEX
  8
MY3DLAYER
10
31.46327662256441
20
47.71993280772111
30
9.822665012074403e-14
 70
     32
  0
VERTEX
  8
MY3DLAYER
10
31.497120966732886
20
47.68438498138156
30
9.820761359628493e-14
 70
     32
  0
VERTEX
  8
MY3DLAYER
10
31.52918029474063
20
47.6472193106982
30
9.818945449296705e-14
 70
     32
  0
VERTEX
  8
MY3DLAYER
10
31.559377372858503
20
47.60852533102697
30
9.817221655766076e-14
 70
     32
  0
VERTEX
  8
MY3DLAYER
10
31.587639453680403
20
47.568396259554156
30
9.81559413180621e-14
 70
     32
  0
VERTEX
  8
MY3DLAYER
10
31.613898451378173
20
47.52692877072776
30
9.814066798264878e-14
 70
     32
  0
VERTEX
  8
MY3DLAYER
10
31.63809110572627
20
47.48422276336056
30
9.812643334622365e-14
 70
     32
  0
VERTEX
  8
MY3DLAYER
10
31.660159134501356
20
47.44038111996485
30
9.811327170127264e-14
 70
     32
  0
VERTEX
  8
MY3DLAYER
10
31.680049373889165
20
47.39550945889965
30
9.810121475535128e-14
 70
     32
  0
VERTEX
  8
MY3DLAYER
10
31.697713906560903
20
47.3497158799268
30
9.809029155469832e-14
 70
     32
  0
VERTEX
  8
MY3DLAYER
10
31.713110177110124
20
47.30311070378904
30
9.808052841426089e-14
 70
     32
  0
SEQEND
  0
POLYLINE
 8
Layer0
 66
     1
70
    8
 10
0.0
 20
 0.0
 30
0.0
  0
VERTEX
  8
MY3DLAYER
10
45.86087845785881
20
130.74516364698067
30
9.368599547430422e-14
 70
     32
  0
VERTEX
  8
MY3DLAYER
10
45.905750118924004
20
130.725273407593
30
9.366174376432141e-14
 70
     32
  0
VERTEX
  8
MY3DLAYER
10
45.949591762319635
20
130.70320537881804
30
9.363795325699051e-14
 70
     32
  0
VERTEX
  8
MY3DLAYER
10
45.99229776968703
20
130.67901272447003
30
9.361468126572736e-14
 70
     32
  0
VERTEX
  8
MY3DLAYER
10
46.03376525851327
20
130.6527537267718
30
9.359198385479752e-14
 70
     32
  0
VERTEX
  8
MY3DLAYER
10
46.073894329985855
20
130.62449164594997
30
9.356991570425195e-14
 70
     32
  0
VERTEX
  8
MY3DLAYER
10
46.11258830965702
20
130.59429456783235
30
9.354852997819806e-14
 70
     32
  0
VERTEX
  8
MY3DLAYER
10
46.149753980340584
20
130.56223523982453
30
9.352787819672305e-14
 70
     32
  0
VERTEX
  8
MY3DLAYER
10
46.18530180667984
20
130.52839089565592
30
9.350801011177777e-14
 70
     32
  0
VERTEX
  8
MY3DLAYER
10
47.599515369052845
20
129.1141773332829
30
9.271513354002705e-14
 70
     32
  0
VERTEX
  8
MY3DLAYER
10
47.6333597132215
20
129.07862950694357
30
9.269609701556784e-14
 70
     32
  0
VERTEX
  8
MY3DLAYER
10
47.66541904122924
20
129.04146383626008
30
9.267793791224995e-14
 70
     32
  0
VERTEX
  8
MY3DLAYER
10
47.695616119347115
20
129.0027698565889
30
9.266069997694368e-14
 70
     32
  0
VERTEX
  8
MY3DLAYER
10
47.72387820016902
20
128.96264078511598
30
9.2644424737345e-14
 70
     32
  0
VERTEX
  8
MY3DLAYER
10
47.75013719786669
20
128.9211732962895
30
9.262915140193174e-14
 70
     32
  0
VERTEX
  8
MY3DLAYER
10
47.77432985221479
20
128.87846728892248
30
9.261491676550662e-14
 70
     32
  0
VERTEX
  8
MY3DLAYER
10
47.79639788098988
20
128.8346256455267
30
9.26017551205556e-14
 70
     32
  0
VERTEX
  8
MY3DLAYER
10
47.81628812037778
20
128.78975398446153
30
9.258969817463418e-14
 70
     32
  0
VERTEX
  8
MY3DLAYER
10
47.83395265304969
20
128.7439604054885
30
9.257877497398112e-14
 70
     32
  0
VERTEX
  8
MY3DLAYER
10
47.849348923598825
20
128.69735522935088
30
9.256901183354375e-14
 70
     32
  0
VERTEX
  8
MY3DLAYER
10
47.8624398410609
20
128.65005073199964
30
9.256043227358249e-14
 70
     32
  0
VERTEX
  8
MY3DLAYER
10
47.87319386826963
20
128.60216087411249
30
9.255305696300851e-14
 70
     32
  0
VERTEX
  8
MY3DLAYER
10
47.88158509783146
20
128.55380102655175
30
9.254690366959103e-14
 70
     32
  0
VERTEX
  8
MY3DLAYER
10
47.88759331453854
20
128.50508769242586
30
9.254198721715329e-14
 70
     32
  0
VERTEX
  8
MY3DLAYER
10
47.891204044071785
20
128.45613822642397
30
9.253831944985921e-14
 70
     32
  0
VERTEX
  8
MY3DLAYER
10
47.89240858786629
20
128.40707055209603
30
9.253590920368208e-14
 70
     32
  0
VERTEX
  8
MY3DLAYER
10
47.8912040440717
20
128.35800287776917
30
9.253476228511548e-14
 70
     32
  0
VERTEX
  8
MY3DLAYER
10
47.887593314538634
20
128.30905341176694
30
9.253488145718711e-14
 70
     32
  0
VERTEX
  8
MY3DLAYER
10
47.881585097831284
20
128.26034007764105
30
9.25362664328008e-14
 70
     32
  0
VERTEX
  8
MY3DLAYER
10
47.87319386827008
20
128.21198023008012
30
9.25389138754289e-14
 70
     32
  0
VERTEX
  8
MY3DLAYER
10
47.862439841060805
20
128.16409037219307
30
9.254281740715089e-14
 70
     32
  0
VERTEX
  8
MY3DLAYER
10
47.849348923599095
20
128.11678587484187
30
9.254796762401577e-14
 70
     32
  0
VERTEX
  8
MY3DLAYER
10
47.83395265304969
20
128.07018069870415
30
9.255435211870113e-14
 70
     32
  0
VERTEX
  8
MY3DLAYER
10
47.8162881203776
20
128.0243871197311
30
9.256195551039968e-14
 70
     32
  0
VERTEX
  8
MY3DLAYER
10
47.79639788099006
20
127.97951545866636
30
9.257075948187442e-14
 70
     32
  0
VERTEX
  8
MY3DLAYER
10
47.77432985221479
20
127.93567381527019
30
9.258074282358748e-14
 70
     32
  0
VERTEX
  8
MY3DLAYER
10
47.750137197866515
20
127.89296780790298
30
9.259188148479407e-14
 70
     32
  0
VERTEX
  8
MY3DLAYER
10
47.72387820016902
20
127.85150031907682
30
9.260414863148345e-14
 70
     32
  0
VERTEX
  8
MY3DLAYER
10
47.69561611934721
20
127.81137124760397
30
9.261751471102505e-14
 70
     32
  0
VERTEX
  8
MY3DLAYER
10
47.66541904122897
20
127.77267726793289
30
9.263194752336268e-14
 70
     32
  0
VERTEX
  8
MY3DLAYER
10
47.6333597132215
20
127.73551159724941
30
9.26474122985867e-14
 70
     32
  0
VERTEX
  8
MY3DLAYER
10
47.59951536905294
20
127.69996377090972
30
9.266387178069964e-14
 70
     32
  0
VERTEX
  8
MY3DLAYER
10
47.563967542713506
20
127.66611942674133
30
9.2681286317367e-14
 70
     32
  0
VERTEX
  8
MY3DLAYER
10
47.5268018720303
20
127.63406009873368
30
9.269961395544472e-14
 70
     32
  0
VERTEX
  8
MY3DLAYER
10
47.488107892359224
20
127.60386302061562
30
9.271881054204741e-14
 70
     32
  0
VERTEX
  8
MY3DLAYER
10
47.44797882088619
20
127.5756009397939
30
9.273882983091672e-14
 70
     32
  0
VERTEX
  8
MY3DLAYER
10
47.40651133205941
20
127.54934194209622
30
9.275962359383215e-14
 70
     32
  0
VERTEX
  8
MY3DLAYER
10
47.36380532469264
20
127.52514928774785
30
9.278114173679698e-14
 70
     32
  0
VERTEX
  8
MY3DLAYER
10
47.31996368129665
20
127.50308125897304
30
9.280333242072094e-14
 70
     32
  0
VERTEX
  8
MY3DLAYER
10
47.27509202023137
20
127.48319101958505
30
9.282614218630221e-14
 70
     32
  0
VERTEX
  8
MY3DLAYER
10
47.22929844125876
20
127.46552648691332
30
9.284951608281755e-14
 70
     32
  0
VERTEX
  8
MY3DLAYER
10
47.18269326512114
20
127.450130216364
30
9.28733978005032e-14
 70
     32
  0
VERTEX
  8
MY3DLAYER
10
47.13538876777007
20
127.43703929890175
30
9.289772980620942e-14
 70
     32
  0
VERTEX
  8
MY3DLAYER
10
47.08749890988289
20
127.4262852716932
30
9.292245348200332e-14
 70
     32
  0
VERTEX
  8
MY3DLAYER
10
47.039139062322235
20
127.41789404213155
30
9.294750926638414e-14
 70
     32
  0
VERTEX
  8
MY3DLAYER
10
46.99042572819588
20
127.41188582542411
30
9.297283679777317e-14
 70
     32
  0
VERTEX
  8
MY3DLAYER
10
46.94147626219392
20
127.40827509589096
30
9.29983750599281e-14
 70
     32
  0
VERTEX
  8
MY3DLAYER
10
46.89240858786679
20
127.40707055209644
30
9.302406252893888e-14
 70
     32
  0
VERTEX
  8
MY3DLAYER
10
46.843340913539386
20
127.40827509589123
30
9.304983732144285e-14
 70
     32
  0
VERTEX
  8
MY3DLAYER
10
46.79439144753716
20
127.41188582542419
30
9.307563734370722e-14
 70
     32
  0
VERTEX
  8
MY3DLAYER
10
46.745678113411344
20
127.41789404213137
30
9.310140044121839e-14
 70
     32
  0
VERTEX
  8
MY3DLAYER
10
46.69731826585042
20
127.4262852716932
30
9.312706454841806e-14
 70
     32
  0
VERTEX
  8
MY3DLAYER
10
46.649428407963065
20
127.43703929890167
30
9.315256783822401e-14
 70
     32
  0
VERTEX
  8
MY3DLAYER
10
46.60212391061217
20
127.45013021636409
30
9.317784887097693e-14
 70
     32
  0
VERTEX
  8
MY3DLAYER
10
46.55551873447437
20
127.46552648691332
30
9.320284674245507e-14
 70
     32
  0
VERTEX
  8
MY3DLAYER
10
46.50972515550149
20
127.48319101958515
30
9.322750123059625e-14
 70
     32
  0
VERTEX
  8
MY3DLAYER
10
46.46485349443648
20
127.50308125897277
30
9.325175294057897e-14
 70
     32
  0
VERTEX
  8
MY3DLAYER
10
46.42101185104076
20
127.52514928774804
30
9.32755434479099e-14
 70
     32
  0
VERTEX
  8
MY3DLAYER
10
46.3783058436731
20
127.54934194209632
30
9.329881543917324e-14
 70
     32
  0
VERTEX
  8
MY3DLAYER
10
46.33683835484721
20
127.575600939794
30
9.332151285010287e-14
 70
     32
  0
VERTEX
  8
MY3DLAYER
10
46.29670928337427
20
127.6038630206158
30
9.334358100064862e-14
 70
     32
  0
VERTEX
  8
MY3DLAYER
10
46.258015303702926
20
127.6340600987335
30
9.33649667267026e-14
 70
     32
  0
VERTEX
  8
MY3DLAYER
10
46.2208496330198
20
127.66611942674152
30
9.338561850817738e-14
 70
     32
  0
VERTEX
  8
MY3DLAYER
10
46.18530180668011
20
127.6999637709098
30
9.34054865931229e-14
 70
     32
  0
VERTEX
  8
MY3DLAYER
10
44.77108824430692
20
129.1141773332829
30
9.41983631648737e-14
 70
     32
  0
VERTEX
  8
MY3DLAYER
10
44.737243900138715
20
129.14972515962242
30
9.42173996893327e-14
 70
     32
  0
VERTEX
  8
MY3DLAYER
10
44.70518457213079
20
129.1868908303057
30
9.423555879265066e-14
 70
     32
  0
VERTEX
  8
MY3DLAYER
10
44.674987494013095
20
129.22558480997697
30
9.425279672795683e-14
 70
     32
  0
VERTEX
  8
MY3DLAYER
10
44.646725413191284
20
129.26571388145007
30
9.426907196755548e-14
 70
     32
  0
VERTEX
  8
MY3DLAYER
10
44.62046641549325
20
129.30718137027634
30
9.428434530296892e-14
 70
     32
  0
VERTEX
  8
MY3DLAYER
10
44.59627376114515
20
129.3498873776435
30
9.429857993939405e-14
 70
     32
  0
VERTEX
  8
MY3DLAYER
10
44.57420573237007
20
129.39372902103938
30
9.431174158434508e-14
 70
     32
  0
VERTEX
  8
MY3DLAYER
10
44.55431549298235
20
129.43860068210446
30
9.432379853026637e-14
 70
     32
  0
VERTEX
  8
MY3DLAYER
10
44.536650960310425
20
129.48439426107734
30
9.433472173091945e-14
 70
     32
  0
VERTEX
  8
MY3DLAYER
10
44.521254689761385
20
129.53099943721503
30
9.434448487135678e-14
 70
     32
  0
VERTEX
  8
MY3DLAYER
10
44.50816377229914
20
129.57830393456595
30
9.435306443131812e-14
 70
     32
  0
VERTEX
  8
MY3DLAYER
10
44.49740974509022
20
129.6261937924536
30
9.436043974189221e-14
 70
     32
  0
VERTEX
  8
MY3DLAYER
10
44.48901851552866
20
129.67455364001415
30
9.436659303530953e-14
 70
     32
  0
VERTEX
  8
MY3DLAYER
10
44.4830102988214
20
129.72326697414022
30
9.437150948774738e-14
 70
     32
  0
VERTEX
  8
MY3DLAYER
10
44.47939956928852
20
129.77221644014213
30
9.437517725504127e-14
 70
     32
  0
VERTEX
  8
MY3DLAYER
10
44.47819502549338
20
129.8212841144695
30
9.437758750121873e-14
 70
     32
  0
VERTEX
  8
MY3DLAYER
10
44.47939956928825
20
129.87035178879694
30
9.43787344197852e-14
 70
     32
  0
VERTEX
  8
MY3DLAYER
10
44.483010298821306
20
129.91930125479905
30
9.437861524771355e-14
 70
     32
  0
VERTEX
  8
MY3DLAYER
10
44.48901851552893
20
129.96801458892477
30
9.43772302720997e-14
 70
     32
  0
VERTEX
  8
MY3DLAYER
10
44.49740974509022
20
130.01637443648545
30
9.437458282947155e-14
 70
     32
  0
VERTEX
  8
MY3DLAYER
10
44.50816377229896
20
130.06426429437272
30
9.437067929774987e-14
 70
     32
  0
VERTEX
  8
MY3DLAYER
10
44.52125468976121
20
130.11156879172404
30
9.436552908088471e-14
 70
     32
  0
VERTEX
  8
MY3DLAYER
10
44.53665096031052
20
130.15817396786184
30
9.435914458619939e-14
 70
     32
  0
VERTEX
  8
MY3DLAYER
10
44.55431549298235
20
130.20396754683472
30
9.435154119450098e-14
 70
     32
  0
VERTEX
  8
MY3DLAYER
10
44.574205732370245
20
130.24883920790018
30
9.434273722302608e-14
 70
     32
  0
VERTEX
  8
MY3DLAYER
10
44.5962737611456
20
130.2926808512957
30
9.433275388131293e-14
 70
     32
  0
VERTEX
  8
MY3DLAYER
10
44.62046641549298
20
130.33538685866256
30
9.432161522010684e-14
 70
     32
  0
VERTEX
  8
MY3DLAYER
10
44.646725413191106
20
130.37685434748903
30
9.430934807341711e-14
 70
     32
  0
VERTEX
  8
MY3DLAYER
10
44.67498749401301
20
130.41698341896208
30
9.429598199387548e-14
 70
     32
  0
VERTEX
  8
MY3DLAYER
10
44.7051845721307
20
130.45567739863318
30
9.428154918153812e-14
 70
     32
  0
VERTEX
  8
MY3DLAYER
10
44.73724390013853
20
130.49284306931668
30
9.426608440631391e-14
 70
     32
  0
VERTEX
  8
MY3DLAYER
10
44.77108824430674
20
130.528390895656
30
9.424962492420117e-14
 70
     32
  0
VERTEX
  8
MY3DLAYER
10
44.80663607064635
20
130.56223523982447
30
9.423221038753373e-14
 70
     32
  0
VERTEX
  8
MY3DLAYER
10
44.843801741330005
20
130.59429456783235
30
9.421388274945576e-14
 70
     32
  0
VERTEX
  8
MY3DLAYER
10
44.8824957210009
20
130.62449164595006
30
9.419468616285315e-14
 70
     32
  0
VERTEX
  8
MY3DLAYER
10
44.92262479247366
20
130.6527537267721
30
9.4174666873984e-14
 70
     32
  0
VERTEX
  8
MY3DLAYER
10
44.964092281300715
20
130.67901272446977
30
9.415387311106841e-14
 70
     32
  0
VERTEX
  8
MY3DLAYER
10
45.006798288667845
20
130.7032053788178
30
9.413235496810337e-14
 70
     32
  0
VERTEX
  8
MY3DLAYER
10
45.05063993206356
20
130.72527340759308
30
9.41101642841796e-14
 70
     32
  0
VERTEX
  8
MY3DLAYER
10
45.095511593128485
20
130.74516364698093
30
9.40873545185985e-14
 70
     32
  0
VERTEX
  8
MY3DLAYER
10
45.14130517210145
20
130.76282817965262
30
9.406398062208297e-14
 70
     32
  0
VERTEX
  8
MY3DLAYER
10
45.187910348239164
20
130.77822445020172
30
9.404009890439726e-14
 70
     32
  0
VERTEX
  8
MY3DLAYER
10
45.23521484559033
20
130.79131536766405
30
9.4015766898691e-14
 70
     32
  0
VERTEX
  8
MY3DLAYER
10
45.28310470347741
20
130.8020693948728
30
9.399104322289717e-14
 70
     32
  0
VERTEX
  8
MY3DLAYER
10
45.331464551037975
20
130.81046062443423
30
9.396598743851638e-14
 70
     32
  0
VERTEX
  8
MY3DLAYER
10
45.38017788516379
20
130.81646884114215
30
9.394065990712764e-14
 70
     32
  0
VERTEX
  8
MY3DLAYER
10
45.4291273511662
20
130.82007957067458
30
9.391512164497246e-14
 70
     32
  0
VERTEX
  8
MY3DLAYER
10
45.47819502549351
20
130.8212841144696
30
9.388943417596161e-14
 70
     32
  0
VERTEX
  8
MY3DLAYER
10
45.527262699821186
20
130.8200795706748
30
9.386365938345748e-14
 70
     32
  0
VERTEX
  8
MY3DLAYER
10
45.576212165823144
20
130.8164688411417
30
9.383785936119326e-14
 70
     32
  0
VERTEX
  8
MY3DLAYER
10
45.624925499948866
20
130.81046062443426
30
9.381209626368212e-14
 70
     32
  0
VERTEX
  8
MY3DLAYER
10
45.67328534750943
20
130.8020693948727
30
9.378643215648264e-14
 70
     32
  0
VERTEX
  8
MY3DLAYER
10
45.72117520539679
20
130.79131536766383
30
9.37609288666767e-14
 70
     32
  0
VERTEX
  8
MY3DLAYER
10
45.76847970274786
20
130.77822445020144
30
9.373564783392366e-14
 70
     32
  0
VERTEX
  8
MY3DLAYER
10
45.81508487888566
20
130.7628281796526
30
9.371064996244555e-14
 70
     32
  0
VERTEX
  8
MY3DLAYER
10
45.86087845785881
20
130.74516364698067
30
9.368599547430422e-14
 70
     32
  0
SEQEND
  0
POLYLINE
 8
Layer0
 66
     1
70
    8
 10
0.0
 20
 0.0
 30
0.0
  0
VERTEX
  8
MY3DLAYER
10
119.22505382698188
20
55.73079944717134
30
5.249467261573626e-14
 70
     32
  0
VERTEX
  8
MY3DLAYER
10
119.18234781961493
20
55.70660679282365
30
5.251619075870122e-14
 70
     32
  0
VERTEX
  8
MY3DLAYER
10
119.13850617621875
20
55.684538764048156
30
5.2538381442625225e-14
 70
     32
  0
VERTEX
  8
MY3DLAYER
10
119.09363451515348
20
55.66464852466062
30
5.2561191208206506e-14
 70
     32
  0
VERTEX
  8
MY3DLAYER
10
119.04784093618079
20
55.64698399198888
30
5.2584565104721916e-14
 70
     32
  0
VERTEX
  8
MY3DLAYER
10
119.00123576004324
20
55.631587721439885
30
5.2608446822407535e-14
 70
     32
  0
VERTEX
  8
MY3DLAYER
10
118.95393126269245
20
55.61849680397723
30
5.263277882811359e-14
 70
     32
  0
VERTEX
  8
MY3DLAYER
10
118.90604140480464
20
55.60774277676863
30
5.26575025039078e-14
 70
     32
  0
VERTEX
  8
MY3DLAYER
10
118.85768155724381
20
55.599351547207114
30
5.268255828828873e-14
 70
     32
  0
VERTEX
  8
MY3DLAYER
10
118.80896822311836
20
55.593343330499536
30
5.270788581967729e-14
 70
     32
  0
VERTEX
  8
MY3DLAYER
10
118.76001875711603
20
55.58973260096661
30
5.2733424081832425e-14
 70
     32
  0
VERTEX
  8
MY3DLAYER
10
118.71095108278845
20
55.58852805717201
30
5.275911155084342e-14
 70
     32
  0
VERTEX
  8
MY3DLAYER
10
118.6618834084614
20
55.58973260096675
30
5.278488634334721e-14
 70
     32
  0
VERTEX
  8
MY3DLAYER
10
118.6129339424591
20
55.59334333049949
30
5.2810686365611604e-14
 70
     32
  0
VERTEX
  8
MY3DLAYER
10
118.56422060833327
20
55.599351547207114
30
5.28364494631228e-14
 70
     32
  0
VERTEX
  8
MY3DLAYER
10
118.51586076077244
20
55.60774277676877
30
5.2862113570322434e-14
 70
     32
  0
VERTEX
  8
MY3DLAYER
10
118.46797090288536
20
55.61849680397719
30
5.288761686012822e-14
 70
     32
  0
VERTEX
  8
MY3DLAYER
10
118.42066640553419
20
55.631587721439296
30
5.291289789288129e-14
 70
     32
  0
VERTEX
  8
MY3DLAYER
10
118.37406122939647
20
55.646983991988975
30
5.2937895764359397e-14
 70
     32
  0
VERTEX
  8
MY3DLAYER
10
118.3282676504236
20
55.66464852466053
30
5.296255025250055e-14
 70
     32
  0
VERTEX
  8
MY3DLAYER
10
118.28339598935814
20
55.68453876404825
30
5.2986801962483497e-14
 70
     32
  0
VERTEX
  8
MY3DLAYER
10
118.23955434596269
20
55.70660679282356
30
5.3010592469814317e-14
 70
     32
  0
VERTEX
  8
MY3DLAYER
10
118.1968483385952
20
55.73079944717148
30
5.303386446107753e-14
 70
     32
  0
VERTEX
  8
MY3DLAYER
10
118.15538084976896
20
55.75705844486929
30
5.3056561872007353e-14
 70
     32
  0
VERTEX
  8
MY3DLAYER
10
118.1152517782962
20
55.78532052569142
30
5.307863002255303e-14
 70
     32
  0
VERTEX
  8
MY3DLAYER
10
118.07655779862503
20
55.81551760380902
30
5.310001574860691e-14
 70
     32
  0
VERTEX
  8
MY3DLAYER
10
118.03939212794164
20
55.847576931816896
30
5.312066753008184e-14
 70
     32
  0
VERTEX
  8
MY3DLAYER
10
118.0038443016024
20
55.881421275985325
30
5.3140535615027124e-14
 70
     32
  0
VERTEX
  8
MY3DLAYER
10
116.58963073922902
20
57.295634838358474
30
5.393341218677803e-14
 70
     32
  0
VERTEX
  8
MY3DLAYER
10
116.55578639506074
20
57.33118266469817
30
5.3952448711237043e-14
 70
     32
  0
VERTEX
  8
MY3DLAYER
10
116.52372706705263
20
57.36834833538115
30
5.39706078145551e-14
 70
     32
  0
VERTEX
  8
MY3DLAYER
10
116.49352998893475
20
57.40704231505227
30
5.3987845749861385e-14
 70
     32
  0
VERTEX
  8
MY3DLAYER
10
116.46526790811303
20
57.44717138652513
30
5.4004120989459966e-14
 70
     32
  0
VERTEX
  8
MY3DLAYER
10
116.43900891041518
20
57.48863887535159
30
5.401939432487333e-14
 70
     32
  0
VERTEX
  8
MY3DLAYER
10
116.41481625606717
20
57.53134488271872
30
5.403362896129842e-14
 70
     32
  0
VERTEX
  8
MY3DLAYER
10
116.39274822729236
20
57.57518652611471
30
5.4046790606249285e-14
 70
     32
  0
VERTEX
  8
MY3DLAYER
10
116.37285798790418
20
57.62005818717986
30
5.4058847552170844e-14
 70
     32
  0
VERTEX
  8
MY3DLAYER
10
116.35519345523245
20
57.66585176615264
30
5.406977075282378e-14
 70
     32
  0
VERTEX
  8
MY3DLAYER
10
116.33979718468349
20
57.712456942290494
30
5.407953389326108e-14
 70
     32
  0
VERTEX
  8
MY3DLAYER
10
116.32670626722107
20
57.75976143964161
30
5.408811345322253e-14
 70
     32
  0
VERTEX
  8
MY3DLAYER
10
116.31595224001242
20
57.80765129752874
30
5.4095488763796455e-14
 70
     32
  0
VERTEX
  8
MY3DLAYER
10
116.3075610104506
20
57.85601114508948
30
5.410164205721394e-14
 70
     32
  0
VERTEX
  8
MY3DLAYER
10
116.30155279374333
20
57.904724479215474
30
5.4106558509651764e-14
 70
     32
  0
VERTEX
  8
MY3DLAYER
10
116.29794206421045
20
57.95367394521766
30
5.4110226276945675e-14
 70
     32
  0
VERTEX
  8
MY3DLAYER
10
116.29673752041549
20
58.00274161954471
30
5.4112636523123007e-14
 70
     32
  0
VERTEX
  8
MY3DLAYER
10
116.29794206421009
20
58.05180929387229
30
5.411378344168962e-14
 70
     32
  0
VERTEX
  8
MY3DLAYER
10
116.30155279374351
20
58.10075875987434
30
5.4113664269617813e-14
 70
     32
  0
VERTEX
  8
MY3DLAYER
10
116.30756101045095
20
58.14947209400024
30
5.411227929400407e-14
 70
     32
  0
VERTEX
  8
MY3DLAYER
10
116.31595224001242
20
58.197831941560985
30
5.410963185137583e-14
 70
     32
  0
VERTEX
  8
MY3DLAYER
10
116.32670626722089
20
58.24572179944825
30
5.4105728319654285e-14
 70
     32
  0
VERTEX
  8
MY3DLAYER
10
116.33979718468332
20
58.293026296799546
30
5.410057810278902e-14
 70
     32
  0
VERTEX
  8
MY3DLAYER
10
116.35519345523262
20
58.33963147293686
30
5.40941936081037e-14
 70
     32
  0
VERTEX
  8
MY3DLAYER
10
116.37285798790418
20
58.38542505190991
30
5.408659021640543e-14
 70
     32
  0
VERTEX
  8
MY3DLAYER
10
116.39274822729236
20
58.43029671297515
30
5.407778624493037e-14
 70
     32
  0
VERTEX
  8
MY3DLAYER
10
116.41481625606735
20
58.47413835637128
30
5.4067802903217446e-14
 70
     32
  0
VERTEX
  8
MY3DLAYER
10
116.43900891041535
20
58.51684436373795
30
5.4056664242010977e-14
 70
     32
  0
VERTEX
  8
MY3DLAYER
10
116.46526790811303
20
58.558311852564465
30
5.404439709532152e-14
 70
     32
  0
VERTEX
  8
MY3DLAYER
10
116.49352998893475
20
58.598440924037455
30
5.403103101577996e-14
 70
     32
  0
VERTEX
  8
MY3DLAYER
10
116.52372706705282
20
58.63713490370853
30
5.401659820344243e-14
 70
     32
  0
VERTEX
  8
MY3DLAYER
10
116.55578639506074
20
58.674300574392184
30
5.400113342821819e-14
 70
     32
  0
VERTEX
  8
MY3DLAYER
10
116.58963073922885
20
58.709848400731346
30
5.3984673946105476e-14
 70
     32
  0
VERTEX
  8
MY3DLAYER
10
116.62517856556863
20
58.74369274489995
30
5.3967259409437936e-14
 70
     32
  0
VERTEX
  8
MY3DLAYER
10
116.66234423625184
20
58.7757520729077
30
5.3948931771360206e-14
 70
     32
  0
VERTEX
  8
MY3DLAYER
10
116.70103821592338
20
58.80594915102552
30
5.392973518475728e-14
 70
     32
  0
VERTEX
  8
MY3DLAYER
10
116.74116728739577
20
58.83421123184729
30
5.390971589588829e-14
 70
     32
  0
VERTEX
  8
MY3DLAYER
10
116.78263477622255
20
58.860470229545285
30
5.3888922132972884e-14
 70
     32
  0
VERTEX
  8
MY3DLAYER
10
116.8253407835895
20
58.88466288389325
30
5.3867403990007924e-14
 70
     32
  0
VERTEX
  8
MY3DLAYER
10
116.86918242698513
20
58.906730912668245
30
5.3845213306084193e-14
 70
     32
  0
VERTEX
  8
MY3DLAYER
10
116.91405408805042
20
58.92662115205636
30
5.382240354050293e-14
 70
     32
  0
VERTEX
  8
MY3DLAYER
10
116.95984766702365
20
58.94428568472815
30
5.3799029643987244e-14
 70
     32
  0
VERTEX
  8
MY3DLAYER
10
117.006452843161
20
58.95968195527701
30
5.377514792630168e-14
 70
     32
  0
VERTEX
  8
MY3DLAYER
10
117.05375734051253
20
58.972772872739576
30
5.3750815920595246e-14
 70
     32
  0
VERTEX
  8
MY3DLAYER
10
117.10164719839943
20
58.983526899948174
30
5.372609224480152e-14
 70
     32
  0
VERTEX
  8
MY3DLAYER
10
117.15000704596008
20
58.99191812950937
30
5.370103646042067e-14
 70
     32
  0
VERTEX
  8
MY3DLAYER
10
117.19872038008626
20
58.99792634621718
30
5.3675708929031745e-14
 70
     32
  0
VERTEX
  8
MY3DLAYER
10
117.24766984608821
20
59.00153707574988
30
5.36501706668768e-14
 70
     32
  0
VERTEX
  8
MY3DLAYER
10
117.2967375204158
20
59.00274161954475
30
5.36244831978658e-14
 70
     32
  0
VERTEX
  8
MY3DLAYER
10
117.34580519474302
20
59.00153707575015
30
5.359870840536193e-14
 70
     32
  0
VERTEX
  8
MY3DLAYER
10
117.39475466074498
20
58.997926346216815
30
5.3572908383097695e-14
 70
     32
  0
VERTEX
  8
MY3DLAYER
10
117.4434679948708
20
58.9919181295096
30
5.35471452855865e-14
 70
     32
  0
VERTEX
  8
MY3DLAYER
10
117.49182784243182
20
58.98352689994795
30
5.352148117838679e-14
 70
     32
  0
VERTEX
  8
MY3DLAYER
10
117.53971770031907
20
58.97277287273948
30
5.3495977888580924e-14
 70
     32
  0
VERTEX
  8
MY3DLAYER
10
117.58702219766988
20
58.959681955277055
30
5.3470696855828045e-14
 70
     32
  0
VERTEX
  8
MY3DLAYER
10
117.6336273738076
20
58.944285684728015
30
5.344569898434996e-14
 70
     32
  0
VERTEX
  8
MY3DLAYER
10
117.67942095278102
20
58.92662115205614
30
5.342104449620849e-14
 70
     32
  0
VERTEX
  8
MY3DLAYER
10
117.72429261384593
20
58.906730912668195
30
5.33967927862258e-14
 70
     32
  0
VERTEX
  8
MY3DLAYER
10
117.76813425724156
20
58.88466288389316
30
5.33730022788949e-14
 70
     32
  0
VERTEX
  8
MY3DLAYER
10
117.81084026460869
20
58.86047022954515
30
5.334973028763189e-14
 70
     32
  0
VERTEX
  8
MY3DLAYER
10
117.85230775343547
20
58.8342112318472
30
5.332703287670178e-14
 70
     32
  0
VERTEX
  8
MY3DLAYER
10
117.89243682490806
20
58.80594915102548
30
5.330496472615621e-14
 70
     32
  0
VERTEX
  8
MY3DLAYER
10
117.9311308045794
20
58.77575207290765
30
5.328357900010221e-14
 70
     32
  0
VERTEX
  8
MY3DLAYER
10
117.9682964752626
20
58.743692744899775
30
5.32629272186274e-14
 70
     32
  0
VERTEX
  8
MY3DLAYER
10
118.00384430160221
20
58.70984840073116
30
5.3243059133681916e-14
 70
     32
  0
VERTEX
  8
MY3DLAYER
10
119.41805786397522
20
57.29563483835806
30
5.2450182561931206e-14
 70
     32
  0
VERTEX
  8
MY3DLAYER
10
119.45190220814352
20
57.26008701201895
30
5.24311460374722e-14
 70
     32
  0
VERTEX
  8
MY3DLAYER
10
119.48396153615126
20
57.22292134133543
30
5.24129869341543e-14
 70
     32
  0
VERTEX
  8
MY3DLAYER
10
119.51415861426932
20
57.18422736166431
30
5.239574899884793e-14
 70
     32
  0
VERTEX
  8
MY3DLAYER
10
119.54242069509104
20
57.14409829019141
30
5.2379473759249377e-14
 70
     32
  0
VERTEX
  8
MY3DLAYER
10
119.56867969278908
20
57.10263080136499
30
5.236420042383591e-14
 70
     32
  0
VERTEX
  8
MY3DLAYER
10
119.59287234713672
20
57.05992479399777
30
5.2349965787411e-14
 70
     32
  0
VERTEX
  8
MY3DLAYER
10
119.6149403759124
20
57.01608315060201
30
5.233680414245969e-14
 70
     32
  0
VERTEX
  8
MY3DLAYER
10
119.63483061529966
20
56.971211489536635
30
5.232474719653861e-14
 70
     32
  0
VERTEX
  8
MY3DLAYER
10
119.65249514797158
20
56.925417910564164
30
5.2313823995885566e-14
 70
     32
  0
VERTEX
  8
MY3DLAYER
10
119.66789141852053
20
56.878812734426496
30
5.230406085544828e-14
 70
     32
  0
VERTEX
  8
MY3DLAYER
10
119.68098233598332
20
56.83150823707501
30
5.229548129548663e-14
 70
     32
  0
VERTEX
  8
MY3DLAYER
10
119.69173636319178
20
56.78361837918802
30
5.2288105984912806e-14
 70
     32
  0
VERTEX
  8
MY3DLAYER
10
119.70012759275362
20
56.73525853162732
30
5.22819526914953e-14
 70
     32
  0
VERTEX
  8
MY3DLAYER
10
119.70613580946087
20
56.68654519750128
30
5.227703623905748e-14
 70
     32
  0
VERTEX
  8
MY3DLAYER
10
119.70974653899376
20
56.63759573149919
30
5.2273368471763605e-14
 70
     32
  0
VERTEX
  8
MY3DLAYER
10
119.71095108278872
20
56.58852805717215
30
5.227095822558625e-14
 70
     32
  0
VERTEX
  8
MY3DLAYER
10
119.70974653899376
20
56.53946038284479
30
5.2269811307019815e-14
 70
     32
  0
VERTEX
  8
MY3DLAYER
10
119.70613580946087
20
56.4905109168422
30
5.2269930479091366e-14
 70
     32
  0
VERTEX
  8
MY3DLAYER
10
119.70012759275362
20
56.44179758271652
30
5.227131545470499e-14
 70
     32
  0
VERTEX
  8
MY3DLAYER
10
119.69173636319178
20
56.39343773515573
30
5.227396289733343e-14
 70
     32
  0
VERTEX
  8
MY3DLAYER
10
119.68098233598296
20
56.3455478772686
30
5.227786642905515e-14
 70
     32
  0
VERTEX
  8
MY3DLAYER
10
119.6678914185209
20
56.29824337991722
30
5.228301664592024e-14
 70
     32
  0
VERTEX
  8
MY3DLAYER
10
119.6524951479714
20
56.2516382037795
30
5.2289401140605644e-14
 70
     32
  0
VERTEX
  8
MY3DLAYER
10
119.63483061530002
20
56.20584462480653
30
5.2297004532303824e-14
 70
     32
  0
VERTEX
  8
MY3DLAYER
10
119.61494037591221
20
56.160972963741564
30
5.230580850377869e-14
 70
     32
  0
VERTEX
  8
MY3DLAYER
10
119.59287234713709
20
56.1171313203458
30
5.2315791845491714e-14
 70
     32
  0
VERTEX
  8
MY3DLAYER
10
119.56867969278908
20
56.07442531297863
30
5.232693050669814e-14
 70
     32
  0
VERTEX
  8
MY3DLAYER
10
119.54242069509104
20
56.032957824152206
30
5.2339197653387796e-14
 70
     32
  0
VERTEX
  8
MY3DLAYER
10
119.51415861426932
20
55.9928287526794
30
5.235256373292934e-14
 70
     32
  0
VERTEX
  8
MY3DLAYER
10
119.48396153615126
20
55.954134773008235
30
5.2366996545266886e-14
 70
     32
  0
VERTEX
  8
MY3DLAYER
10
119.45190220814406
20
55.91696910232476
30
5.238246132049077e-14
 70
     32
  0
VERTEX
  8
MY3DLAYER
10
119.41805786397559
20
55.88142127598551
30
5.2398920802603665e-14
 70
     32
  0
VERTEX
  8
MY3DLAYER
10
119.38251003763561
20
55.84757693181694
30
5.2416335339271306e-14
 70
     32
  0
VERTEX
  8
MY3DLAYER
10
119.34534436695259
20
55.81551760380925
30
5.2434662977348935e-14
 70
     32
  0
VERTEX
  8
MY3DLAYER
10
119.30665038728088
20
55.785320525691326
30
5.245385956395196e-14
 70
     32
  0
VERTEX
  8
MY3DLAYER
10
119.26652131580812
20
55.75705844486942
30
5.247387885282113e-14
 70
     32
  0
VERTEX
  8
MY3DLAYER
10
119.22505382698188
20
55.73079944717134
30
5.249467261573626e-14
 70
     32
  0
SEQEND
  0
POLYLINE
 8
Layer0
 66
     1
70
    8
 10
0.0
 20
 0.0
 30
0.0
  0
VERTEX
  8
MY3DLAYER
10
114.19205275224478
20
29.933832454308874
30
5.419890619030298e-14
 70
     32
  0
VERTEX
  8
MY3DLAYER
10
114.2141207810196
20
29.889990810913424
30
5.41857445453521e-14
 70
     32
  0
VERTEX
  8
MY3DLAYER
10
114.23401102040795
20
29.845119149847964
30
5.417368759943048e-14
 70
     32
  0
VERTEX
  8
MY3DLAYER
10
114.25167555307932
20
29.799325570875357
30
5.416276439877768e-14
 70
     32
  0
VERTEX
  8
MY3DLAYER
10
114.26707182362846
20
29.75272039473728
30
5.41530012583403e-14
 70
     32
  0
VERTEX
  8
MY3DLAYER
10
114.2801627410907
20
29.705415897386253
30
5.4144421698378953e-14
 70
     32
  0
VERTEX
  8
MY3DLAYER
10
114.2909167682999
20
29.657526039499167
30
5.4137046387804745e-14
 70
     32
  0
VERTEX
  8
MY3DLAYER
10
114.29930799786136
20
29.60916619193865
30
5.413089309438746e-14
 70
     32
  0
VERTEX
  8
MY3DLAYER
10
114.30531621456862
20
29.560452857812702
30
5.412597664194962e-14
 70
     32
  0
VERTEX
  8
MY3DLAYER
10
114.30892694410169
20
29.511503391810383
30
5.4122308874655646e-14
 70
     32
  0
VERTEX
  8
MY3DLAYER
10
114.31013148789629
20
29.462435717482755
30
5.411989862847845e-14
 70
     32
  0
VERTEX
  8
MY3DLAYER
10
114.3089269441015
20
29.413368043155575
30
5.411875170991194e-14
 70
     32
  0
VERTEX
  8
MY3DLAYER
10
114.30531621456826
20
29.364418577153256
30
5.4118870881983684e-14
 70
     32
  0
VERTEX
  8
MY3DLAYER
10
114.29930799786118
20
29.315705243027306
30
5.412025585759721e-14
 70
     32
  0
VERTEX
  8
MY3DLAYER
10
114.29091676829971
20
29.2673453954667
30
5.4122903300225474e-14
 70
     32
  0
VERTEX
  8
MY3DLAYER
10
114.28016274109088
20
29.21945553757975
30
5.4126806831947194e-14
 70
     32
  0
VERTEX
  8
MY3DLAYER
10
114.26707182362881
20
29.172151040228318
30
5.413195704881228e-14
 70
     32
  0
VERTEX
  8
MY3DLAYER
10
114.25167555307932
20
29.125545864090466
30
5.4138341543497685e-14
 70
     32
  0
VERTEX
  8
MY3DLAYER
10
114.23401102040758
20
29.079752285117905
30
5.414594493519605e-14
 70
     32
  0
VERTEX
  8
MY3DLAYER
10
114.21412078101977
20
29.03488062405267
30
5.415474890667093e-14
 70
     32
  0
VERTEX
  8
MY3DLAYER
10
114.1920527522446
20
28.991038980656995
30
5.4164732248383957e-14
 70
     32
  0
VERTEX
  8
MY3DLAYER
10
114.1678600978966
20
28.948332973289734
30
5.417587090959041e-14
 70
     32
  0
VERTEX
  8
MY3DLAYER
10
114.14160110019874
20
28.906865484463445
30
5.418813805627996e-14
 70
     32
  0
VERTEX
  8
MY3DLAYER
10
114.11333901937684
20
28.86673641299059
30
5.42015041358216e-14
 70
     32
  0
VERTEX
  8
MY3DLAYER
10
114.08314194125896
20
28.828042433319336
30
5.421593694815905e-14
 70
     32
  0
VERTEX
  8
MY3DLAYER
10
114.0510826132514
20
28.790876762635904
30
5.4231401723383134e-14
 70
     32
  0
VERTEX
  8
MY3DLAYER
10
114.01723826908274
20
28.755328936296387
30
5.4247861205496085e-14
 70
     32
  0
VERTEX
  8
MY3DLAYER
10
113.98169044274331
20
28.721484592128043
30
5.426527574216347e-14
 70
     32
  0
VERTEX
  8
MY3DLAYER
10
113.94452477205992
20
28.689425264120302
30
5.428360338024128e-14
 70
     32
  0
VERTEX
  8
MY3DLAYER
10
113.9058307923884
20
28.659228186002608
30
5.430279996684422e-14
 70
     32
  0
VERTEX
  8
MY3DLAYER
10
113.86570172091618
20
28.630966105180484
30
5.4322819255713086e-14
 70
     32
  0
VERTEX
  8
MY3DLAYER
10
113.8242342320894
20
28.60470710748267
30
5.434361301862852e-14
 70
     32
  0
VERTEX
  8
MY3DLAYER
10
113.78152822472227
20
28.58051445313439
30
5.4365131161593555e-14
 70
     32
  0
VERTEX
  8
MY3DLAYER
10
113.73768658132664
20
28.558446424359488
30
5.438732184551729e-14
 70
     32
  0
VERTEX
  8
MY3DLAYER
10
113.69281492026136
20
28.53855618497195
30
5.441013161109859e-14
 70
     32
  0
VERTEX
  8
MY3DLAYER
10
113.64702134128848
20
28.520891652299895
30
5.443350550761408e-14
 70
     32
  0
VERTEX
  8
MY3DLAYER
10
113.60041616515059
20
28.505495381750716
30
5.445738722529988e-14
 70
     32
  0
VERTEX
  8
MY3DLAYER
10
113.55311166779924
20
28.492404464288427
30
5.448171923100623e-14
 70
     32
  0
VERTEX
  8
MY3DLAYER
10
113.50522180991216
20
28.481650437079644
30
5.4506442906800043e-14
 70
     32
  0
VERTEX
  8
MY3DLAYER
10
113.45686196235205
20
28.473259207518353
30
5.453149869118061e-14
 70
     32
  0
VERTEX
  8
MY3DLAYER
10
113.40814862822587
20
28.467250990810776
30
5.455682622256953e-14
 70
     32
  0
VERTEX
  8
MY3DLAYER
10
113.35919916222373
20
28.46364026127758
30
5.4582364484724567e-14
 70
     32
  0
VERTEX
  8
MY3DLAYER
10
113.31013148789633
20
28.46243571748334
30
5.460805195373548e-14
 70
     32
  0
VERTEX
  8
MY3DLAYER
10
113.26106381356892
20
28.463640261277895
30
5.463382674623945e-14
 70
     32
  0
VERTEX
  8
MY3DLAYER
10
113.21211434756697
20
28.467250990810776
30
5.465962676850369e-14
 70
     32
  0
VERTEX
  8
MY3DLAYER
10
113.16340101344116
20
28.473259207517994
30
5.468538986601488e-14
 70
     32
  0
VERTEX
  8
MY3DLAYER
10
113.11504116588014
20
28.481650437079736
30
5.4711053973214595e-14
 70
     32
  0
VERTEX
  8
MY3DLAYER
10
113.06715130799323
20
28.492404464288562
30
5.473655726302028e-14
 70
     32
  0
VERTEX
  8
MY3DLAYER
10
113.01984681064208
20
28.505495381750944
30
5.476183829577336e-14
 70
     32
  0
VERTEX
  8
MY3DLAYER
10
112.97324163450436
20
28.520891652299714
30
5.4786836167251444e-14
 70
     32
  0
VERTEX
  8
MY3DLAYER
10
112.92744805553112
20
28.538556184971725
30
5.4811490655392814e-14
 70
     32
  0
VERTEX
  8
MY3DLAYER
10
112.88257639446601
20
28.558446424359758
30
5.48357423653756e-14
 70
     32
  0
VERTEX
  8
MY3DLAYER
10
112.8387347510702
20
28.58051445313489
30
5.485953287270658e-14
 70
     32
  0
VERTEX
  8
MY3DLAYER
10
112.79602874370308
20
28.604707107482717
30
5.488280486396959e-14
 70
     32
  0
VERTEX
  8
MY3DLAYER
10
112.75456125487702
20
28.630966105180665
30
5.490550227489934e-14
 70
     32
  0
VERTEX
  8
MY3DLAYER
10
112.71443218340372
20
28.659228186002608
30
5.492757042544529e-14
 70
     32
  0
VERTEX
  8
MY3DLAYER
10
112.67573820373255
20
28.689425264120256
30
5.494895615149917e-14
 70
     32
  0
VERTEX
  8
MY3DLAYER
10
112.63857253304916
20
28.72148459212818
30
5.4969607932974086e-14
 70
     32
  0
VERTEX
  8
MY3DLAYER
10
112.60302470670992
20
28.75532893629634
30
5.498947601791937e-14
 70
     32
  0
VERTEX
  8
MY3DLAYER
10
111.18881114433673
20
30.169542498669845
30
5.578235258967019e-14
 70
     32
  0
VERTEX
  8
MY3DLAYER
10
111.15496680016842
20
30.205090325009138
30
5.5801389114129185e-14
 70
     32
  0
VERTEX
  8
MY3DLAYER
10
111.12290747216015
20
30.24225599569239
30
5.5819548217447364e-14
 70
     32
  0
VERTEX
  8
MY3DLAYER
10
111.09271039404281
20
30.2809499753636
30
5.583678615275335e-14
 70
     32
  0
VERTEX
  8
MY3DLAYER
10
111.06444831322055
20
30.321079046836363
30
5.585306139235221e-14
 70
     32
  0
VERTEX
  8
MY3DLAYER
10
111.03818931552287
20
30.36254653566274
30
5.5868334727765474e-14
 70
     32
  0
VERTEX
  8
MY3DLAYER
10
111.01399666117487
20
30.40525254303032
30
5.588256936419058e-14
 70
     32
  0
VERTEX
  8
MY3DLAYER
10
110.99192863239969
20
30.449094186425995
30
5.589573100914163e-14
 70
     32
  0
VERTEX
  8
MY3DLAYER
10
110.97203839301152
20
30.49396584749096
30
5.590778795506319e-14
 70
     32
  0
VERTEX
  8
MY3DLAYER
10
110.95437386034033
20
30.539759426464286
30
5.591871115571588e-14
 70
     32
  0
VERTEX
  8
MY3DLAYER
10
110.93897758979084
20
30.586364602601822
30
5.592847429615344e-14
 70
     32
  0
VERTEX
  8
MY3DLAYER
10
110.92588667232859
20
30.633669099952847
30
5.5937053856114775e-14
 70
     32
  0
VERTEX
  8
MY3DLAYER
10
110.91513264511994
20
30.681558957840114
30
5.594442916668872e-14
 70
     32
  0
VERTEX
  8
MY3DLAYER
10
110.90674141555847
20
30.729918805400768
30
5.5950582460106e-14
 70
     32
  0
VERTEX
  8
MY3DLAYER
10
110.90073319885121
20
30.77863213952667
30
5.595549891254384e-14
 70
     32
  0
VERTEX
  8
MY3DLAYER
10
110.89712246931815
20
30.82758160552881
30
5.595916667983784e-14
 70
     32
  0
VERTEX
  8
MY3DLAYER
10
110.89591792552355
20
30.876649279856213
30
5.596157692601501e-14
 70
     32
  0
VERTEX
  8
MY3DLAYER
10
110.89712246931832
20
30.925716954183436
30
5.5962723844581506e-14
 70
     32
  0
VERTEX
  8
MY3DLAYER
10
110.90073319885103
20
30.974666420185713
30
5.5962604672510056e-14
 70
     32
  0
VERTEX
  8
MY3DLAYER
10
110.90674141555866
20
31.023379754311165
30
5.5961219696896236e-14
 70
     32
  0
VERTEX
  8
MY3DLAYER
10
110.91513264512012
20
31.071739601871997
30
5.595857225426799e-14
 70
     32
  0
VERTEX
  8
MY3DLAYER
10
110.92588667232859
20
31.119629459759533
30
5.5954668722546446e-14
 70
     32
  0
VERTEX
  8
MY3DLAYER
10
110.93897758979101
20
31.16693395711065
30
5.594951850568118e-14
 70
     32
  0
VERTEX
  8
MY3DLAYER
10
110.95437386033997
20
31.213539133248233
30
5.5943134010996036e-14
 70
     32
  0
VERTEX
  8
MY3DLAYER
10
110.97203839301207
20
31.259332712221287
30
5.5935530619297516e-14
 70
     32
  0
VERTEX
  8
MY3DLAYER
10
110.99192863239969
20
31.304204373286254
30
5.5926726647822714e-14
 70
     32
  0
VERTEX
  8
MY3DLAYER
10
111.01399666117487
20
31.348046016681703
30
5.591674330610967e-14
 70
     32
  0
VERTEX
  8
MY3DLAYER
10
111.0381893155227
20
31.390752024049323
30
5.590560464490334e-14
 70
     32
  0
VERTEX
  8
MY3DLAYER
10
111.06444831322074
20
31.43221951287543
30
5.589333749821368e-14
 70
     32
  0
VERTEX
  8
MY3DLAYER
10
111.09271039404264
20
31.472348584348513
30
5.5879971418672044e-14
 70
     32
  0
VERTEX
  8
MY3DLAYER
10
111.12290747216015
20
31.511042564019405
30
5.5865538606334775e-14
 70
     32
  0
VERTEX
  8
MY3DLAYER
10
111.15496680016807
20
31.548208234702926
30
5.5850073831110506e-14
 70
     32
  0
VERTEX
  8
MY3DLAYER
10
111.18881114433637
20
31.583756061042447
30
5.583361434899774e-14
 70
     32
  0
VERTEX
  8
MY3DLAYER
10
111.22435897067615
20
31.617600405211014
30
5.58161998123302e-14
 70
     32
  0
VERTEX
  8
MY3DLAYER
10
111.26152464135973
20
31.64965973321871
30
5.5797872174252266e-14
 70
     32
  0
VERTEX
  8
MY3DLAYER
10
111.30021862103071
20
31.679856811336673
30
5.577867558764963e-14
 70
     32
  0
VERTEX
  8
MY3DLAYER
10
111.34034769250366
20
31.708118892158666
30
5.5758656298780376e-14
 70
     32
  0
VERTEX
  8
MY3DLAYER
10
111.3818151813299
20
31.734377889856614
30
5.573786253586522e-14
 70
     32
  0
VERTEX
  8
MY3DLAYER
10
111.42452118869701
20
31.758570544204442
30
5.5716344392900167e-14
 70
     32
  0
VERTEX
  8
MY3DLAYER
10
111.468362832093
20
31.780638572979527
30
5.569415370897625e-14
 70
     32
  0
VERTEX
  8
MY3DLAYER
10
111.51323449315811
20
31.800528812367244
30
5.567134394339507e-14
 70
     32
  0
VERTEX
  8
MY3DLAYER
10
111.55902807213063
20
31.818193345038846
30
5.5647970046879745e-14
 70
     32
  0
VERTEX
  8
MY3DLAYER
10
111.60563324826889
20
31.833589615588114
30
5.5624088329193766e-14
 70
     32
  0
VERTEX
  8
MY3DLAYER
10
111.65293774562022
20
31.846680533050677
30
5.5599756323487406e-14
 70
     32
  0
VERTEX
  8
MY3DLAYER
10
111.7008276035073
20
31.85743456025932
30
5.5575032647693596e-14
 70
     32
  0
VERTEX
  8
MY3DLAYER
10
111.74918745106814
20
31.86582578982084
30
5.5549976863312656e-14
 70
     32
  0
VERTEX
  8
MY3DLAYER
10
111.79790078519378
20
31.871834006528506
30
5.552464933192401e-14
 70
     32
  0
VERTEX
  8
MY3DLAYER
10
111.84685025119573
20
31.87544473606148
30
5.549911106976908e-14
 70
     32
  0
VERTEX
  8
MY3DLAYER
10
111.89591792552332
20
31.876649279856167
30
5.547342360075806e-14
 70
     32
  0
VERTEX
  8
MY3DLAYER
10
111.94498559985072
20
31.87544473606112
30
5.544764880825407e-14
 70
     32
  0
VERTEX
  8
MY3DLAYER
10
111.99393506585268
20
31.871834006528236
30
5.5421848785989856e-14
 70
     32
  0
VERTEX
  8
MY3DLAYER
10
112.04264839997867
20
31.865825789820974
30
5.539608568847858e-14
 70
     32
  0
VERTEX
  8
MY3DLAYER
10
112.0910082475395
20
31.857434560259232
30
5.537042158127897e-14
 70
     32
  0
VERTEX
  8
MY3DLAYER
10
112.13889810542659
20
31.846680533050407
30
5.5344918291473167e-14
 70
     32
  0
VERTEX
  8
MY3DLAYER
10
112.18620260277775
20
31.833589615588025
30
5.5319637258720086e-14
 70
     32
  0
VERTEX
  8
MY3DLAYER
10
112.23280777891547
20
31.818193345039074
30
5.5294639387242e-14
 70
     32
  0
VERTEX
  8
MY3DLAYER
10
112.27860135788816
20
31.80052881236729
30
5.526998489910093e-14
 70
     32
  0
VERTEX
  8
MY3DLAYER
10
112.32347301895364
20
31.780638572979527
30
5.524573318911796e-14
 70
     32
  0
VERTEX
  8
MY3DLAYER
10
112.36731466234944
20
31.758570544204442
30
5.5221942681786985e-14
 70
     32
  0
VERTEX
  8
MY3DLAYER
10
112.41002066971657
20
31.734377889856344
30
5.519867069052395e-14
 70
     32
  0
VERTEX
  8
MY3DLAYER
10
112.45148815854263
20
31.708118892158573
30
5.5175973279594226e-14
 70
     32
  0
VERTEX
  8
MY3DLAYER
10
112.49161723001558
20
31.67985681133672
30
5.5153905129048475e-14
 70
     32
  0
VERTEX
  8
MY3DLAYER
10
112.5303112096871
20
31.649659733219117
30
5.513251940299439e-14
 70
     32
  0
VERTEX
  8
MY3DLAYER
10
112.56747688037049
20
31.617600405211103
30
5.511186762151948e-14
 70
     32
  0
VERTEX
  8
MY3DLAYER
10
112.60302470670955
20
31.583756061042717
30
5.50919995365743e-14
 70
     32
  0
VERTEX
  8
MY3DLAYER
10
114.01723826908292
20
30.169542498669482
30
5.4299122964823367e-14
 70
     32
  0
VERTEX
  8
MY3DLAYER
10
114.05108261325176
20
30.133994672329873
30
5.428008644036406e-14
 70
     32
  0
VERTEX
  8
MY3DLAYER
10
114.08314194125933
20
30.09682900164685
30
5.4261927337046275e-14
 70
     32
  0
VERTEX
  8
MY3DLAYER
10
114.11333901937684
20
30.058135021975595
30
5.4244689401740195e-14
 70
     32
  0
VERTEX
  8
MY3DLAYER
10
114.14160110019874
20
30.01800595050247
30
5.422841416214152e-14
 70
     32
  0
VERTEX
  8
MY3DLAYER
10
114.16786009789695
20
29.976538461676
30
5.421314082672797e-14
 70
     32
  0
VERTEX
  8
MY3DLAYER
10
114.19205275224478
20
29.933832454308874
30
5.419890619030298e-14
 70
     32
  0
SEQEND
  0
POLYLINE
 8
Layer0
 66
     1
70
    8
 10
0.0
 20
 0.0
 30
0.0
  0
VERTEX
  8
MY3DLAYER
10
39.3043649772384
20
103.32958505894455
30
9.613048958443029e-14
 70
     32
  0
VERTEX
  8
MY3DLAYER
10
39.33642430524605
20
103.36675072962784
30
9.611502480920616e-14
 70
     32
  0
VERTEX
  8
MY3DLAYER
10
39.37026864941453
20
103.40229855596708
30
9.609856532709327e-14
 70
     32
  0
VERTEX
  8
MY3DLAYER
10
39.40581647575422
20
103.43614290013583
30
9.608115079042579e-14
 70
     32
  0
VERTEX
  8
MY3DLAYER
10
39.442982146437345
20
103.4682022281434
30
9.60628231523481e-14
 70
     32
  0
VERTEX
  8
MY3DLAYER
10
39.4816761261085
20
103.49839930626136
30
9.604362656574536e-14
 70
     32
  0
VERTEX
  8
MY3DLAYER
10
39.52180519758154
20
103.52666138708335
30
9.602360727687607e-14
 70
     32
  0
VERTEX
  8
MY3DLAYER
10
39.56327268640769
20
103.55292038478085
30
9.600281351396095e-14
 70
     32
  0
VERTEX
  8
MY3DLAYER
10
39.605978693775086
20
103.57711303912922
30
9.598129537099578e-14
 70
     32
  0
VERTEX
  8
MY3DLAYER
10
39.64982033717081
20
103.59918106790411
30
9.595910468707199e-14
 70
     32
  0
VERTEX
  8
MY3DLAYER
10
39.69469199823609
20
103.61907130729183
30
9.59362949214907e-14
 70
     32
  0
VERTEX
  8
MY3DLAYER
10
39.74048557720879
20
103.63673583996375
30
9.591292102497531e-14
 70
     32
  0
VERTEX
  8
MY3DLAYER
10
39.78709075334687
20
103.65213211051288
30
9.588903930728942e-14
 70
     32
  0
VERTEX
  8
MY3DLAYER
10
39.83439525069775
20
103.66522302797532
30
9.58647073015833e-14
 70
     32
  0
VERTEX
  8
MY3DLAYER
10
39.88228510858493
20
103.67597705518405
30
9.583998362578943e-14
 70
     32
  0
VERTEX
  8
MY3DLAYER
10
39.93064495614567
20
103.68436828474543
30
9.581492784140855e-14
 70
     32
  0
VERTEX
  8
MY3DLAYER
10
39.9793582902714
20
103.69037650145296
30
9.578960031001985e-14
 70
     32
  0
VERTEX
  8
MY3DLAYER
10
40.0283077562739
20
103.69398723098594
30
9.576406204786464e-14
 70
     32
  0
VERTEX
  8
MY3DLAYER
10
40.077375430600846
20
103.69519177478062
30
9.573837457885396e-14
 70
     32
  0
VERTEX
  8
MY3DLAYER
10
40.126443104928526
20
103.69398723098602
30
9.571259978634985e-14
 70
     32
  0
VERTEX
  8
MY3DLAYER
10
40.17539257093066
20
103.69037650145287
30
9.568679976408551e-14
 70
     32
  0
VERTEX
  8
MY3DLAYER
10
40.224105905056746
20
103.68436828474562
30
9.56610366665742e-14
 70
     32
  0
VERTEX
  8
MY3DLAYER
10
40.272465752616945
20
103.6759770551837
30
9.563537255937488e-14
 70
     32
  0
VERTEX
  8
MY3DLAYER
10
40.3203556105043
20
103.6652230279754
30
9.560986926956896e-14
 70
     32
  0
VERTEX
  8
MY3DLAYER
10
40.367660107855556
20
103.65213211051288
30
9.558458823681584e-14
 70
     32
  0
VERTEX
  8
MY3DLAYER
10
40.41426528399318
20
103.63673583996393
30
9.555959036533781e-14
 70
     32
  0
VERTEX
  8
MY3DLAYER
10
40.46005886296588
20
103.6190713072921
30
9.553493587719673e-14
 70
     32
  0
VERTEX
  8
MY3DLAYER
10
40.50493052403125
20
103.59918106790394
30
9.551068416721379e-14
 70
     32
  0
VERTEX
  8
MY3DLAYER
10
40.54877216742733
20
103.57711303912912
30
9.548689365988268e-14
 70
     32
  0
VERTEX
  8
MY3DLAYER
10
40.591478174794275
20
103.5529203847812
30
9.546362166861974e-14
 70
     32
  0
VERTEX
  8
MY3DLAYER
10
40.632945663620696
20
103.52666138708335
30
9.544092425768984e-14
 70
     32
  0
VERTEX
  8
MY3DLAYER
10
40.67307473509364
20
103.49839930626136
30
9.541885610714406e-14
 70
     32
  0
VERTEX
  8
MY3DLAYER
10
40.71176871476481
20
103.4682022281434
30
9.539747038109016e-14
 70
     32
  0
VERTEX
  8
MY3DLAYER
10
40.7489343854481
20
103.43614290013556
30
9.537681859961529e-14
 70
     32
  0
VERTEX
  8
MY3DLAYER
10
40.78448221178771
20
103.40229855596745
30
9.535695051466985e-14
 70
     32
  0
VERTEX
  8
MY3DLAYER
10
42.19869577416036
20
101.98808499359394
30
9.456407394291929e-14
 70
     32
  0
VERTEX
  8
MY3DLAYER
10
42.23254011832893
20
101.95253716725442
30
9.454503741846013e-14
 70
     32
  0
VERTEX
  8
MY3DLAYER
10
42.26459944633712
20
101.91537149657125
30
9.452687831514201e-14
 70
     32
  0
VERTEX
  8
MY3DLAYER
10
42.2947965244549
20
101.87667751690019
30
9.450964037983579e-14
 70
     32
  0
VERTEX
  8
MY3DLAYER
10
42.323058605276444
20
101.83654844542747
30
9.449336514023733e-14
 70
     32
  0
VERTEX
  8
MY3DLAYER
10
42.3493176029743
20
101.79508095660077
30
9.447809180482394e-14
 70
     32
  0
VERTEX
  8
MY3DLAYER
10
42.37351025732231
20
101.75237494923391
30
9.446385716839887e-14
 70
     32
  0
VERTEX
  8
MY3DLAYER
10
42.39557828609767
20
101.70853330583783
30
9.44506955234477e-14
 70
     32
  0
VERTEX
  8
MY3DLAYER
10
42.415468525485565
20
101.66366164477246
30
9.443863857752629e-14
 70
     32
  0
VERTEX
  8
MY3DLAYER
10
42.43313305815703
20
101.61786806579977
30
9.442771537687347e-14
 70
     32
  0
VERTEX
  8
MY3DLAYER
10
42.44852932870626
20
101.57126288966187
30
9.441795223643603e-14
 70
     32
  0
VERTEX
  8
MY3DLAYER
10
42.46162024616877
20
101.52395839231089
30
9.440937267647457e-14
 70
     32
  0
VERTEX
  8
MY3DLAYER
10
42.47237427337751
20
101.47606853442376
30
9.440199736590058e-14
 70
     32
  0
VERTEX
  8
MY3DLAYER
10
42.48076550293889
20
101.4277086868632
30
9.439584407248334e-14
 70
     32
  0
VERTEX
  8
MY3DLAYER
10
42.48677371964642
20
101.37899535273716
30
9.439092762004535e-14
 70
     32
  0
VERTEX
  8
MY3DLAYER
10
42.490384449179395
20
101.33004588673502
30
9.438725985275142e-14
 70
     32
  0
VERTEX
  8
MY3DLAYER
10
42.49158899297417
20
101.28097821240743
30
9.438484960657415e-14
 70
     32
  0
VERTEX
  8
MY3DLAYER
10
42.49038444917949
20
101.23191053808026
30
9.438370268800759e-14
 70
     32
  0
VERTEX
  8
MY3DLAYER
10
42.486773719646244
20
101.18296107207776
30
9.438382186007932e-14
 70
     32
  0
VERTEX
  8
MY3DLAYER
10
42.4807655029388
20
101.13424773795244
30
9.438520683569306e-14
 70
     32
  0
VERTEX
  8
MY3DLAYER
10
42.472374273377326
20
101.08588789039148
30
9.438785427832131e-14
 70
     32
  0
VERTEX
  8
MY3DLAYER
10
42.46162024616904
20
101.03799803250448
30
9.439175781004276e-14
 70
     32
  0
VERTEX
  8
MY3DLAYER
10
42.44852932870607
20
100.990693535153
30
9.439690802690832e-14
 70
     32
  0
VERTEX
  8
MY3DLAYER
10
42.43313305815721
20
100.94408835901537
30
9.440329252159337e-14
 70
     32
  0
VERTEX
  8
MY3DLAYER
10
42.4154685254852
20
100.89829478004222
30
9.441089591329188e-14
 70
     32
  0
VERTEX
  8
MY3DLAYER
10
42.3955782860974
20
100.8534231189774
30
9.441969988476676e-14
 70
     32
  0
VERTEX
  8
MY3DLAYER
10
42.37351025732213
20
100.80958147558164
30
9.442968322647984e-14
 70
     32
  0
VERTEX
  8
MY3DLAYER
10
42.34931760297448
20
100.76687546821464
30
9.44408218876861e-14
 70
     32
  0
VERTEX
  8
MY3DLAYER
10
42.32305860527662
20
100.72540797938795
30
9.445308903437565e-14
 70
     32
  0
VERTEX
  8
MY3DLAYER
10
42.2947965244549
20
100.68527890791513
30
9.446645511391721e-14
 70
     32
  0
VERTEX
  8
MY3DLAYER
10
42.26459944633667
20
100.64658492824375
30
9.448088792625484e-14
 70
     32
  0
VERTEX
  8
MY3DLAYER
10
42.23254011832947
20
100.60941925756055
30
9.449635270147873e-14
 70
     32
  0
VERTEX
  8
MY3DLAYER
10
42.1986957741609
20
100.57387143122098
30
9.451281218359165e-14
 70
     32
  0
VERTEX
  8
MY3DLAYER
10
42.163147947821024
20
100.54002708705286
30
9.453022672025926e-14
 70
     32
  0
VERTEX
  8
MY3DLAYER
10
42.125982277137815
20
100.5079677590448
30
9.454855435833697e-14
 70
     32
  0
VERTEX
  8
MY3DLAYER
10
42.08728829746665
20
100.47777068092715
30
9.456775094493973e-14
 70
     32
  0
VERTEX
  8
MY3DLAYER
10
42.047159225993795
20
100.44950860010535
30
9.458777023380892e-14
 70
     32
  0
VERTEX
  8
MY3DLAYER
10
42.00569173716728
20
100.42324960240713
30
9.460856399672421e-14
 70
     32
  0
VERTEX
  8
MY3DLAYER
10
41.96298572980016
20
100.39905694805925
30
9.463008213968925e-14
 70
     32
  0
VERTEX
  8
MY3DLAYER
10
41.91914408640453
20
100.37698891928399
30
9.465227282361298e-14
 70
     32
  0
VERTEX
  8
MY3DLAYER
10
41.874272425339335
20
100.35709867989627
30
9.467508258919422e-14
 70
     32
  0
VERTEX
  8
MY3DLAYER
10
41.82847884636619
20
100.33943414722454
30
9.469845648570985e-14
 70
     32
  0
VERTEX
  8
MY3DLAYER
10
41.781873670228386
20
100.32403787667535
30
9.472233820339561e-14
 70
     32
  0
VERTEX
  8
MY3DLAYER
10
41.73456917287749
20
100.31094695921311
30
9.474667020910175e-14
 70
     32
  0
VERTEX
  8
MY3DLAYER
10
41.686679314990045
20
100.3001929320045
30
9.477139388489575e-14
 70
     32
  0
VERTEX
  8
MY3DLAYER
10
41.63831946742921
20
100.29180170244267
30
9.479644966927668e-14
 70
     32
  0
VERTEX
  8
MY3DLAYER
10
41.58960613330376
20
100.28579348573551
30
9.482177720066525e-14
 70
     32
  0
VERTEX
  8
MY3DLAYER
10
41.54065666730171
20
100.28218275620245
30
9.484731546282022e-14
 70
     32
  0
VERTEX
  8
MY3DLAYER
10
41.49158899297413
20
100.28097821240776
30
9.487300293183123e-14
 70
     32
  0
VERTEX
  8
MY3DLAYER
10
41.442521318646456
20
100.28218275620235
30
9.489877772433534e-14
 70
     32
  0
VERTEX
  8
MY3DLAYER
10
41.393571852644406
20
100.28579348573551
30
9.492457774659962e-14
 70
     32
  0
VERTEX
  8
MY3DLAYER
10
41.34485851851904
20
100.29180170244285
30
9.495034084411057e-14
 70
     32
  0
VERTEX
  8
MY3DLAYER
10
41.296498670957845
20
100.3001929320042
30
9.497600495131037e-14
 70
     32
  0
VERTEX
  8
MY3DLAYER
10
41.24860881307085
20
100.31094695921307
30
9.500150824111614e-14
 70
     32
  0
VERTEX
  8
MY3DLAYER
10
41.20130431571969
20
100.3240378766753
30
9.502678927386919e-14
 70
     32
  0
VERTEX
  8
MY3DLAYER
10
41.154699139581794
20
100.33943414722471
30
9.505178714534738e-14
 70
     32
  0
VERTEX
  8
MY3DLAYER
10
41.10890556060901
20
100.35709867989627
30
9.507644163348849e-14
 70
     32
  0
VERTEX
  8
MY3DLAYER
10
41.06403389954373
20
100.37698891928403
30
9.510069334347138e-14
 70
     32
  0
VERTEX
  8
MY3DLAYER
10
41.020192256148185
20
100.39905694805925
30
9.512448385080221e-14
 70
     32
  0
VERTEX
  8
MY3DLAYER
10
40.97748624878106
20
100.42324960240735
30
9.514775584206524e-14
 70
     32
  0
VERTEX
  8
MY3DLAYER
10
40.93601875995446
20
100.4495086001052
30
9.517045325299525e-14
 70
     32
  0
VERTEX
  8
MY3DLAYER
10
40.895889688481425
20
100.47777068092702
30
9.519252140354107e-14
 70
     32
  0
VERTEX
  8
MY3DLAYER
10
40.85719570881044
20
100.50796775904453
30
9.521390712959487e-14
 70
     32
  0
VERTEX
  8
MY3DLAYER
10
40.820030038127236
20
100.54002708705282
30
9.523455891106967e-14
 70
     32
  0
VERTEX
  8
MY3DLAYER
10
40.784482211787804
20
100.57387143122094
30
9.525442699601506e-14
 70
     32
  0
VERTEX
  8
MY3DLAYER
10
39.370268649414434
20
101.98808499359421
30
9.604730356776597e-14
 70
     32
  0
VERTEX
  8
MY3DLAYER
10
39.336424305245956
20
102.02363281993382
30
9.60663400922251e-14
 70
     32
  0
VERTEX
  8
MY3DLAYER
10
39.30436497723858
20
102.06079849061726
30
9.608449919554278e-14
 70
     32
  0
VERTEX
  8
MY3DLAYER
10
39.27416789912052
20
102.09949247028824
30
9.610173713084914e-14
 70
     32
  0
VERTEX
  8
MY3DLAYER
10
39.24590581829853
20
102.13962154176109
30
9.611801237044786e-14
 70
     32
  0
VERTEX
  8
MY3DLAYER
10
39.21964682060094
20
102.18108903058743
30
9.613328570586109e-14
 70
     32
  0
VERTEX
  8
MY3DLAYER
10
39.19545416625276
20
102.22379503795473
30
9.614752034228627e-14
 70
     32
  0
VERTEX
  8
MY3DLAYER
10
39.17338613747776
20
102.26763668135045
30
9.616068198723723e-14
 70
     32
  0
VERTEX
  8
MY3DLAYER
10
39.15349589808968
20
102.31250834241595
30
9.617273893315874e-14
 70
     32
  0
VERTEX
  8
MY3DLAYER
10
39.135831365418035
20
102.35830192138856
30
9.618366213381165e-14
 70
     32
  0
VERTEX
  8
MY3DLAYER
10
39.12043509486908
20
102.40490709752623
30
9.619342527424893e-14
 70
     32
  0
VERTEX
  8
MY3DLAYER
10
39.10734417740657
20
102.45221159487758
30
9.620200483421043e-14
 70
     32
  0
VERTEX
  8
MY3DLAYER
10
39.09659015019792
20
102.50010145276461
30
9.620938014478437e-14
 70
     32
  0
VERTEX
  8
MY3DLAYER
10
39.08819892063618
20
102.54846130032563
30
9.621553343820182e-14
 70
     32
  0
VERTEX
  8
MY3DLAYER
10
39.08219070392874
20
102.59717463445139
30
9.622044989063973e-14
 70
     32
  0
VERTEX
  8
MY3DLAYER
10
39.07857997439585
20
102.64612410045336
30
9.622411765793361e-14
 70
     32
  0
VERTEX
  8
MY3DLAYER
10
39.07737543060099
20
102.69519177478044
30
9.622652790411091e-14
 70
     32
  0
VERTEX
  8
MY3DLAYER
10
39.07857997439613
20
102.74425944910811
30
9.622767482267725e-14
 70
     32
  0
VERTEX
  8
MY3DLAYER
10
39.082190703929186
20
102.79320891511026
30
9.622755565060561e-14
 70
     32
  0
VERTEX
  8
MY3DLAYER
10
39.088198920636266
20
102.84192224923616
30
9.622617067499207e-14
 70
     32
  0
VERTEX
  8
MY3DLAYER
10
39.09659015019765
20
102.89028209679681
30
9.622352323236386e-14
 70
     32
  0
VERTEX
  8
MY3DLAYER
10
39.107344177406745
20
102.93817195468408
30
9.6219619700642e-14
 70
     32
  0
VERTEX
  8
MY3DLAYER
10
39.120435094868995
20
102.98547645203533
30
9.621446948377681e-14
 70
     32
  0
VERTEX
  8
MY3DLAYER
10
39.13583136541821
20
103.03208162817296
30
9.620808498909155e-14
 70
     32
  0
VERTEX
  8
MY3DLAYER
10
39.153495898089595
20
103.07787520714584
30
9.620048159739339e-14
 70
     32
  0
VERTEX
  8
MY3DLAYER
10
39.17338613747749
20
103.12274686821125
30
9.619167762591849e-14
 70
     32
  0
VERTEX
  8
MY3DLAYER
10
39.195454166252574
20
103.16658851160679
30
9.618169428420548e-14
 70
     32
  0
VERTEX
  8
MY3DLAYER
10
39.219646820600765
20
103.20929451897388
30
9.617055562299893e-14
 70
     32
  0
VERTEX
  8
MY3DLAYER
10
39.245905818298716
20
103.25076200780043
30
9.615828847630934e-14
 70
     32
  0
VERTEX
  8
MY3DLAYER
10
39.274167899120435
20
103.29089107927328
30
9.614492239676777e-14
 70
     32
  0
VERTEX
  8
MY3DLAYER
10
39.3043649772384
20
103.32958505894455
30
9.613048958443029e-14
 70
     32
  0
SEQEND
  0
POLYLINE
 8
Layer0
 66
     1
70
    8
 10
0.0
 20
 0.0
 30
0.0
  0
VERTEX
  8
MY3DLAYER
10
140.36812856538015
20
109.9085460344736
30
6.695253861202176e-14
 70
     32
  0
VERTEX
  8
MY3DLAYER
10
140.3681285653802
20
86.55014560120075
30
5.949090256801612e-14
 70
     32
  0
VERTEX
  8
MY3DLAYER
10
140.33788158269738
20
86.08866582299449
30
5.999972385822726e-14
 70
     32
  0
VERTEX
  8
MY3DLAYER
10
140.24765816890854
20
85.63508209173966
30
6.049613490042619e-14
 70
     32
  0
VERTEX
  8
MY3DLAYER
10
140.0990020716384
20
85.19715535083527
30
6.097164196404976e-14
 70
     32
  0
VERTEX
  8
MY3DLAYER
10
139.89445683792644
20
84.78237864823438
30
6.141810899140388e-14
 70
     32
  0
VERTEX
  8
MY3DLAYER
10
139.6375222934321
20
84.39784892831636
30
6.182789680786647e-14
 70
     32
  0
VERTEX
  8
MY3DLAYER
10
139.33259465944747
20
84.05014560120077
30
6.219399383028323e-14
 70
     32
  0
VERTEX
  8
MY3DLAYER
10
138.98489133233187
20
83.74521796721612
30
6.251013603709934e-14
 70
     32
  0
VERTEX
  8
MY3DLAYER
10
138.60036161241382
20
83.48828342272178
30
6.277091414750498e-14
 70
     32
  0
VERTEX
  8
MY3DLAYER
10
138.18558490981297
20
83.28373818900982
30
6.297186617572976e-14
 70
     32
  0
VERTEX
  8
MY3DLAYER
10
137.74765816890857
20
83.13508209173966
30
6.310955377685634e-14
 70
     32
  0
VERTEX
  8
MY3DLAYER
10
137.2940744376538
20
83.04485867795088
30
6.318162107785521e-14
 70
     32
  0
VERTEX
  8
MY3DLAYER
10
136.83259465944747
20
83.01461169526803
30
6.318683498722547e-14
 70
     32
  0
VERTEX
  8
MY3DLAYER
10
113.47341023811347
20
83.01461169526803
30
7.83563534254743e-14
 70
     32
  0
VERTEX
  8
MY3DLAYER
10
112.72683189761005
20
83.08814324374028
30
7.84824864911728e-14
 70
     32
  0
VERTEX
  8
MY3DLAYER
10
112.00894414404618
20
83.30591211298619
30
7.885603846528979e-14
 70
     32
  0
VERTEX
  8
MY3DLAYER
10
111.34733500119533
20
83.65954956748685
30
7.946265395495025e-14
 70
     32
  0
VERTEX
  8
MY3DLAYER
10
110.76742973738247
20
84.13546551818796
30
8.027902106708047e-14
 70
     32
  0
VERTEX
  8
MY3DLAYER
10
110.29151378668139
20
84.7153707820008
30
8.127376727138522e-14
 70
     32
  0
VERTEX
  8
MY3DLAYER
10
109.93787633218072
20
85.37697992485168
30
8.240866502909316e-14
 70
     32
  0
VERTEX
  8
MY3DLAYER
10
109.7201074629348
20
86.09486767841553
30
8.364010085583355e-14
 70
     32
  0
VERTEX
  8
MY3DLAYER
10
109.6604127661303
20
86.70095810630869
30
6.323130802789086e-14
 70
     32
  0
VERTEX
  8
MY3DLAYER
10
109.6465759144626
20
86.84144601891896
30
8.492075136338195e-14
 70
     32
  0
VERTEX
  8
MY3DLAYER
10
109.7201074629348
20
87.58802435942238
30
8.620140187093035e-14
 70
     32
  0
VERTEX
  8
MY3DLAYER
10
109.93787633218072
20
88.30591211298622
30
8.743283769767079e-14
 70
     32
  0
VERTEX
  8
MY3DLAYER
10
110.29151378668139
20
88.9675212558371
30
8.856773545537868e-14
 70
     32
  0
VERTEX
  8
MY3DLAYER
10
110.76742973738251
20
89.54742651964993
30
8.956248165968342e-14
 70
     32
  0
VERTEX
  8
MY3DLAYER
10
113.15618778825353
20
91.9361845705214
30
3.646207795268013e-14
 70
     32
  0
VERTEX
  8
MY3DLAYER
10
133.83531374099823
20
112.61452653520506
30
6.167962422192056e-14
 70
     32
  0
VERTEX
  8
MY3DLAYER
10
134.41521900481115
20
113.09044248590581
30
6.144601134178285e-14
 70
     32
  0
VERTEX
  8
MY3DLAYER
10
135.07682814766181
20
113.44407994040644
30
6.136499740006183e-14
 70
     32
  0
VERTEX
  8
MY3DLAYER
10
135.79471590122563
20
113.6618488096524
30
6.143969571710474e-14
 70
     32
  0
VERTEX
  8
MY3DLAYER
10
136.54129424172933
20
113.73538035812484
30
6.166723567847886e-14
 70
     32
  0
VERTEX
  8
MY3DLAYER
10
137.28787258223275
20
113.66184880965254
30
6.203887305107443e-14
 70
     32
  0
VERTEX
  8
MY3DLAYER
10
138.00576033579657
20
113.44407994040662
30
6.254032601907955e-14
 70
     32
  0
VERTEX
  8
MY3DLAYER
10
138.66736947864734
20
113.09044248590614
30
6.315232402615148e-14
 70
     32
  0
VERTEX
  8
MY3DLAYER
10
139.2472747424602
20
112.61452653520479
30
6.385134833209117e-14
 70
     32
  0
VERTEX
  8
MY3DLAYER
10
139.7231906931614
20
112.03462127139174
30
6.461053582483836e-14
 70
     32
  0
VERTEX
  8
MY3DLAYER
10
140.07682814766213
20
111.37301212854089
30
6.540071135480422e-14
 70
     32
  0
VERTEX
  8
MY3DLAYER
10
140.2945970169078
20
110.65512437497708
30
6.619150891950785e-14
 70
     32
  0
VERTEX
  8
MY3DLAYER
10
140.36812856538015
20
109.9085460344736
30
6.695253861202176e-14
 70
     32
  0
SEQEND
  0
POLYLINE
 8
Layer0
 66
     1
70
    8
 10
0.0
 20
 0.0
 30
0.0
  0
VERTEX
  8
MY3DLAYER
10
22.210228295361077
20
76.01461169526783
30
9.223376217324552e-14
 70
     32
  0
VERTEX
  8
MY3DLAYER
10
45.56941271669507
20
76.01461169526783
30
9.747930059496193e-14
 70
     32
  0
VERTEX
  8
MY3DLAYER
10
46.31599105719851
20
75.94108014679558
30
9.729574066519474e-14
 70
     32
  0
VERTEX
  8
MY3DLAYER
10
47.03387881076235
20
75.72331127754967
30
9.738647176323238e-14
 70
     32
  0
VERTEX
  8
MY3DLAYER
10
47.69548795361323
20
75.36967382304901
30
9.774800714385982e-14
 70
     32
  0
VERTEX
  8
MY3DLAYER
10
48.27539321742607
20
74.89375787234792
30
9.8366453205151e-14
 70
     32
  0
VERTEX
  8
MY3DLAYER
10
48.751309168127136
20
74.31385260853506
30
9.921804341179901e-14
 70
     32
  0
VERTEX
  8
MY3DLAYER
10
49.104946622627786
20
73.65224346568418
30
1.0027005162973964e-13
 70
     32
  0
VERTEX
  8
MY3DLAYER
10
49.3227154918737
20
72.93435571212034
30
1.0148204977313043e-13
 70
     32
  0
VERTEX
  8
MY3DLAYER
10
49.39624704034593
20
72.18777737161692
30
1.0280746143301726e-13
 70
     32
  0
VERTEX
  8
MY3DLAYER
10
49.32271549187368
20
71.44119903111347
30
1.0419535178261017e-13
 70
     32
  0
VERTEX
  8
MY3DLAYER
10
49.104946622627764
20
70.72331127754964
30
1.0559238497411215e-13
 70
     32
  0
VERTEX
  8
MY3DLAYER
10
48.751309168127115
20
70.06170213469876
30
1.0694487380543898e-13
 70
     32
  0
VERTEX
  8
MY3DLAYER
10
48.27539321742603
20
69.48179687088592
30
1.0820084288928722e-13
 70
     32
  0
VERTEX
  8
MY3DLAYER
10
45.88663516655385
20
67.09303882001392
30
7.660727897832483e-14
 70
     32
  0
VERTEX
  8
MY3DLAYER
10
25.20750921381039
20
46.41391286727083
30
8.705308125877806e-14
 70
     32
  0
VERTEX
  8
MY3DLAYER
10
24.627603949997447
20
45.93799691656935
30
8.709979317585703e-14
 70
     32
  0
VERTEX
  8
MY3DLAYER
10
23.96599480714669
20
45.584359462069045
30
8.733859948820086e-14
 70
     32
  0
VERTEX
  8
MY3DLAYER
10
23.248107053582864
20
45.3665905928229
30
8.776032300315098e-14
 70
     32
  0
VERTEX
  8
MY3DLAYER
10
22.50152871307944
20
45.29305904435055
30
8.834875712253265e-14
 70
     32
  0
VERTEX
  8
MY3DLAYER
10
21.75495037257612
20
45.36659059282286
30
8.908128865313602e-14
 70
     32
  0
VERTEX
  8
MY3DLAYER
10
21.037062619012207
20
45.584359462068726
30
8.992976681904806e-14
 70
     32
  0
VERTEX
  8
MY3DLAYER
10
20.375453476161347
20
45.93799691656953
30
9.086158508018526e-14
 70
     32
  0
VERTEX
  8
MY3DLAYER
10
19.795548212348596
20
46.413912867270604
30
9.184093418334128e-14
 70
     32
  0
VERTEX
  8
MY3DLAYER
10
19.3196322616472
20
46.993818131083415
30
9.283017829170755e-14
 70
     32
  0
VERTEX
  8
MY3DLAYER
10
18.96599480714658
20
47.65542727393427
30
9.379130130897398e-14
 70
     32
  0
VERTEX
  8
MY3DLAYER
10
18.74822593790074
20
48.37331502749819
30
9.468736781659085e-14
 70
     32
  0
VERTEX
  8
MY3DLAYER
10
18.67469438942835
20
49.119893368001605
30
9.548394248119052e-14
 70
     32
  0
VERTEX
  8
MY3DLAYER
10
18.67469438942835
20
72.4790777893351
30
9.039978745519115e-14
 70
     32
  0
VERTEX
  8
MY3DLAYER
10
18.704941372111197
20
72.94055756754139
30
9.084878062092171e-14
 70
     32
  0
VERTEX
  8
MY3DLAYER
10
18.79516478589998
20
73.3941412987962
30
9.126068679217171e-14
 70
     32
  0
VERTEX
  8
MY3DLAYER
10
18.943820883170133
20
73.83206803970059
30
9.162845814014916e-14
 70
     32
  0
VERTEX
  8
MY3DLAYER
10
19.148366116882098
20
74.24684474230148
30
9.194580199512461e-14
 70
     32
  0
VERTEX
  8
MY3DLAYER
10
19.40530066137643
20
74.6313744622195
30
9.220728851575518e-14
 70
     32
  0
VERTEX
  8
MY3DLAYER
10
19.710228295361087
20
74.9790777893351
30
9.240844359517506e-14
 70
     32
  0
VERTEX
  8
MY3DLAYER
10
20.057931622476673
20
75.28400542331975
30
9.254582541420463e-14
 70
     32
  0
VERTEX
  8
MY3DLAYER
10
20.44246134239471
20
75.54093996781407
30
9.261708333183092e-14
 70
     32
  0
VERTEX
  8
MY3DLAYER
10
20.857238044995583
20
75.74548520152604
30
9.26209981053269e-14
 70
     32
  0
VERTEX
  8
MY3DLAYER
10
21.295164785899978
20
75.89414129879619
30
9.255750275183263e-14
 70
     32
  0
VERTEX
  8
MY3DLAYER
10
21.74874851715479
20
75.98436471258499
30
9.242768369445069e-14
 70
     32
  0
VERTEX
  8
MY3DLAYER
10
22.210228295361077
20
76.01461169526783
30
9.223376217324552e-14
 70
     32
  0
SEQEND
  0
POLYLINE
 8
Layer0
 66
     1
70
    8
 10
0.0
 20
 0.0
 30
0.0
  0
VERTEX
  8
MY3DLAYER
10
45.56941271669507
20
83.01461169526785
30
9.367292345819928e-14
 70
     32
  0
VERTEX
  8
MY3DLAYER
10
22.210228295361077
20
83.01461169526785
30
8.842738503648287e-14
 70
     32
  0
VERTEX
  8
MY3DLAYER
10
21.74874851715479
20
83.04485867795069
30
8.862130655768805e-14
 70
     32
  0
VERTEX
  8
MY3DLAYER
10
21.295164785899978
20
83.13508209173949
30
8.875112561507001e-14
 70
     32
  0
VERTEX
  8
MY3DLAYER
10
20.857238044995583
20
83.28373818900964
30
8.881462096856426e-14
 70
     32
  0
VERTEX
  8
MY3DLAYER
10
20.442461342394708
20
83.48828342272161
30
8.881070619506829e-14
 70
     32
  0
VERTEX
  8
MY3DLAYER
10
20.05793162247668
20
83.74521796721592
30
8.873944827744201e-14
 70
     32
  0
VERTEX
  8
MY3DLAYER
10
19.710228295361077
20
84.05014560120058
30
8.860206645841241e-14
 70
     32
  0
VERTEX
  8
MY3DLAYER
10
19.405300661376423
20
84.39784892831618
30
8.840091137899253e-14
 70
     32
  0
VERTEX
  8
MY3DLAYER
10
19.148366116882105
20
84.7823786482342
30
8.813942485836199e-14
 70
     32
  0
VERTEX
  8
MY3DLAYER
10
18.943820883170137
20
85.19715535083509
30
8.782208100338652e-14
 70
     32
  0
VERTEX
  8
MY3DLAYER
10
18.79516478589998
20
85.63508209173948
30
8.745430965540909e-14
 70
     32
  0
VERTEX
  8
MY3DLAYER
10
18.704941372111186
20
86.08866582299429
30
8.704240348415907e-14
 70
     32
  0
VERTEX
  8
MY3DLAYER
10
18.67469438942834
20
86.55014560120058
30
8.659341031842853e-14
 70
     32
  0
VERTEX
  8
MY3DLAYER
10
18.67469438942834
20
109.90933002253406
30
9.167756534442786e-14
 70
     32
  0
VERTEX
  8
MY3DLAYER
10
18.748225937900735
20
110.6559083630375
30
9.088099067982822e-14
 70
     32
  0
VERTEX
  8
MY3DLAYER
10
18.965994807146583
20
111.3737961166014
30
8.998492417221134e-14
 70
     32
  0
VERTEX
  8
MY3DLAYER
10
19.319632261647193
20
112.03540525945226
30
8.902380115494494e-14
 70
     32
  0
VERTEX
  8
MY3DLAYER
10
19.795548212348585
20
112.61531052326507
30
8.803455704657868e-14
 70
     32
  0
VERTEX
  8
MY3DLAYER
10
20.37545347616135
20
113.09122647396615
30
8.705520794342263e-14
 70
     32
  0
VERTEX
  8
MY3DLAYER
10
21.037062619012207
20
113.44486392846694
30
8.612338968228544e-14
 70
     32
  0
VERTEX
  8
MY3DLAYER
10
21.75495037257612
20
113.66263279771282
30
8.527491151637341e-14
 70
     32
  0
VERTEX
  8
MY3DLAYER
10
22.50152871307944
20
113.73616434618512
30
8.454237998577002e-14
 70
     32
  0
VERTEX
  8
MY3DLAYER
10
23.248107053582864
20
113.66263279771277
30
8.395394586638834e-14
 70
     32
  0
VERTEX
  8
MY3DLAYER
10
23.96599480714669
20
113.44486392846663
30
8.35322223514382e-14
 70
     32
  0
VERTEX
  8
MY3DLAYER
10
24.62760394999745
20
113.09122647396633
30
8.329341603909438e-14
 70
     32
  0
VERTEX
  8
MY3DLAYER
10
25.207509213810397
20
112.61531052326484
30
8.32467041220154e-14
 70
     32
  0
VERTEX
  8
MY3DLAYER
10
45.88663516655386
20
91.93618457052176
30
7.280090184156218e-14
 70
     32
  0
VERTEX
  8
MY3DLAYER
10
48.27539321742603
20
89.54742651964975
30
1.0439446575252463e-13
 70
     32
  0
VERTEX
  8
MY3DLAYER
10
48.751309168127136
20
88.96752125583691
30
1.0313849666867636e-13
 70
     32
  0
VERTEX
  8
MY3DLAYER
10
49.10494662262779
20
88.30591211298604
30
1.0178600783734954e-13
 70
     32
  0
VERTEX
  8
MY3DLAYER
10
49.322715491873716
20
87.58802435942219
30
1.0038897464584758e-13
 70
     32
  0
VERTEX
  8
MY3DLAYER
10
49.39624704034597
20
86.84144601891876
30
9.900108429625467e-14
 70
     32
  0
VERTEX
  8
MY3DLAYER
10
49.32271549187373
20
86.09486767841534
30
9.767567263636781e-14
 70
     32
  0
VERTEX
  8
MY3DLAYER
10
49.10494662262782
20
85.3769799248515
30
9.646367449297698e-14
 70
     32
  0
VERTEX
  8
MY3DLAYER
10
48.751309168127165
20
84.71537078200062
30
9.541166627503636e-14
 70
     32
  0
VERTEX
  8
MY3DLAYER
10
48.27539321742607
20
84.13546551818776
30
9.456007606838835e-14
 70
     32
  0
VERTEX
  8
MY3DLAYER
10
47.69548795361322
20
83.65954956748666
30
9.394163000709718e-14
 70
     32
  0
VERTEX
  8
MY3DLAYER
10
47.03387881076234
20
83.30591211298601
30
9.358009462646972e-14
 70
     32
  0
VERTEX
  8
MY3DLAYER
10
46.3159910571985
20
83.08814324374009
30
9.348936352843208e-14
 70
     32
  0
VERTEX
  8
MY3DLAYER
10
45.56941271669507
20
83.01461169526785
30
9.367292345819928e-14
 70
     32
  0
SEQEND
  0
POLYLINE
 8
Layer0
 66
     1
70
    8
 10
0.0
 20
 0.0
 30
0.0
  0
VERTEX
  8
MY3DLAYER
10
140.33788158269738
20
72.94055756754157
30
6.514455767171047e-14
 70
     32
  0
VERTEX
  8
MY3DLAYER
10
140.3681285653802
20
72.47907778933528
30
6.472969220819486e-14
 70
     32
  0
VERTEX
  8
MY3DLAYER
10
140.36812856538026
20
49.11910937994164
30
6.887242674091578e-14
 70
     32
  0
VERTEX
  8
MY3DLAYER
10
140.29459701690772
20
48.37253103943835
30
6.851097033635487e-14
 70
     32
  0
VERTEX
  8
MY3DLAYER
10
140.07682814766176
20
47.65464328587439
30
6.820533740063998e-14
 70
     32
  0
VERTEX
  8
MY3DLAYER
10
139.7231906931614
20
46.99303414302372
30
6.796727323609004e-14
 70
     32
  0
VERTEX
  8
MY3DLAYER
10
139.24727474246
20
46.41312887921075
30
6.780592651504056e-14
 70
     32
  0
VERTEX
  8
MY3DLAYER
10
138.66736947864752
20
45.9372129285096
30
6.772749770149705e-14
 70
     32
  0
VERTEX
  8
MY3DLAYER
10
138.00576033579657
20
45.583575474008846
30
6.773500077078105e-14
 70
     32
  0
VERTEX
  8
MY3DLAYER
10
137.28787258223275
20
45.365806604763
30
6.782814738414726e-14
 70
     32
  0
VERTEX
  8
MY3DLAYER
10
136.54129424172933
20
45.29227505629092
30
6.800335796948154e-14
 70
     32
  0
VERTEX
  8
MY3DLAYER
10
135.794715901226
20
45.36580660476287
30
6.825389928224855e-14
 70
     32
  0
VERTEX
  8
MY3DLAYER
10
135.07682814766198
20
45.583575474008896
30
6.857014316030406e-14
 70
     32
  0
VERTEX
  8
MY3DLAYER
10
134.41521900481115
20
45.93721292850938
30
6.893993652876576e-14
 70
     32
  0
VERTEX
  8
MY3DLAYER
10
133.83531374099869
20
46.41312887921064
30
6.934906843586622e-14
 70
     32
  0
VERTEX
  8
MY3DLAYER
10
113.15618778825343
20
67.09303882001414
30
6.171117968290004e-14
 70
     32
  0
VERTEX
  8
MY3DLAYER
10
110.76742973738251
20
69.4817968708861
30
9.541150823727731e-14
 70
     32
  0
VERTEX
  8
MY3DLAYER
10
110.29151378668143
20
70.06170213469896
30
9.429869515108583e-14
 70
     32
  0
VERTEX
  8
MY3DLAYER
10
109.93787633218078
20
70.72331127754984
30
9.302909585952628e-14
 70
     32
  0
VERTEX
  8
MY3DLAYER
10
109.72010746293486
20
71.44119903111365
30
9.16515003513739e-14
 70
     32
  0
VERTEX
  8
MY3DLAYER
10
109.6465759144626
20
72.1877773716171
30
9.021884884944254e-14
 70
     32
  0
VERTEX
  8
MY3DLAYER
10
109.66041276613025
20
72.32826528422679
30
7.316983212424832e-14
 70
     32
  0
VERTEX
  8
MY3DLAYER
10
109.72010746293486
20
72.93435571212054
30
8.878619734751119e-14
 70
     32
  0
VERTEX
  8
MY3DLAYER
10
109.93787633218078
20
73.65224346568436
30
8.740860183935888e-14
 70
     32
  0
VERTEX
  8
MY3DLAYER
10
110.29151378668139
20
74.31385260853526
30
8.613900254779934e-14
 70
     32
  0
VERTEX
  8
MY3DLAYER
10
110.76742973738247
20
74.8937578723481
30
8.502618946160783e-14
 70
     32
  0
VERTEX
  8
MY3DLAYER
10
111.34733500119533
20
75.36967382304921
30
8.411292736361383e-14
 70
     32
  0
VERTEX
  8
MY3DLAYER
10
112.00894414404618
20
75.72331127754985
30
8.343431240408005e-14
 70
     32
  0
VERTEX
  8
MY3DLAYER
10
112.72683189761005
20
75.94108014679577
30
8.301642337532965e-14
 70
     32
  0
VERTEX
  8
MY3DLAYER
10
113.47341023811347
20
76.01461169526803
30
8.287531951838263e-14
 70
     32
  0
VERTEX
  8
MY3DLAYER
10
136.83259465944747
20
76.01461169526803
30
6.770580108013383e-14
 70
     32
  0
VERTEX
  8
MY3DLAYER
10
137.2940744376538
20
75.98436471258518
30
6.770674536099684e-14
 70
     32
  0
VERTEX
  8
MY3DLAYER
10
137.74765816890857
20
75.89414129879637
30
6.765304726235558e-14
 70
     32
  0
VERTEX
  8
MY3DLAYER
10
138.18558490981297
20
75.74548520152622
30
6.754562557356573e-14
 70
     32
  0
VERTEX
  8
MY3DLAYER
10
138.60036161241382
20
75.54093996781425
30
6.738631830950532e-14
 70
     32
  0
VERTEX
  8
MY3DLAYER
10
138.9848913323319
20
75.28400542331994
30
6.71778512616308e-14
 70
     32
  0
VERTEX
  8
MY3DLAYER
10
139.33259465944747
20
74.97907778933528
30
6.692379135892934e-14
 70
     32
  0
VERTEX
  8
MY3DLAYER
10
139.6375222934321
20
74.63137446221968
30
6.662848563677476e-14
 70
     32
  0
VERTEX
  8
MY3DLAYER
10
139.89445683792647
20
74.24684474230165
30
6.629698685794739e-14
 70
     32
  0
VERTEX
  8
MY3DLAYER
10
140.0990020716384
20
73.83206803970077
30
6.593496705846184e-14
 70
     32
  0
VERTEX
  8
MY3DLAYER
10
140.24765816890854
20
73.39414129879637
30
6.554862049745808e-14
 70
     32
  0
VERTEX
  8
MY3DLAYER
10
140.33788158269738
20
72.94055756754157
30
6.514455767171047e-14
 70
     32
  0
SEQEND
  0
POLYLINE
 8
Layer0
 66
     1
70
    8
 10
0.0
 20
 0.0
 30
0.0
  0
VERTEX
  8
MY3DLAYER
10
83.02062748934391
20
22.20342851322475
30
1.4165349036400147e-13
 70
     32
  0
VERTEX
  8
MY3DLAYER
10
83.020627489344
20
45.56261293455876
30
1.387646756544257e-13
 70
     32
  0
VERTEX
  8
MY3DLAYER
10
83.09415903781625
20
46.309191275062204
30
1.3837341240477527e-13
 70
     32
  0
VERTEX
  8
MY3DLAYER
10
83.31192790706213
20
47.02707902862605
30
1.383689764152958e-13
 70
     32
  0
VERTEX
  8
MY3DLAYER
10
83.66556536156293
20
47.68868817147688
30
1.3875153815857495e-13
 70
     32
  0
VERTEX
  8
MY3DLAYER
10
84.14148131226388
20
48.268593435289716
30
1.3950639600136196e-13
 70
     32
  0
VERTEX
  8
MY3DLAYER
10
84.72138657607682
20
48.74450938599082
30
1.4060454118008746e-13
 70
     32
  0
VERTEX
  8
MY3DLAYER
10
85.38299571892759
20
49.09814684049144
30
1.4200377259138e-13
 70
     32
  0
VERTEX
  8
MY3DLAYER
10
86.10088347249159
20
49.315915709737304
30
1.4365031855680156e-13
 70
     32
  0
VERTEX
  8
MY3DLAYER
10
86.84746181299501
20
49.389447258209614
30
1.4548090323829458e-13
 70
     32
  0
VERTEX
  8
MY3DLAYER
10
87.59404015349834
20
49.315915709737396
30
1.4742517829315326e-13
 70
     32
  0
VERTEX
  8
MY3DLAYER
10
88.31192790706207
20
49.09814684049148
30
1.4940842632138108e-13
 70
     32
  0
VERTEX
  8
MY3DLAYER
10
88.9735370499131
20
48.74450938599082
30
1.5135443221347173e-13
 70
     32
  0
VERTEX
  8
MY3DLAYER
10
89.55344231372605
20
48.268593435289695
30
1.5318841205432476e-13
 70
     32
  0
VERTEX
  8
MY3DLAYER
10
91.94220036459792
20
45.87983538441746
30
1.241249680698979e-13
 70
     32
  0
VERTEX
  8
MY3DLAYER
10
112.621326317341
20
25.20070943167406
30
1.5647364520085384e-13
 70
     32
  0
VERTEX
  8
MY3DLAYER
10
113.09724226804248
20
24.620804167861117
30
1.570606489419393e-13
 70
     32
  0
VERTEX
  8
MY3DLAYER
10
113.45087972254292
20
23.959195025010438
30
1.5778126503349312e-13
 70
     32
  0
VERTEX
  8
MY3DLAYER
10
113.66864859178898
20
23.241307271446573
30
1.586078006032446e-13
 70
     32
  0
VERTEX
  8
MY3DLAYER
10
113.74218014026133
20
22.494728930943104
30
1.595084923527738e-13
 70
     32
  0
VERTEX
  8
MY3DLAYER
10
113.66864859178906
20
21.74815059043977
30
1.604487272032603e-13
 70
     32
  0
VERTEX
  8
MY3DLAYER
10
113.4508797225431
20
21.030262836875906
30
1.6139237245668966e-13
 70
     32
  0
VERTEX
  8
MY3DLAYER
10
113.0972422680424
20
20.368653694024957
30
1.6230316435517493e-13
 70
     32
  0
VERTEX
  8
MY3DLAYER
10
112.62132631734127
20
19.788748430212216
30
1.6314610167683511e-13
 70
     32
  0
VERTEX
  8
MY3DLAYER
10
112.04142105352841
20
19.312832479510845
30
1.6388879081312407e-13
 70
     32
  0
VERTEX
  8
MY3DLAYER
10
111.37981191067756
20
18.959195025010178
30
1.6450269063703862e-13
 70
     32
  0
VERTEX
  8
MY3DLAYER
10
110.66192415711365
20
18.741426155764398
30
1.649642093226246e-13
 70
     32
  0
VERTEX
  8
MY3DLAYER
10
109.91534581661023
20
18.667894607292006
30
1.6525561096561812e-13
 70
     32
  0
VERTEX
  8
MY3DLAYER
10
86.5561613952767
20
18.667894607292006
30
1.4356427530592113e-13
 70
     32
  0
VERTEX
  8
MY3DLAYER
10
86.09468161707042
20
18.698141589974874
30
1.4367464715974722e-13
 70
     32
  0
VERTEX
  8
MY3DLAYER
10
85.64109788581563
20
18.78836500376359
30
1.437326601506183e-13
 70
     32
  0
VERTEX
  8
MY3DLAYER
10
85.20317114491122
20
18.937021101033814
30
1.4373732166017628e-13
 70
     32
  0
VERTEX
  8
MY3DLAYER
10
84.7883944423103
20
19.14156633474573
30
1.436885519287002e-13
 70
     32
  0
VERTEX
  8
MY3DLAYER
10
84.4038647223923
20
19.398500879240043
30
1.4358718541981715e-13
 70
     32
  0
VERTEX
  8
MY3DLAYER
10
84.05616139527682
20
19.70342851322464
30
1.4343495654259819e-13
 70
     32
  0
VERTEX
  8
MY3DLAYER
10
83.75123376129208
20
20.05113184034033
30
1.4323446997533832e-13
 70
     32
  0
VERTEX
  8
MY3DLAYER
10
83.49429921679773
20
20.435661560258353
30
1.4298915609878892e-13
 70
     32
  0
VERTEX
  8
MY3DLAYER
10
83.2897539830858
20
20.850438262859228
30
1.4270321230139143e-13
 70
     32
  0
VERTEX
  8
MY3DLAYER
10
83.14109788581565
20
21.288365003763563
30
1.4238153116079795e-13
 70
     32
  0
VERTEX
  8
MY3DLAYER
10
83.05087447202682
20
21.741948735018475
30
1.4202961673051082e-13
 70
     32
  0
VERTEX
  8
MY3DLAYER
10
83.02062748934391
20
22.20342851322475
30
1.4165349036400147e-13
 70
     32
  0
SEQEND
  0
POLYLINE
 8
Layer0
 66
     1
70
    8
 10
0.0
 20
 0.0
 30
0.0
  0
VERTEX
  8
MY3DLAYER
10
76.02062748934406
20
45.56261293455876
30
1.2998165796638923e-13
 70
     32
  0
VERTEX
  8
MY3DLAYER
10
76.02062748934415
20
22.20342851322477
30
1.328704726759652e-13
 70
     32
  0
VERTEX
  8
MY3DLAYER
10
75.99038050666124
20
21.741948735018475
30
1.3320359093945347e-13
 70
     32
  0
VERTEX
  8
MY3DLAYER
10
75.90015709287249
20
21.28836500376363
30
1.3342721694124466e-13
 70
     32
  0
VERTEX
  8
MY3DLAYER
10
75.75150099560226
20
20.850438262859228
30
1.3353752437844707e-13
 70
     32
  0
VERTEX
  8
MY3DLAYER
10
75.54695576189033
20
20.435661560258353
30
1.3353262586022728e-13
 70
     32
  0
VERTEX
  8
MY3DLAYER
10
75.29002121739606
20
20.05113184034035
30
1.334126052015901e-13
 70
     32
  0
VERTEX
  8
MY3DLAYER
10
74.98509358341124
20
19.703428513224754
30
1.3317951598928076e-13
 70
     32
  0
VERTEX
  8
MY3DLAYER
10
74.63739025629576
20
19.39850087924013
30
1.3283734644434662e-13
 70
     32
  0
VERTEX
  8
MY3DLAYER
10
74.25286053637767
20
19.14156633474573
30
1.3239195118256855e-13
 70
     32
  0
VERTEX
  8
MY3DLAYER
10
73.83808383377675
20
18.937021101033814
30
1.3185095104036257e-13
 70
     32
  0
VERTEX
  8
MY3DLAYER
10
73.40015709287243
20
18.788365003763634
30
1.3122360268015553e-13
 70
     32
  0
VERTEX
  8
MY3DLAYER
10
72.94657336161764
20
18.698141589974895
30
1.305206402063243e-13
 70
     32
  0
VERTEX
  8
MY3DLAYER
10
72.48509358341127
20
18.667894607292048
30
1.2975409150169418e-13
 70
     32
  0
VERTEX
  8
MY3DLAYER
10
49.1259091620779
20
18.667894607292006
30
1.1823106589399592e-13
 70
     32
  0
VERTEX
  8
MY3DLAYER
10
48.379330821574435
20
18.74142615576433
30
1.168781065241305e-13
 70
     32
  0
VERTEX
  8
MY3DLAYER
10
47.66144306801057
20
18.9591950250102
30
1.1539582517978767e-13
 70
     32
  0
VERTEX
  8
MY3DLAYER
10
46.99983392515966
20
19.312832479510845
30
1.1384118510175753e-13
 70
     32
  0
VERTEX
  8
MY3DLAYER
10
46.4199286613468
20
19.788748430212237
30
1.1227393023638633e-13
 70
     32
  0
VERTEX
  8
MY3DLAYER
10
45.944012710645815
20
20.368653694024914
30
1.1075428930922415e-13
 70
     32
  0
VERTEX
  8
MY3DLAYER
10
45.59037525614507
20
21.030262836875814
30
1.0934066126887668e-13
 70
     32
  0
VERTEX
  8
MY3DLAYER
10
45.372606386899136
20
21.748150590439817
30
1.0808737104816334e-13
 70
     32
  0
VERTEX
  8
MY3DLAYER
10
45.29907483842681
20
22.494728930943104
30
1.0704258188741253e-13
 70
     32
  0
VERTEX
  8
MY3DLAYER
10
45.372606386899186
20
23.241307271446505
30
1.062464444481477e-13
 70
     32
  0
VERTEX
  8
MY3DLAYER
10
45.59037525614537
20
23.959195025010303
30
1.0572955384568052e-13
 70
     32
  0
VERTEX
  8
MY3DLAYER
10
45.94401271064559
20
24.620804167861117
30
1.055117738959883e-13
 70
     32
  0
VERTEX
  8
MY3DLAYER
10
46.41992866134707
20
25.200709431674017
30
1.0560147376040533e-13
 70
     32
  0
VERTEX
  8
MY3DLAYER
10
67.09905461409014
20
45.879835384417504
30
1.0265638999553899e-13
 70
     32
  0
VERTEX
  8
MY3DLAYER
10
69.48781266496218
20
48.268593435289695
30
1.351164026037228e-13
 70
     32
  0
VERTEX
  8
MY3DLAYER
10
70.06771792877504
20
48.74450938599079
30
1.34106988491952e-13
 70
     32
  0
VERTEX
  8
MY3DLAYER
10
70.72932707162589
20
49.09814684049137
30
1.3310172285397716e-13
 70
     32
  0
VERTEX
  8
MY3DLAYER
10
71.44721482518972
20
49.31591570973742
30
1.321392374845059e-13
 70
     32
  0
VERTEX
  8
MY3DLAYER
10
72.19379316569295
20
49.38944725820966
30
1.3125652015651925e-13
 70
     32
  0
VERTEX
  8
MY3DLAYER
10
72.94037150619657
20
49.315915709737396
30
1.3048749320189808e-13
 70
     32
  0
VERTEX
  8
MY3DLAYER
10
73.65825925976047
20
49.09814684049144
30
1.298617098952331e-13
 70
     32
  0
VERTEX
  8
MY3DLAYER
10
74.31986840261133
20
48.74450938599082
30
1.2940321873805644e-13
 70
     32
  0
VERTEX
  8
MY3DLAYER
10
74.89977366642418
20
48.26859343528974
30
1.2912963928841317e-13
 70
     32
  0
VERTEX
  8
MY3DLAYER
10
75.3756896171253
20
47.68868817147688
30
1.290514850511283e-13
 70
     32
  0
VERTEX
  8
MY3DLAYER
10
75.72932707162593
20
47.027079028625955
30
1.29171759449711e-13
 70
     32
  0
VERTEX
  8
MY3DLAYER
10
75.9470959408718
20
46.30919127506216
30
1.2948584040647463e-13
 70
     32
  0
VERTEX
  8
MY3DLAYER
10
76.02062748934406
20
45.56261293455876
30
1.2998165796638923e-13
 70
     32
  0
SEQEND
  0
POLYLINE
 8
Layer0
 66
     1
70
    8
 10
0.0
 20
 0.0
 30
0.0
  0
VERTEX
  8
MY3DLAYER
10
89.55344231372578
20
110.76062995524607
30
1.1863751741896665e-13
 70
     32
  0
VERTEX
  8
MY3DLAYER
10
88.97353704991293
20
110.28471400454514
30
1.1727814936069768e-13
 70
     32
  0
VERTEX
  8
MY3DLAYER
10
88.3119279070619
20
109.93107655004442
30
1.1566132687578627e-13
 70
     32
  0
VERTEX
  8
MY3DLAYER
10
87.59404015349826
20
109.7133076807986
30
1.1384918354560313e-13
 70
     32
  0
VERTEX
  8
MY3DLAYER
10
86.84746181299474
20
109.63977613232629
30
1.119113590220654e-13
 70
     32
  0
VERTEX
  8
MY3DLAYER
10
86.706973900385
20
109.65361298399391
30
9.475764420745431e-14
 70
     32
  0
VERTEX
  8
MY3DLAYER
10
86.10088347249122
20
109.71330768079851
30
1.0992232281486839e-13
 70
     32
  0
VERTEX
  8
MY3DLAYER
10
85.3829957189274
20
109.93107655004437
30
1.0795851246999018e-13
 70
     32
  0
VERTEX
  8
MY3DLAYER
10
84.72138657607655
20
110.28471400454504
30
1.060953961176669e-13
 70
     32
  0
VERTEX
  8
MY3DLAYER
10
84.14148131226378
20
110.7606299552462
30
1.0440457227447062e-13
 70
     32
  0
VERTEX
  8
MY3DLAYER
10
83.66556536156266
20
111.34053521905902
30
1.0295101835247036e-13
 70
     32
  0
VERTEX
  8
MY3DLAYER
10
83.31192790706194
20
112.00214436190983
30
1.0179059361372629e-13
 70
     32
  0
VERTEX
  8
MY3DLAYER
10
83.09415903781598
20
112.7200321154736
30
1.0096789253017466e-13
 70
     32
  0
VERTEX
  8
MY3DLAYER
10
83.02062748934372
20
113.46661045597708
30
1.005145310430802e-13
 70
     32
  0
VERTEX
  8
MY3DLAYER
10
83.02062748934382
20
136.8257948773111
30
7.721065947353903e-14
 70
     32
  0
VERTEX
  8
MY3DLAYER
10
83.05087447202665
20
137.28727465551742
30
7.707240701211875e-14
 70
     32
  0
VERTEX
  8
MY3DLAYER
10
83.14109788581547
20
137.74085838677226
30
7.692490196906831e-14
 70
     32
  0
VERTEX
  8
MY3DLAYER
10
83.28975398308563
20
138.17878512767666
30
7.677066819657026e-14
 70
     32
  0
VERTEX
  8
MY3DLAYER
10
83.49429921679764
20
138.59356183027745
30
7.661234467723371e-14
 70
     32
  0
VERTEX
  8
MY3DLAYER
10
83.7512337612919
20
138.9780915501956
30
7.645264037037014e-14
 70
     32
  0
VERTEX
  8
MY3DLAYER
10
84.05616139527655
20
139.32579487731113
30
7.629428786094835e-14
 70
     32
  0
VERTEX
  8
MY3DLAYER
10
84.40386472239213
20
139.63072251129586
30
7.613999660430818e-14
 70
     32
  0
VERTEX
  8
MY3DLAYER
10
84.78839444231012
20
139.88765705579016
30
7.599240656662821e-14
 70
     32
  0
VERTEX
  8
MY3DLAYER
10
85.20317114491104
20
140.0922022895021
30
7.585404305437309e-14
 70
     32
  0
VERTEX
  8
MY3DLAYER
10
85.64109788581544
20
140.2408583867723
30
7.572727350559902e-14
 70
     32
  0
VERTEX
  8
MY3DLAYER
10
86.09468161707025
20
140.33108180056112
30
7.561426698243265e-14
 70
     32
  0
VERTEX
  8
MY3DLAYER
10
86.55616139527652
20
140.36132878324395
30
7.55169570578166e-14
 70
     32
  0
VERTEX
  8
MY3DLAYER
10
109.91612980467023
20
140.3613287832439
30
9.626742959948844e-14
 70
     32
  0
VERTEX
  8
MY3DLAYER
10
110.66270814517357
20
140.2877972347714
30
9.646235790019326e-14
 70
     32
  0
VERTEX
  8
MY3DLAYER
10
111.38059589873748
20
140.07002836552536
30
9.674293980120441e-14
 70
     32
  0
VERTEX
  8
MY3DLAYER
10
112.04220504158816
20
139.71639091102506
30
9.709839269741803e-14
 70
     32
  0
VERTEX
  8
MY3DLAYER
10
112.6221103054012
20
139.24047496032358
30
9.751505673337348e-14
 70
     32
  0
VERTEX
  8
MY3DLAYER
10
113.09802625610232
20
138.66056969651112
30
9.79769197438361e-14
 70
     32
  0
VERTEX
  8
MY3DLAYER
10
113.45166371060303
20
137.99896055366017
30
9.846623259233044e-14
 70
     32
  0
VERTEX
  8
MY3DLAYER
10
113.66943257984882
20
137.2810728000964
30
9.896419126049784e-14
 70
     32
  0
VERTEX
  8
MY3DLAYER
10
113.74296412832098
20
136.53449445959288
30
9.945165947597943e-14
 70
     32
  0
VERTEX
  8
MY3DLAYER
10
113.66943257984899
20
135.78791611908963
30
9.990990410862982e-14
 70
     32
  0
VERTEX
  8
MY3DLAYER
10
113.45166371060303
20
135.07002836552556
30
1.0032131507420248e-13
 70
     32
  0
VERTEX
  8
MY3DLAYER
10
113.09802625610259
20
134.40841922267478
30
1.0067008208001255e-13
 70
     32
  0
VERTEX
  8
MY3DLAYER
10
112.6221103054012
20
133.82851395886226
30
1.0094280220561692e-13
 70
     32
  0
VERTEX
  8
MY3DLAYER
10
91.94220036459775
20
113.14938800611709
30
8.580363756181103e-14
 70
     32
  0
VERTEX
  8
MY3DLAYER
10
89.55344231372578
20
110.76062995524607
30
1.1863751741896665e-13
 70
     32
  0
SEQEND
  0
POLYLINE
 8
Layer0
 66
     1
70
    8
 10
0.0
 20
 0.0
 30
0.0
  0
VERTEX
  8
MY3DLAYER
10
72.33428107830325
20
109.65361298399391
30
7.460087354975828e-14
 70
     32
  0
VERTEX
  8
MY3DLAYER
10
72.19379316569278
20
109.63977613232629
30
9.619525559099244e-14
 70
     32
  0
VERTEX
  8
MY3DLAYER
10
71.44721482518953
20
109.71330768079847
30
9.691952139327523e-14
 70
     32
  0
VERTEX
  8
MY3DLAYER
10
70.72932707162562
20
109.93107655004432
30
9.756474238328967e-14
 70
     32
  0
VERTEX
  8
MY3DLAYER
10
70.06771792877477
20
110.28471400454495
30
9.810612308023385e-14
 70
     32
  0
VERTEX
  8
MY3DLAYER
10
69.48781266496191
20
110.76062995524616
30
9.852285852753381e-14
 70
     32
  0
VERTEX
  8
MY3DLAYER
10
67.09905461409058
20
113.14938800611722
30
4.289233489399531e-14
 70
     32
  0
VERTEX
  8
MY3DLAYER
10
46.42071264940684
20
133.82851395886192
30
4.620756368798544e-14
 70
     32
  0
VERTEX
  8
MY3DLAYER
10
45.94479669870616
20
134.40841922267478
30
4.543365898384179e-14
 70
     32
  0
VERTEX
  8
MY3DLAYER
10
45.5911592442055
20
135.07002836552542
30
4.48708352629107e-14
 70
     32
  0
VERTEX
  8
MY3DLAYER
10
45.373390374959534
20
135.78791611908923
30
4.45407215251523e-14
 70
     32
  0
VERTEX
  8
MY3DLAYER
10
45.299858826487146
20
136.53449445959302
30
4.44560038563788e-14
 70
     32
  0
VERTEX
  8
MY3DLAYER
10
45.37339037495936
20
137.28107280009635
30
4.461993790909116e-14
 70
     32
  0
VERTEX
  8
MY3DLAYER
10
45.591159244205365
20
137.99896055366023
30
4.502622378957914e-14
 70
     32
  0
VERTEX
  8
MY3DLAYER
10
45.94479669870576
20
138.66056969651098
30
4.5659248159302686e-14
 70
     32
  0
VERTEX
  8
MY3DLAYER
10
46.42071264940715
20
139.2404749603239
30
4.6494684246738357e-14
 70
     32
  0
VERTEX
  8
MY3DLAYER
10
47.00061791322022
20
139.71639091102506
30
4.7500426711563144e-14
 70
     32
  0
VERTEX
  8
MY3DLAYER
10
47.66222705607099
20
140.07002836552567
30
4.863782543488075e-14
 70
     32
  0
VERTEX
  8
MY3DLAYER
10
48.3801148096349
20
140.2877972347714
30
4.9863170821615273e-14
 70
     32
  0
VERTEX
  8
MY3DLAYER
10
49.126693150138365
20
140.36132878324375
30
5.1129373535735445e-14
 70
     32
  0
VERTEX
  8
MY3DLAYER
10
72.48509358341117
20
140.3613287832439
30
6.027436075017387e-14
 70
     32
  0
VERTEX
  8
MY3DLAYER
10
72.94657336161745
20
140.33108180056098
30
6.112180335228941e-14
 70
     32
  0
VERTEX
  8
MY3DLAYER
10
73.40015709287225
20
140.2408583867722
30
6.197210757486732e-14
 70
     32
  0
VERTEX
  8
MY3DLAYER
10
73.83808383377665
20
140.0922022895021
30
6.281072447691025e-14
 70
     32
  0
VERTEX
  8
MY3DLAYER
10
74.25286053637748
20
139.88765705579007
30
6.362330509071604e-14
 70
     32
  0
VERTEX
  8
MY3DLAYER
10
74.63739025629557
20
139.63072251129577
30
6.439594593669227e-14
 70
     32
  0
VERTEX
  8
MY3DLAYER
10
74.98509358341114
20
139.32579487731113
30
6.511542691574778e-14
 70
     32
  0
VERTEX
  8
MY3DLAYER
10
75.2900212173957
20
138.9780915501955
30
6.576943750885335e-14
 70
     32
  0
VERTEX
  8
MY3DLAYER
10
75.54695576189015
20
138.5935618302775
30
6.634678741343477e-14
 70
     32
  0
VERTEX
  8
MY3DLAYER
10
75.75150099560207
20
138.17878512767663
30
6.683759801255304e-14
 70
     32
  0
VERTEX
  8
MY3DLAYER
10
75.90015709287222
20
137.74085838677217
30
6.723347140077877e-14
 70
     32
  0
VERTEX
  8
MY3DLAYER
10
75.99038050666114
20
137.2872746555174
30
6.752763407468274e-14
 70
     32
  0
VERTEX
  8
MY3DLAYER
10
76.02062748934388
20
136.82579487731107
30
6.771505282935711e-14
 70
     32
  0
VERTEX
  8
MY3DLAYER
10
76.02062748934388
20
113.46661045597703
30
9.101892439889839e-14
 70
     32
  0
VERTEX
  8
MY3DLAYER
10
75.94709594087162
20
112.72003211547366
30
9.135276078448012e-14
 70
     32
  0
VERTEX
  8
MY3DLAYER
10
75.72932707162566
20
112.00214436190987
30
9.18214798461143e-14
 70
     32
  0
VERTEX
  8
MY3DLAYER
10
75.37568961712503
20
111.34053521905898
30
9.240706897312304e-14
 70
     32
  0
VERTEX
  8
MY3DLAYER
10
74.89977366642401
20
110.76062995524616
30
9.308702430375741e-14
 70
     32
  0
VERTEX
  8
MY3DLAYER
10
74.31986840261106
20
110.284714004545
30
9.383521553598464e-14
 70
     32
  0
VERTEX
  8
MY3DLAYER
10
73.6582592597603
20
109.93107655004432
30
9.462289010034065e-14
 70
     32
  0
VERTEX
  8
MY3DLAYER
10
72.94037150619639
20
109.71330768079847
30
9.541977810505031e-14
 70
     32
  0
VERTEX
  8
MY3DLAYER
10
72.33428107830325
20
109.65361298399391
30
7.460087354975828e-14
 70
     32
  0
SEQEND
 0
ENDSEC
 0
EOF
