 0
SECTION
 2
ENTITIES
  0
POLYLINE
 8
Layer0
 66
     1
70
    8
 10
0.0
 20
 0.0
 30
0.0
  0
VERTEX
  8
MY3DLAYER
10
91.9429843526573
20
40.87983538441729
30
6.171117968290004e-14
 70
     32
  0
VERTEX
  8
MY3DLAYER
10
133.26152684758117
20
4.561292889493318
30
2.2179616045666854e-14
 70
     32
  0
VERTEX
  8
MY3DLAYER
10
133.79474424267423
20
4.053627726967171
30
2.2179616045666854e-14
 70
     32
  0
VERTEX
  8
MY3DLAYER
10
134.35222930292468
20
3.5727378068505935
30
2.2179616045666854e-14
 70
     32
  0
VERTEX
  8
MY3DLAYER
10
134.93263899799285
20
3.1197816350819445
30
2.2179616045666854e-14
 70
     32
  0
VERTEX
  8
MY3DLAYER
10
135.5345750700854
20
2.695850422753433
30
2.2179616045666854e-14
 70
     32
  0
VERTEX
  8
MY3DLAYER
10
136.15658740248102
20
2.301965457287556
30
2.2179616045666854e-14
 70
     32
  0
VERTEX
  8
MY3DLAYER
10
136.79717751298955
20
1.9390756420663373
30
2.2179616045666854e-14
 70
     32
  0
VERTEX
  8
MY3DLAYER
10
137.45480216392525
20
1.6080552104399795
30
2.2179616045666854e-14
 70
     32
  0
VERTEX
  8
MY3DLAYER
10
138.12787707990321
20
1.3097016196223992
30
2.2179616045666854e-14
 70
     32
  0
VERTEX
  8
MY3DLAYER
10
138.81478076449616
20
1.0447336295463332
30
2.2179616045666854e-14
 70
     32
  0
VERTEX
  8
MY3DLAYER
10
139.51385840656263
20
0.813789571308535
30
2.2179616045666854e-14
 70
     32
  0
VERTEX
  8
MY3DLAYER
10
140.2234258668306
20
0.6174258093735611
30
2.2179616045666854e-14
 70
     32
  0
VERTEX
  8
MY3DLAYER
10
140.94177373513762
20
0.4561154012432498
30
2.2179616045666854e-14
 70
     32
  0
VERTEX
  8
MY3DLAYER
10
141.66717144854903
20
0.3302469578200126
30
2.2179616045666854e-14
 70
     32
  0
VERTEX
  8
MY3DLAYER
10
142.39787146043605
20
0.24012370720882376
30
2.2179616045666854e-14
 70
     32
  0
VERTEX
  8
MY3DLAYER
10
143.1321134504683
20
0.185962764214152
30
2.2179616045666854e-14
 70
     32
  0
VERTEX
  8
MY3DLAYER
10
143.86812856537955
20
0.16789460729176559
30
2.2179616045666854e-14
 70
     32
  0
VERTEX
  8
MY3DLAYER
10
144.60414368029078
20
0.18596276421424224
30
2.2179616045666854e-14
 70
     32
  0
VERTEX
  8
MY3DLAYER
10
145.33838567032288
20
0.24012370720891402
30
2.2179616045666854e-14
 70
     32
  0
VERTEX
  8
MY3DLAYER
10
146.06908568220987
20
0.3302469578201029
30
2.2179616045666854e-14
 70
     32
  0
VERTEX
  8
MY3DLAYER
10
146.79448339562128
20
0.45611540124334
30
2.2179616045666854e-14
 70
     32
  0
VERTEX
  8
MY3DLAYER
10
147.5128312639285
20
0.6174258093737416
30
2.2179616045666854e-14
 70
     32
  0
VERTEX
  8
MY3DLAYER
10
148.22239872419644
20
0.8137895713087155
30
2.2179616045666854e-14
 70
     32
  0
VERTEX
  8
MY3DLAYER
10
148.92147636626277
20
1.0447336295466039
30
2.2179616045666854e-14
 70
     32
  0
VERTEX
  8
MY3DLAYER
10
149.60838005085589
20
1.3097016196225797
30
2.2179616045666854e-14
 70
     32
  0
VERTEX
  8
MY3DLAYER
10
150.28145496683365
20
1.6080552104402501
30
2.2179616045666854e-14
 70
     32
  0
VERTEX
  8
MY3DLAYER
10
150.93907961776938
20
1.9390756420665178
30
2.2179616045666854e-14
 70
     32
  0
VERTEX
  8
MY3DLAYER
10
151.5796697282777
20
2.3019654572878268
30
2.2179616045666854e-14
 70
     32
  0
VERTEX
  8
MY3DLAYER
10
152.2016820606735
20
2.695850422753794
30
2.2179616045666854e-14
 70
     32
  0
VERTEX
  8
MY3DLAYER
10
152.80361813276585
20
3.1197816350823055
30
2.2179616045666854e-14
 70
     32
  0
VERTEX
  8
MY3DLAYER
10
153.38402782783405
20
3.5727378068508644
30
2.2179616045666854e-14
 70
     32
  0
VERTEX
  8
MY3DLAYER
10
153.94151288808467
20
4.053627726967532
30
2.2179616045666854e-14
 70
     32
  0
VERTEX
  8
MY3DLAYER
10
154.47473028317756
20
4.5612928894936795
30
2.2179616045666854e-14
 70
     32
  0
VERTEX
  8
MY3DLAYER
10
154.9823954457038
20
5.094510284586647
30
2.2179616045666854e-14
 70
     32
  0
VERTEX
  8
MY3DLAYER
10
155.46328536582047
20
5.651995344837279
30
2.2179616045666854e-14
 70
     32
  0
VERTEX
  8
MY3DLAYER
10
155.91624153758895
20
6.232405039905557
30
2.2179616045666854e-14
 70
     32
  0
VERTEX
  8
MY3DLAYER
10
156.34017274991746
20
6.8343411119979125
30
2.2179616045666854e-14
 70
     32
  0
VERTEX
  8
MY3DLAYER
10
156.73405771538333
20
7.4563534443937165
30
2.2179616045666854e-14
 70
     32
  0
VERTEX
  8
MY3DLAYER
10
157.09694753060472
20
8.096943554902046
30
2.2179616045666854e-14
 70
     32
  0
VERTEX
  8
MY3DLAYER
10
157.42796796223107
20
8.754568205837767
30
2.2179616045666854e-14
 70
     32
  0
VERTEX
  8
MY3DLAYER
10
157.72632155304856
20
9.427643121815718
30
2.2179616045666854e-14
 70
     32
  0
VERTEX
  8
MY3DLAYER
10
157.99128954312462
20
10.114546806408754
30
2.2179616045666854e-14
 70
     32
  0
VERTEX
  8
MY3DLAYER
10
158.22223360136252
20
10.813624448475055
30
2.2179616045666854e-14
 70
     32
  0
VERTEX
  8
MY3DLAYER
10
158.4185973632975
20
11.523191908743115
30
2.2179616045666854e-14
 70
     32
  0
VERTEX
  8
MY3DLAYER
10
158.5799077714277
20
12.241539777050127
30
2.2179616045666854e-14
 70
     32
  0
VERTEX
  8
MY3DLAYER
10
158.70577621485106
20
12.96693749046165
30
2.2179616045666854e-14
 70
     32
  0
VERTEX
  8
MY3DLAYER
10
158.79589946546233
20
13.697637502348574
30
2.2179616045666854e-14
 70
     32
  0
VERTEX
  8
MY3DLAYER
10
158.8500604084568
20
14.431879492380752
30
2.2179616045666854e-14
 70
     32
  0
VERTEX
  8
MY3DLAYER
10
158.8681285653792
20
15.167894607292078
30
2.2179616045666854e-14
 70
     32
  0
VERTEX
  8
MY3DLAYER
10
158.8500604084568
20
15.903909722203313
30
2.2179616045666854e-14
 70
     32
  0
VERTEX
  8
MY3DLAYER
10
158.79589946546216
20
16.638151712235494
30
2.2179616045666854e-14
 70
     32
  0
VERTEX
  8
MY3DLAYER
10
158.70577621485086
20
17.368851724122507
30
2.2179616045666854e-14
 70
     32
  0
VERTEX
  8
MY3DLAYER
10
158.5799077714277
20
18.09424943753401
30
2.2179616045666854e-14
 70
     32
  0
VERTEX
  8
MY3DLAYER
10
158.41859736329732
20
18.812597305841017
30
2.2179616045666854e-14
 70
     32
  0
VERTEX
  8
MY3DLAYER
10
158.22223360136235
20
19.522164766108986
30
2.2179616045666854e-14
 70
     32
  0
VERTEX
  8
MY3DLAYER
10
157.99128954312445
20
20.221242408175378
30
2.2179616045666854e-14
 70
     32
  0
VERTEX
  8
MY3DLAYER
10
157.7263215530484
20
20.908146092768412
30
2.2179616045666854e-14
 70
     32
  0
VERTEX
  8
MY3DLAYER
10
157.42796796223072
20
21.581221008746272
30
2.2179616045666854e-14
 70
     32
  0
VERTEX
  8
MY3DLAYER
10
157.09694753060435
20
22.238845659682084
30
2.2179616045666854e-14
 70
     32
  0
VERTEX
  8
MY3DLAYER
10
156.73405771538313
20
22.879435770190415
30
2.2179616045666854e-14
 70
     32
  0
VERTEX
  8
MY3DLAYER
10
156.34017274991726
20
23.501448102586036
30
2.2179616045666854e-14
 70
     32
  0
VERTEX
  8
MY3DLAYER
10
155.91624153758875
20
24.103384174678574
30
2.2179616045666854e-14
 70
     32
  0
VERTEX
  8
MY3DLAYER
10
155.4632853658201
20
24.683793869746673
30
2.2179616045666854e-14
 70
     32
  0
VERTEX
  8
MY3DLAYER
10
154.98239544570345
20
25.241278929997303
30
2.2179616045666854e-14
 70
     32
  0
VERTEX
  8
MY3DLAYER
10
154.4747302831772
20
25.774496325090183
30
2.2179616045666854e-14
 70
     32
  0
VERTEX
  8
MY3DLAYER
10
118.15618778825343
20
67.09303882001414
30
6.171117968290004e-14
 70
     32
  0
VERTEX
  8
MY3DLAYER
10
117.86281987442214
20
67.40580583573377
30
6.13933018152149e-14
 70
     32
  0
VERTEX
  8
MY3DLAYER
10
117.57701579148026
20
67.72549938456075
30
6.106838422958017e-14
 70
     32
  0
VERTEX
  8
MY3DLAYER
10
117.29893902635322
20
68.05193659396616
30
6.07366127868015e-14
 70
     32
  0
VERTEX
  8
MY3DLAYER
10
117.02874864575212
20
68.38493073388219
30
6.039817726825868e-14
 70
     32
  0
VERTEX
  8
MY3DLAYER
10
116.76659920518274
20
68.72429132351658
30
6.005327126734574e-14
 70
     32
  0
VERTEX
  8
MY3DLAYER
10
116.51264066053665
20
69.0698242403119
30
5.970209207873077e-14
 70
     32
  0
VERTEX
  8
MY3DLAYER
10
116.26701828231282
20
69.42133183098889
30
5.934484058549885e-14
 70
     32
  0
VERTEX
  8
MY3DLAYER
10
116.02987257251893
20
69.77861302460848
30
5.89817211442417e-14
 70
     32
  0
VERTEX
  8
MY3DLAYER
10
115.80133918430116
20
70.1414634475894
30
5.861294146816084e-14
 70
     32
  0
VERTEX
  8
MY3DLAYER
10
115.58154884434683
20
70.50967554061556
30
5.823871250825054e-14
 70
     32
  0
VERTEX
  8
MY3DLAYER
10
115.37062727810614
20
70.88303867736366
30
5.785924833262874e-14
 70
     32
  0
VERTEX
  8
MY3DLAYER
10
115.16869513787364
20
71.26133928498798
30
5.747476600408479e-14
 70
     32
  0
VERTEX
  8
MY3DLAYER
10
114.97586793377239
20
71.64436096628857
30
5.708548545591424e-14
 70
     32
  0
VERTEX
  8
MY3DLAYER
10
114.79225596767922
20
72.0318846234959
30
5.669162936611166e-14
 70
     32
  0
VERTEX
  8
MY3DLAYER
10
114.6179642701296
20
72.42368858359974
30
5.6293423029993194e-14
 70
     32
  0
VERTEX
  8
MY3DLAYER
10
114.4530925402372
20
72.81954872515244
30
5.5891094231322424e-14
 70
     32
  0
VERTEX
  8
MY3DLAYER
10
114.29773508866406
20
73.2192386064711
30
5.54848731120123e-14
 70
     32
  0
VERTEX
  8
MY3DLAYER
10
114.15198078367212
20
73.62252959516809
30
5.507499204047844e-14
 70
     32
  0
VERTEX
  8
MY3DLAYER
10
114.01591300028862
20
74.02919099893418
30
5.466168547871856e-14
 70
     32
  0
VERTEX
  8
MY3DLAYER
10
113.88960957261375
20
74.4389901975002
30
5.424518984819451e-14
 70
     32
  0
VERTEX
  8
MY3DLAYER
10
113.77314274929716
20
74.85169277570195
30
5.382574339459361e-14
 70
     32
  0
VERTEX
  8
MY3DLAYER
10
113.6665791522103
20
75.2670626575708
30
5.340358605154605e-14
 70
     32
  0
VERTEX
  8
MY3DLAYER
10
113.56997973833705
20
75.6848622413753
30
5.2978959303377265e-14
 70
     32
  0
VERTEX
  8
MY3DLAYER
10
113.4833997649047
20
76.104852535535
30
5.2552106046972515e-14
 70
     32
  0
VERTEX
  8
MY3DLAYER
10
113.40688875777563
20
76.52679329532947
30
5.2123270452834446e-14
 70
     32
  0
VERTEX
  8
MY3DLAYER
10
113.34049048311743
20
76.95044316032447
30
5.169269782541133e-14
 70
     32
  0
VERTEX
  8
MY3DLAYER
10
113.2842429223668
20
77.37555979243547
30
5.126063446277692e-14
 70
     32
  0
VERTEX
  8
MY3DLAYER
10
113.2381782505045
20
77.80190001455169
30
5.082732751574199e-14
 70
     32
  0
VERTEX
  8
MY3DLAYER
10
113.20232281764939
20
78.2292199496385
30
5.0393024846478e-14
 70
     32
  0
VERTEX
  8
MY3DLAYER
10
113.1766971339859
20
78.65727516024178
30
4.9957974886733995e-14
 70
     32
  0
VERTEX
  8
MY3DLAYER
10
113.16131585803191
20
79.08582078831171
30
4.9522426495727253e-14
 70
     32
  0
VERTEX
  8
MY3DLAYER
10
113.15618778825349
20
79.51461169526782
30
4.9086628817790085e-14
 70
     32
  0
VERTEX
  8
MY3DLAYER
10
113.16131585803191
20
79.94340260222383
30
4.8650831139852835e-14
 70
     32
  0
VERTEX
  8
MY3DLAYER
10
113.1766971339859
20
80.37194823029384
30
4.821528274884609e-14
 70
     32
  0
VERTEX
  8
MY3DLAYER
10
113.20232281764939
20
80.80000344089703
30
4.778023278910209e-14
 70
     32
  0
VERTEX
  8
MY3DLAYER
10
113.23817825050459
20
81.22732337598394
30
4.7345930119838185e-14
 70
     32
  0
VERTEX
  8
MY3DLAYER
10
113.28424292236689
20
81.65366359810008
30
4.6912623172803257e-14
 70
     32
  0
VERTEX
  8
MY3DLAYER
10
113.34049048311743
20
82.07878023021117
30
4.648055981016884e-14
 70
     32
  0
VERTEX
  8
MY3DLAYER
10
113.40688875777572
20
82.50243009520617
30
4.6049987182745724e-14
 70
     32
  0
VERTEX
  8
MY3DLAYER
10
113.48339976490479
20
82.92437085500062
30
4.5621151588607656e-14
 70
     32
  0
VERTEX
  8
MY3DLAYER
10
113.56997973833705
20
83.34436114916024
30
4.519429833220291e-14
 70
     32
  0
VERTEX
  8
MY3DLAYER
10
113.6665791522103
20
83.76216073296465
30
4.4769671584034046e-14
 70
     32
  0
VERTEX
  8
MY3DLAYER
10
113.77314274929716
20
84.1775306148335
30
4.434751424098656e-14
 70
     32
  0
VERTEX
  8
MY3DLAYER
10
113.88960957261384
20
84.59023319303535
30
4.392806778738566e-14
 70
     32
  0
VERTEX
  8
MY3DLAYER
10
114.0159130002887
20
85.00003239160145
30
4.351157215686161e-14
 70
     32
  0
VERTEX
  8
MY3DLAYER
10
114.15198078367212
20
85.40669379536745
30
4.309826559510173e-14
 70
     32
  0
VERTEX
  8
MY3DLAYER
10
114.29773508866414
20
85.80998478406435
30
4.2688384523567797e-14
 70
     32
  0
VERTEX
  8
MY3DLAYER
10
114.45309254023728
20
86.209674665383
30
4.2282163404257747e-14
 70
     32
  0
VERTEX
  8
MY3DLAYER
10
114.6179642701297
20
86.6055348069358
30
4.187983460558698e-14
 70
     32
  0
VERTEX
  8
MY3DLAYER
10
114.79225596767932
20
86.99733876703974
30
4.148162826946851e-14
 70
     32
  0
VERTEX
  8
MY3DLAYER
10
114.97586793377248
20
87.38486242424688
30
4.108777217966585e-14
 70
     32
  0
VERTEX
  8
MY3DLAYER
10
115.16869513787374
20
87.76788410554747
30
4.06984916314953e-14
 70
     32
  0
VERTEX
  8
MY3DLAYER
10
115.37062727810623
20
88.14618471317189
30
4.031400930295135e-14
 70
     32
  0
VERTEX
  8
MY3DLAYER
10
115.58154884434693
20
88.51954784992007
30
3.993454512732955e-14
 70
     32
  0
VERTEX
  8
MY3DLAYER
10
115.80133918430124
20
88.88775994294605
30
3.9560316167419253e-14
 70
     32
  0
VERTEX
  8
MY3DLAYER
10
116.02987257251911
20
89.25061036592714
30
3.919153649133847e-14
 70
     32
  0
VERTEX
  8
MY3DLAYER
10
116.2670182823129
20
89.60789155954666
30
3.882841705008124e-14
 70
     32
  0
VERTEX
  8
MY3DLAYER
10
116.51264066053673
20
89.95939915022355
30
3.847116555684932e-14
 70
     32
  0
VERTEX
  8
MY3DLAYER
10
116.76659920518274
20
90.30493206701897
30
3.8119986368234435e-14
 70
     32
  0
VERTEX
  8
MY3DLAYER
10
117.0287486457522
20
90.64429265665335
30
3.7775080367321405e-14
 70
     32
  0
VERTEX
  8
MY3DLAYER
10
117.29893902635341
20
90.97728679656947
30
3.7436644848778666e-14
 70
     32
  0
VERTEX
  8
MY3DLAYER
10
117.57701579148035
20
91.30372400597479
30
3.7104873406e-14
 70
     32
  0
VERTEX
  8
MY3DLAYER
10
117.86281987442223
20
91.62341755480176
30
3.677995582036527e-14
 70
     32
  0
VERTEX
  8
MY3DLAYER
10
118.15618778825352
20
91.9361845705214
30
3.646207795268013e-14
 70
     32
  0
VERTEX
  8
MY3DLAYER
10
154.47473028317737
20
133.25472706544562
30
5.136598699851545e-14
 70
     32
  0
VERTEX
  8
MY3DLAYER
10
154.98239544570362
20
133.78794446053868
30
5.136598699851545e-14
 70
     32
  0
VERTEX
  8
MY3DLAYER
10
155.46328536582027
20
134.34542952078914
30
5.136598699851545e-14
 70
     32
  0
VERTEX
  8
MY3DLAYER
10
155.91624153758895
20
134.92583921585734
30
5.136598699851545e-14
 70
     32
  0
VERTEX
  8
MY3DLAYER
10
156.34017274991746
20
135.52777528794985
30
5.136598699851545e-14
 70
     32
  0
VERTEX
  8
MY3DLAYER
10
156.73405771538333
20
136.14978762034548
30
5.136598699851545e-14
 70
     32
  0
VERTEX
  8
MY3DLAYER
10
157.09694753060455
20
136.79037773085392
30
5.136598699851545e-14
 70
     32
  0
VERTEX
  8
MY3DLAYER
10
157.4279679622309
20
137.44800238178954
30
5.136598699851545e-14
 70
     32
  0
VERTEX
  8
MY3DLAYER
10
157.72632155304856
20
138.1210772977675
30
5.136598699851545e-14
 70
     32
  0
VERTEX
  8
MY3DLAYER
10
157.99128954312462
20
138.80798098236062
30
5.136598699851545e-14
 70
     32
  0
VERTEX
  8
MY3DLAYER
10
158.22223360136252
20
139.50705862442692
30
5.136598699851545e-14
 70
     32
  0
VERTEX
  8
MY3DLAYER
10
158.4185973632975
20
140.2166260846949
30
5.136598699851545e-14
 70
     32
  0
VERTEX
  8
MY3DLAYER
10
158.5799077714277
20
140.9349739530019
30
5.136598699851545e-14
 70
     32
  0
VERTEX
  8
MY3DLAYER
10
158.70577621485106
20
141.6603716664134
30
5.136598699851545e-14
 70
     32
  0
VERTEX
  8
MY3DLAYER
10
158.79589946546233
20
142.39107167830042
30
5.136598699851545e-14
 70
     32
  0
VERTEX
  8
MY3DLAYER
10
158.8500604084568
20
143.12531366833258
30
5.136598699851545e-14
 70
     32
  0
VERTEX
  8
MY3DLAYER
10
158.86812856537938
20
143.86132878324383
30
5.136598699851545e-14
 70
     32
  0
VERTEX
  8
MY3DLAYER
10
158.8500604084568
20
144.59734389815506
30
5.136598699851545e-14
 70
     32
  0
VERTEX
  8
MY3DLAYER
10
158.79589946546233
20
145.33158588818713
30
5.136598699851545e-14
 70
     32
  0
VERTEX
  8
MY3DLAYER
10
158.70577621485106
20
146.06228590007424
30
5.136598699851545e-14
 70
     32
  0
VERTEX
  8
MY3DLAYER
10
158.5799077714277
20
146.78768361348577
30
5.136598699851545e-14
 70
     32
  0
VERTEX
  8
MY3DLAYER
10
158.4185973632975
20
147.50603148179275
30
5.136598699851545e-14
 70
     32
  0
VERTEX
  8
MY3DLAYER
10
158.22223360136252
20
148.21559894206072
30
5.136598699851545e-14
 70
     32
  0
VERTEX
  8
MY3DLAYER
10
157.99128954312462
20
148.91467658412702
30
5.136598699851545e-14
 70
     32
  0
VERTEX
  8
MY3DLAYER
10
157.72632155304856
20
149.60158026872017
30
5.136598699851545e-14
 70
     32
  0
VERTEX
  8
MY3DLAYER
10
157.4279679622309
20
150.27465518469802
30
5.136598699851545e-14
 70
     32
  0
VERTEX
  8
MY3DLAYER
10
157.09694753060472
20
150.93227983563384
30
5.136598699851545e-14
 70
     32
  0
VERTEX
  8
MY3DLAYER
10
156.7340577153835
20
151.57286994614216
30
5.136598699851545e-14
 70
     32
  0
VERTEX
  8
MY3DLAYER
10
156.34017274991746
20
152.19488227853788
30
5.136598699851545e-14
 70
     32
  0
VERTEX
  8
MY3DLAYER
10
155.91624153758912
20
152.79681835063033
30
5.136598699851545e-14
 70
     32
  0
VERTEX
  8
MY3DLAYER
10
155.46328536582047
20
153.3772280456985
30
5.136598699851545e-14
 70
     32
  0
VERTEX
  8
MY3DLAYER
10
154.9823954457038
20
153.93471310594913
30
5.136598699851545e-14
 70
     32
  0
VERTEX
  8
MY3DLAYER
10
154.47473028317756
20
154.46793050104202
30
5.136598699851545e-14
 70
     32
  0
VERTEX
  8
MY3DLAYER
10
153.94151288808467
20
154.97559566356824
30
5.136598699851545e-14
 70
     32
  0
VERTEX
  8
MY3DLAYER
10
153.38402782783405
20
155.45648558368492
30
5.136598699851545e-14
 70
     32
  0
VERTEX
  8
MY3DLAYER
10
152.80361813276585
20
155.90944175545357
30
5.136598699851545e-14
 70
     32
  0
VERTEX
  8
MY3DLAYER
10
152.2016820606735
20
156.33337296778208
30
5.136598699851545e-14
 70
     32
  0
VERTEX
  8
MY3DLAYER
10
151.5796697282777
20
156.72725793324796
30
5.136598699851545e-14
 70
     32
  0
VERTEX
  8
MY3DLAYER
10
150.93907961776938
20
157.09014774846918
30
5.136598699851545e-14
 70
     32
  0
VERTEX
  8
MY3DLAYER
10
150.28145496683365
20
157.42116818009555
30
5.136598699851545e-14
 70
     32
  0
VERTEX
  8
MY3DLAYER
10
149.6083800508557
20
157.71952177091322
30
5.136598699851545e-14
 70
     32
  0
VERTEX
  8
MY3DLAYER
10
148.92147636626277
20
157.9844897609892
30
5.136598699851545e-14
 70
     32
  0
VERTEX
  8
MY3DLAYER
10
148.22239872419644
20
158.21543381922706
30
5.136598699851545e-14
 70
     32
  0
VERTEX
  8
MY3DLAYER
10
147.5128312639283
20
158.41179758116203
30
5.136598699851545e-14
 70
     32
  0
VERTEX
  8
MY3DLAYER
10
146.79448339562128
20
158.57310798929237
30
5.136598699851545e-14
 70
     32
  0
VERTEX
  8
MY3DLAYER
10
146.06908568220987
20
158.69897643271568
30
5.136598699851545e-14
 70
     32
  0
VERTEX
  8
MY3DLAYER
10
145.33838567032288
20
158.78909968332695
30
5.136598699851545e-14
 70
     32
  0
VERTEX
  8
MY3DLAYER
10
144.60414368029078
20
158.84326062632155
30
5.136598699851545e-14
 70
     32
  0
VERTEX
  8
MY3DLAYER
10
143.86812856537935
20
158.86132878324392
30
5.136598699851545e-14
 70
     32
  0
VERTEX
  8
MY3DLAYER
10
143.13211345046813
20
158.84326062632155
30
5.136598699851545e-14
 70
     32
  0
VERTEX
  8
MY3DLAYER
10
142.39787146043605
20
158.78909968332695
30
5.136598699851545e-14
 70
     32
  0
VERTEX
  8
MY3DLAYER
10
141.66717144854903
20
158.69897643271568
30
5.136598699851545e-14
 70
     32
  0
VERTEX
  8
MY3DLAYER
10
140.94177373513742
20
158.57310798929245
30
5.136598699851545e-14
 70
     32
  0
VERTEX
  8
MY3DLAYER
10
140.22342586683044
20
158.41179758116215
30
5.136598699851545e-14
 70
     32
  0
VERTEX
  8
MY3DLAYER
10
139.51385840656246
20
158.21543381922717
30
5.136598699851545e-14
 70
     32
  0
VERTEX
  8
MY3DLAYER
10
138.81478076449616
20
157.98448976098928
30
5.136598699851545e-14
 70
     32
  0
VERTEX
  8
MY3DLAYER
10
138.12787707990302
20
157.71952177091322
30
5.136598699851545e-14
 70
     32
  0
VERTEX
  8
MY3DLAYER
10
137.45480216392508
20
157.42116818009563
30
5.136598699851545e-14
 70
     32
  0
VERTEX
  8
MY3DLAYER
10
136.79717751298935
20
157.09014774846935
30
5.136598699851545e-14
 70
     32
  0
VERTEX
  8
MY3DLAYER
10
136.15658740248102
20
156.72725793324804
30
5.136598699851545e-14
 70
     32
  0
VERTEX
  8
MY3DLAYER
10
135.5345750700854
20
156.33337296778217
30
5.136598699851545e-14
 70
     32
  0
VERTEX
  8
MY3DLAYER
10
134.93263899799285
20
155.90944175545374
30
5.136598699851545e-14
 70
     32
  0
VERTEX
  8
MY3DLAYER
10
134.35222930292468
20
155.4564855836851
30
5.136598699851545e-14
 70
     32
  0
VERTEX
  8
MY3DLAYER
10
133.79474424267406
20
154.97559566356844
30
5.136598699851545e-14
 70
     32
  0
VERTEX
  8
MY3DLAYER
10
133.26152684758117
20
154.4679305010422
30
5.136598699851545e-14
 70
     32
  0
VERTEX
  8
MY3DLAYER
10
91.9429843526572
20
118.14938800611803
30
3.646207795268013e-14
 70
     32
  0
VERTEX
  8
MY3DLAYER
10
91.63021733693758
20
117.85602009228673
30
3.691957176673358e-14
 70
     32
  0
VERTEX
  8
MY3DLAYER
10
91.31052378811069
20
117.57021600934486
30
3.738719723115366e-14
 70
     32
  0
VERTEX
  8
MY3DLAYER
10
90.98408657870527
20
117.29213924421782
30
3.786468685273745e-14
 70
     32
  0
VERTEX
  8
MY3DLAYER
10
90.65109243878916
20
117.0219488636167
30
3.8351767495743075e-14
 70
     32
  0
VERTEX
  8
MY3DLAYER
10
90.31173184915487
20
116.75979942304733
30
3.8848160538129737e-14
 70
     32
  0
VERTEX
  8
MY3DLAYER
10
89.96619893235945
20
116.50584087840133
30
3.935358203093659e-14
 70
     32
  0
VERTEX
  8
MY3DLAYER
10
89.61469134168257
20
116.2602185001775
30
3.9867742860708085e-14
 70
     32
  0
VERTEX
  8
MY3DLAYER
10
89.25741014806299
20
116.02307279038352
30
4.039034891487437e-14
 70
     32
  0
VERTEX
  8
MY3DLAYER
10
88.89455972508188
20
115.79453940216575
30
4.092110124999056e-14
 70
     32
  0
VERTEX
  8
MY3DLAYER
10
88.5263476320559
20
115.57474906221142
30
4.1459696262739975e-14
 70
     32
  0
VERTEX
  8
MY3DLAYER
10
88.15298449530772
20
115.36382749597082
30
4.2005825863602456e-14
 70
     32
  0
VERTEX
  8
MY3DLAYER
10
87.7746838876833
20
115.16189535573824
30
4.255917765308904e-14
 70
     32
  0
VERTEX
  8
MY3DLAYER
10
87.39166220638273
20
114.96906815163707
30
4.31194351004424e-14
 70
     32
  0
VERTEX
  8
MY3DLAYER
10
87.0041385491756
20
114.78545618554382
30
4.3686277724699815e-14
 70
     32
  0
VERTEX
  8
MY3DLAYER
10
86.61233458907168
20
114.61116448799429
30
4.425938127801659e-14
 70
     32
  0
VERTEX
  8
MY3DLAYER
10
86.21647444751898
20
114.44629275810188
30
4.48384179311433e-14
 70
     32
  0
VERTEX
  8
MY3DLAYER
10
85.81678456620033
20
114.29093530652865
30
4.542305646095234e-14
 70
     32
  0
VERTEX
  8
MY3DLAYER
10
85.41349357750333
20
114.14518100153671
30
4.6012962439905615e-14
 70
     32
  0
VERTEX
  8
MY3DLAYER
10
85.00683217373732
20
114.0091132181533
30
4.6607798427355306e-14
 70
     32
  0
VERTEX
  8
MY3DLAYER
10
84.59703297517122
20
113.88280979047843
30
4.720722416256821e-14
 70
     32
  0
VERTEX
  8
MY3DLAYER
10
84.18433039696947
20
113.76634296716176
30
4.7810896759363e-14
 70
     32
  0
VERTEX
  8
MY3DLAYER
10
83.76896051510062
20
113.65977937007489
30
4.841847090224991e-14
 70
     32
  0
VERTEX
  8
MY3DLAYER
10
83.3511609312962
20
113.56317995620165
30
4.902959904395912e-14
 70
     32
  0
VERTEX
  8
MY3DLAYER
10
82.9311706371365
20
113.47659998276939
30
4.964393160424669e-14
 70
     32
  0
VERTEX
  8
MY3DLAYER
10
82.50922987734204
20
113.40008897564041
30
5.026111716986296e-14
 70
     32
  0
VERTEX
  8
MY3DLAYER
10
82.08558001234704
20
113.33369070098203
30
5.088080269556922e-14
 70
     32
  0
VERTEX
  8
MY3DLAYER
10
81.66046338023605
20
113.27744314023157
30
5.150263370608858e-14
 70
     32
  0
VERTEX
  8
MY3DLAYER
10
81.23412315811981
20
113.23137846836919
30
5.2126254498874444e-14
 70
     32
  0
VERTEX
  8
MY3DLAYER
10
80.806803223033
20
113.19552303551397
30
5.27513083475809e-14
 70
     32
  0
VERTEX
  8
MY3DLAYER
10
80.37874801242972
20
113.1698973518505
30
5.337743770611887e-14
 70
     32
  0
VERTEX
  8
MY3DLAYER
10
79.9502023843598
20
113.1545160758966
30
5.400428441318164e-14
 70
     32
  0
VERTEX
  8
MY3DLAYER
10
79.52141147740369
20
113.14938800611807
30
5.4631489897121235e-14
 70
     32
  0
VERTEX
  8
MY3DLAYER
10
79.09262057044768
20
113.1545160758966
30
5.525869538106091e-14
 70
     32
  0
VERTEX
  8
MY3DLAYER
10
78.66407494237767
20
113.1698973518505
30
5.58855420881236e-14
 70
     32
  0
VERTEX
  8
MY3DLAYER
10
78.23601973177448
20
113.19552303551407
30
5.651167144666157e-14
 70
     32
  0
VERTEX
  8
MY3DLAYER
10
77.80869979668758
20
113.23137846836919
30
5.713672529536804e-14
 70
     32
  0
VERTEX
  8
MY3DLAYER
10
77.38235957457142
20
113.27744314023157
30
5.776034608815389e-14
 70
     32
  0
VERTEX
  8
MY3DLAYER
10
76.95724294246035
20
113.33369070098212
30
5.838217709867326e-14
 70
     32
  0
VERTEX
  8
MY3DLAYER
10
76.53359307746544
20
113.40008897564041
30
5.900186262437951e-14
 70
     32
  0
VERTEX
  8
MY3DLAYER
10
76.11165231767089
20
113.47659998276939
30
5.961904818999578e-14
 70
     32
  0
VERTEX
  8
MY3DLAYER
10
75.69166202351136
20
113.56317995620174
30
6.023338075028336e-14
 70
     32
  0
VERTEX
  8
MY3DLAYER
10
75.27386243970686
20
113.65977937007507
30
6.084450889199256e-14
 70
     32
  0
VERTEX
  8
MY3DLAYER
10
74.858492557838
20
113.76634296716195
30
6.145208303487947e-14
 70
     32
  0
VERTEX
  8
MY3DLAYER
10
74.44578997963626
20
113.88280979047852
30
6.205575563167426e-14
 70
     32
  0
VERTEX
  8
MY3DLAYER
10
74.03599078107015
20
114.0091132181534
30
6.265518136688718e-14
 70
     32
  0
VERTEX
  8
MY3DLAYER
10
73.62932937730406
20
114.1451810015369
30
6.325001735433685e-14
 70
     32
  0
VERTEX
  8
MY3DLAYER
10
73.22603838860717
20
114.29093530652882
30
6.383992333329014e-14
 70
     32
  0
VERTEX
  8
MY3DLAYER
10
72.8263485072885
20
114.44629275810196
30
6.442456186309909e-14
 70
     32
  0
VERTEX
  8
MY3DLAYER
10
72.43048836573571
20
114.61116448799439
30
6.50035985162258e-14
 70
     32
  0
VERTEX
  8
MY3DLAYER
10
72.03868440563186
20
114.785456185544
30
6.557670206954258e-14
 70
     32
  0
VERTEX
  8
MY3DLAYER
10
71.65116074842463
20
114.96906815163726
30
6.614354469380008e-14
 70
     32
  0
VERTEX
  8
MY3DLAYER
10
71.26813906712404
20
115.16189535573842
30
6.670380214115336e-14
 70
     32
  0
VERTEX
  8
MY3DLAYER
10
70.88983845949971
20
115.36382749597101
30
6.725715393063993e-14
 70
     32
  0
VERTEX
  8
MY3DLAYER
10
70.51647532275153
20
115.5747490622117
30
6.780328353150241e-14
 70
     32
  0
VERTEX
  8
MY3DLAYER
10
70.14826322972546
20
115.79453940216592
30
6.834187854425184e-14
 70
     32
  0
VERTEX
  8
MY3DLAYER
10
69.78541280674445
20
116.0230727903838
30
6.887263087936802e-14
 70
     32
  0
VERTEX
  8
MY3DLAYER
10
69.42813161312495
20
116.26021850017767
30
6.939523693353431e-14
 70
     32
  0
VERTEX
  8
MY3DLAYER
10
69.07662402244796
20
116.5058408784015
30
6.99093977633058e-14
 70
     32
  0
VERTEX
  8
MY3DLAYER
10
68.73109110565264
20
116.75979942304751
30
7.041481925611258e-14
 70
     32
  0
VERTEX
  8
MY3DLAYER
10
68.39173051601824
20
117.02194886361697
30
7.091121229849932e-14
 70
     32
  0
VERTEX
  8
MY3DLAYER
10
68.05873637610222
20
117.29213924421819
30
7.139829294150494e-14
 70
     32
  0
VERTEX
  8
MY3DLAYER
10
67.73229916669682
20
117.57021600934513
30
7.187578256308866e-14
 70
     32
  0
VERTEX
  8
MY3DLAYER
10
67.41260561786983
20
117.85602009228701
30
7.234340802750866e-14
 70
     32
  0
VERTEX
  8
MY3DLAYER
10
67.09983860215029
20
118.1493880061182
30
7.280090184156218e-14
 70
     32
  0
VERTEX
  8
MY3DLAYER
10
25.78129610722639
20
154.46793050104202
30
1.0789330890174418e-13
 70
     32
  0
VERTEX
  8
MY3DLAYER
10
25.24807871213342
20
154.97559566356807
30
1.0789330890174418e-13
 70
     32
  0
VERTEX
  8
MY3DLAYER
10
24.690593651882867
20
155.45648558368475
30
1.0789330890174418e-13
 70
     32
  0
VERTEX
  8
MY3DLAYER
10
24.11018395681468
20
155.9094417554534
30
1.0789330890174418e-13
 70
     32
  0
VERTEX
  8
MY3DLAYER
10
23.50824788472214
20
156.3333729677819
30
1.0789330890174418e-13
 70
     32
  0
VERTEX
  8
MY3DLAYER
10
22.886235552326518
20
156.72725793324778
30
1.0789330890174418e-13
 70
     32
  0
VERTEX
  8
MY3DLAYER
10
22.24564544181801
20
157.0901477484691
30
1.0789330890174418e-13
 70
     32
  0
VERTEX
  8
MY3DLAYER
10
21.58802079088238
20
157.42116818009535
30
1.0789330890174418e-13
 70
     32
  0
VERTEX
  8
MY3DLAYER
10
20.914945874904518
20
157.71952177091302
30
1.0789330890174418e-13
 70
     32
  0
VERTEX
  8
MY3DLAYER
10
20.228042190311392
20
157.9844897609891
30
1.0789330890174418e-13
 70
     32
  0
VERTEX
  8
MY3DLAYER
10
19.528964548245092
20
158.2154338192269
30
1.0789330890174418e-13
 70
     32
  0
VERTEX
  8
MY3DLAYER
10
18.81939708797712
20
158.41179758116195
30
1.0789330890174418e-13
 70
     32
  0
VERTEX
  8
MY3DLAYER
10
18.101049219670028
20
158.57310798929217
30
1.0789330890174418e-13
 70
     32
  0
VERTEX
  8
MY3DLAYER
10
17.37565150625852
20
158.6989764327155
30
1.0789330890174418e-13
 70
     32
  0
VERTEX
  8
MY3DLAYER
10
16.644951494371508
20
158.7890996833266
30
1.0789330890174418e-13
 70
     32
  0
VERTEX
  8
MY3DLAYER
10
15.910709504339419
20
158.84326062632127
30
1.0789330890174418e-13
 70
     32
  0
VERTEX
  8
MY3DLAYER
10
15.174694389428183
20
158.86132878324366
30
1.0789330890174418e-13
 70
     32
  0
VERTEX
  8
MY3DLAYER
10
14.438679274516948
20
158.84326062632127
30
1.0789330890174418e-13
 70
     32
  0
VERTEX
  8
MY3DLAYER
10
13.704437284484769
20
158.7890996833266
30
1.0789330890174418e-13
 70
     32
  0
VERTEX
  8
MY3DLAYER
10
12.973737272597754
20
158.6989764327155
30
1.0789330890174418e-13
 70
     32
  0
VERTEX
  8
MY3DLAYER
10
12.24833955918624
20
158.57310798929217
30
1.0789330890174418e-13
 70
     32
  0
VERTEX
  8
MY3DLAYER
10
11.529991690879234
20
158.41179758116186
30
1.0789330890174418e-13
 70
     32
  0
VERTEX
  8
MY3DLAYER
10
10.820424230611172
20
158.2154338192269
30
1.0789330890174418e-13
 70
     32
  0
VERTEX
  8
MY3DLAYER
10
10.12134658854487
20
157.9844897609891
30
1.0789330890174418e-13
 70
     32
  0
VERTEX
  8
MY3DLAYER
10
9.434442903951835
20
157.71952177091302
30
1.0789330890174418e-13
 70
     32
  0
VERTEX
  8
MY3DLAYER
10
8.761367987973884
20
157.42116818009535
30
1.0789330890174418e-13
 70
     32
  0
VERTEX
  8
MY3DLAYER
10
8.103743337038162
20
157.090147748469
30
1.0789330890174418e-13
 70
     32
  0
VERTEX
  8
MY3DLAYER
10
7.463153226529834
20
156.72725793324778
30
1.0789330890174418e-13
 70
     32
  0
VERTEX
  8
MY3DLAYER
10
6.841140894134121
20
156.3333729677819
30
1.0789330890174418e-13
 70
     32
  0
VERTEX
  8
MY3DLAYER
10
6.239204822041674
20
155.9094417554534
30
1.0789330890174418e-13
 70
     32
  0
VERTEX
  8
MY3DLAYER
10
5.658795126973486
20
155.45648558368475
30
1.0789330890174418e-13
 70
     32
  0
VERTEX
  8
MY3DLAYER
10
5.101310066722855
20
154.97559566356807
30
1.0789330890174418e-13
 70
     32
  0
VERTEX
  8
MY3DLAYER
10
4.568092671629977
20
154.46793050104202
30
1.0789330890174418e-13
 70
     32
  0
VERTEX
  8
MY3DLAYER
10
4.060427509103739
20
153.93471310594896
30
1.0789330890174418e-13
 70
     32
  0
VERTEX
  8
MY3DLAYER
10
3.5795375889870713
20
153.37722804569842
30
1.0789330890174418e-13
 70
     32
  0
VERTEX
  8
MY3DLAYER
10
3.1265814172185125
20
152.79681835063013
30
1.0789330890174418e-13
 70
     32
  0
VERTEX
  8
MY3DLAYER
10
2.7026502048899106
20
152.1948822785378
30
1.0789330890174418e-13
 70
     32
  0
VERTEX
  8
MY3DLAYER
10
2.308765239424034
20
151.572869946142
30
1.0789330890174418e-13
 70
     32
  0
VERTEX
  8
MY3DLAYER
10
1.9458754242028153
20
150.93227983563364
30
1.0789330890174418e-13
 70
     32
  0
VERTEX
  8
MY3DLAYER
10
1.6148549925764573
20
150.27465518469793
30
1.0789330890174418e-13
 70
     32
  0
VERTEX
  8
MY3DLAYER
10
1.3165014017587868
20
149.60158026872006
30
1.0789330890174418e-13
 70
     32
  0
VERTEX
  8
MY3DLAYER
10
1.0515334116829014
20
148.91467658412702
30
1.0789330890174418e-13
 70
     32
  0
VERTEX
  8
MY3DLAYER
10
0.820589353445013
20
148.21559894206072
30
1.0789330890174418e-13
 70
     32
  0
VERTEX
  8
MY3DLAYER
10
0.6242255915100391
20
147.50603148179258
30
1.0789330890174418e-13
 70
     32
  0
VERTEX
  8
MY3DLAYER
10
0.4629151833796375
20
146.78768361348557
30
1.0789330890174418e-13
 70
     32
  0
VERTEX
  8
MY3DLAYER
10
0.3370467399564004
20
146.06228590007416
30
1.0789330890174418e-13
 70
     32
  0
VERTEX
  8
MY3DLAYER
10
0.24692348934512126
20
145.33158588818713
30
1.0789330890174418e-13
 70
     32
  0
VERTEX
  8
MY3DLAYER
10
0.19276254635053974
20
144.59734389815506
30
1.0789330890174418e-13
 70
     32
  0
VERTEX
  8
MY3DLAYER
10
0.17469438942815332
20
143.86132878324364
30
1.0789330890174418e-13
 70
     32
  0
VERTEX
  8
MY3DLAYER
10
0.19276254635053974
20
143.1253136683324
30
1.0789330890174418e-13
 70
     32
  0
VERTEX
  8
MY3DLAYER
10
0.2469234893452115
20
142.3910716783003
30
1.0789330890174418e-13
 70
     32
  0
VERTEX
  8
MY3DLAYER
10
0.3370467399564004
20
141.6603716664133
30
1.0789330890174418e-13
 70
     32
  0
VERTEX
  8
MY3DLAYER
10
0.4629151833796375
20
140.9349739530018
30
1.0789330890174418e-13
 70
     32
  0
VERTEX
  8
MY3DLAYER
10
0.6242255915099488
20
140.2166260846947
30
1.0789330890174418e-13
 70
     32
  0
VERTEX
  8
MY3DLAYER
10
0.820589353445013
20
139.50705862442675
30
1.0789330890174418e-13
 70
     32
  0
VERTEX
  8
MY3DLAYER
10
1.0515334116829014
20
138.80798098236042
30
1.0789330890174418e-13
 70
     32
  0
VERTEX
  8
MY3DLAYER
10
1.3165014017587868
20
138.1210772977673
30
1.0789330890174418e-13
 70
     32
  0
VERTEX
  8
MY3DLAYER
10
1.6148549925764573
20
137.44800238178954
30
1.0789330890174418e-13
 70
     32
  0
VERTEX
  8
MY3DLAYER
10
1.9458754242028153
20
136.79037773085372
30
1.0789330890174418e-13
 70
     32
  0
VERTEX
  8
MY3DLAYER
10
2.308765239424034
20
136.1497876203453
30
1.0789330890174418e-13
 70
     32
  0
VERTEX
  8
MY3DLAYER
10
2.7026502048899106
20
135.52777528794968
30
1.0789330890174418e-13
 70
     32
  0
VERTEX
  8
MY3DLAYER
10
3.1265814172184223
20
134.92583921585714
30
1.0789330890174418e-13
 70
     32
  0
VERTEX
  8
MY3DLAYER
10
3.5795375889870713
20
134.34542952078905
30
1.0789330890174418e-13
 70
     32
  0
VERTEX
  8
MY3DLAYER
10
4.060427509103739
20
133.78794446053843
30
1.0789330890174418e-13
 70
     32
  0
VERTEX
  8
MY3DLAYER
10
4.568092671629977
20
133.25472706544545
30
1.0789330890174418e-13
 70
     32
  0
VERTEX
  8
MY3DLAYER
10
40.88663516655386
20
91.93618457052176
30
7.280090184156218e-14
 70
     32
  0
VERTEX
  8
MY3DLAYER
10
41.18000308038515
20
91.62341755480213
30
7.361606717460742e-14
 70
     32
  0
VERTEX
  8
MY3DLAYER
10
41.46580716332702
20
91.30372400597514
30
7.444928514550612e-14
 70
     32
  0
VERTEX
  8
MY3DLAYER
10
41.74388392845397
20
90.97728679656983
30
7.530007913320033e-14
 70
     32
  0
VERTEX
  8
MY3DLAYER
10
42.01407430905509
20
90.64429265665372
30
7.616796246272032e-14
 70
     32
  0
VERTEX
  8
MY3DLAYER
10
42.27622374962455
20
90.30493206701932
30
7.705243868357519e-14
 70
     32
  0
VERTEX
  8
MY3DLAYER
10
42.530182294270645
20
89.95939915022392
30
7.795300185373406e-14
 70
     32
  0
VERTEX
  8
MY3DLAYER
10
42.77580467249447
20
89.60789155954693
30
7.886913682903776e-14
 70
     32
  0
VERTEX
  8
MY3DLAYER
10
43.01295038228827
20
89.25061036592741
30
7.98003195578737e-14
 70
     32
  0
VERTEX
  8
MY3DLAYER
10
43.241483770506136
20
88.8877599429464
30
8.074601738094627e-14
 70
     32
  0
VERTEX
  8
MY3DLAYER
10
43.461274110460366
20
88.51954784992034
30
8.170568933597092e-14
 70
     32
  0
VERTEX
  8
MY3DLAYER
10
43.67219567670114
20
88.14618471317216
30
8.267878646711781e-14
 70
     32
  0
VERTEX
  8
MY3DLAYER
10
43.87412781693355
20
87.76788410554782
30
8.366475213902801e-14
 70
     32
  0
VERTEX
  8
MY3DLAYER
10
44.06695502103489
20
87.38486242424725
30
8.466302235522254e-14
 70
     32
  0
VERTEX
  8
MY3DLAYER
10
44.25056698712797
20
86.99733876703992
30
8.567302608072216e-14
 70
     32
  0
VERTEX
  8
MY3DLAYER
10
44.42485868467768
20
86.60553480693598
30
8.669418556869345e-14
 70
     32
  0
VERTEX
  8
MY3DLAYER
10
44.589730414570006
20
86.20967466538336
30
8.772591669093376e-14
 70
     32
  0
VERTEX
  8
MY3DLAYER
10
44.74508786614324
20
85.80998478406462
30
8.876762927200732e-14
 70
     32
  0
VERTEX
  8
MY3DLAYER
10
44.89084217113517
20
85.40669379536763
30
8.981872742683956e-14
 70
     32
  0
VERTEX
  8
MY3DLAYER
10
45.02690995451857
20
85.00003239160164
30
9.087860990157843e-14
 70
     32
  0
VERTEX
  8
MY3DLAYER
10
45.15321338219354
20
84.59023319303552
30
9.194667041752573e-14
 70
     32
  0
VERTEX
  8
MY3DLAYER
10
45.269680205510205
20
84.17753061483377
30
9.302229801794397e-14
 70
     32
  0
VERTEX
  8
MY3DLAYER
10
45.37624380259708
20
83.76216073296483
30
9.410487741753812e-14
 70
     32
  0
VERTEX
  8
MY3DLAYER
10
45.472843216470324
20
83.34436114916042
30
9.519378935441391e-14
 70
     32
  0
VERTEX
  8
MY3DLAYER
10
45.55942318990259
20
82.9243708550008
30
9.628841094431119e-14
 70
     32
  0
VERTEX
  8
MY3DLAYER
10
45.63593419703156
20
82.50243009520625
30
9.738811603690816e-14
 70
     32
  0
VERTEX
  8
MY3DLAYER
10
45.70233247168994
20
82.07878023021134
30
9.849227557399557e-14
 70
     32
  0
VERTEX
  8
MY3DLAYER
10
45.75858003244049
20
81.65366359810017
30
9.96002579493128e-14
 70
     32
  0
VERTEX
  8
MY3DLAYER
10
45.80464470430278
20
81.22732337598411
30
1.0071142936984216e-13
 70
     32
  0
VERTEX
  8
MY3DLAYER
10
45.840500137157996
20
80.80000344089721
30
1.0182515421835426e-13
 70
     32
  0
VERTEX
  8
MY3DLAYER
10
45.86612582082147
20
80.37194823029394
30
1.0294079541699654e-13
 70
     32
  0
VERTEX
  8
MY3DLAYER
10
45.881507096775465
20
79.94340260222393
30
1.0405771479171688e-13
 70
     32
  0
VERTEX
  8
MY3DLAYER
10
45.886635166553894
20
79.5146116952679
30
1.0517527343731573e-13
 70
     32
  0
VERTEX
  8
MY3DLAYER
10
45.881507096775465
20
79.08582078831189
30
1.0629283208291452e-13
 70
     32
  0
VERTEX
  8
MY3DLAYER
10
45.86612582082147
20
78.65727516024188
30
1.0740975145763494e-13
 70
     32
  0
VERTEX
  8
MY3DLAYER
10
45.840500137157996
20
78.22921994963859
30
1.0852539265627713e-13
 70
     32
  0
VERTEX
  8
MY3DLAYER
10
45.80464470430278
20
77.80190001455169
30
1.096391175047893e-13
 70
     32
  0
VERTEX
  8
MY3DLAYER
10
45.75858003244049
20
77.37555979243555
30
1.1075028892531866e-13
 70
     32
  0
VERTEX
  8
MY3DLAYER
10
45.70233247168994
20
76.95044316032447
30
1.1185827130063583e-13
 70
     32
  0
VERTEX
  8
MY3DLAYER
10
45.63593419703165
20
76.52679329532947
30
1.1296243083772324e-13
 70
     32
  0
VERTEX
  8
MY3DLAYER
10
45.559423189902674
20
76.104852535535
30
1.1406213593032027e-13
 70
     32
  0
VERTEX
  8
MY3DLAYER
10
45.472843216470324
20
75.68486224137538
30
1.1515675752021747e-13
 70
     32
  0
VERTEX
  8
MY3DLAYER
10
45.37624380259708
20
75.26706265757089
30
1.1624566945709335e-13
 70
     32
  0
VERTEX
  8
MY3DLAYER
10
45.269680205510205
20
74.85169277570203
30
1.173282488566875e-13
 70
     32
  0
VERTEX
  8
MY3DLAYER
10
45.15321338219354
20
74.4389901975002
30
1.1840387645710573e-13
 70
     32
  0
VERTEX
  8
MY3DLAYER
10
45.026909954518665
20
74.02919099893418
30
1.1947193697305303e-13
 70
     32
  0
VERTEX
  8
MY3DLAYER
10
44.89084217113526
20
73.62252959516809
30
1.2053181944779186e-13
 70
     32
  0
VERTEX
  8
MY3DLAYER
10
44.74508786614332
20
73.2192386064711
30
1.2158291760262417e-13
 70
     32
  0
VERTEX
  8
MY3DLAYER
10
44.58973041457009
20
72.81954872515244
30
1.2262463018369773e-13
 70
     32
  0
VERTEX
  8
MY3DLAYER
10
44.42485868467768
20
72.42368858359974
30
1.2365636130593802e-13
 70
     32
  0
VERTEX
  8
MY3DLAYER
10
44.250566987128146
20
72.0318846234958
30
1.2467752079390933e-13
 70
     32
  0
VERTEX
  8
MY3DLAYER
10
44.06695502103489
20
71.64436096628857
30
1.2568752451940895e-13
 70
     32
  0
VERTEX
  8
MY3DLAYER
10
43.87412781693373
20
71.26133928498798
30
1.2668579473560356e-13
 70
     32
  0
VERTEX
  8
MY3DLAYER
10
43.67219567670114
20
70.88303867736356
30
1.2767176040751374e-13
 70
     32
  0
VERTEX
  8
MY3DLAYER
10
43.46127411046055
20
70.50967554061546
30
1.2864485753866055e-13
 70
     32
  0
VERTEX
  8
MY3DLAYER
10
43.24148377050622
20
70.1414634475894
30
1.2960452949368522e-13
 70
     32
  0
VERTEX
  8
MY3DLAYER
10
43.012950382288444
20
69.7786130246083
30
1.305502273167578e-13
 70
     32
  0
VERTEX
  8
MY3DLAYER
10
42.77580467249447
20
69.42133183098879
30
1.314814100455938e-13
 70
     32
  0
VERTEX
  8
MY3DLAYER
10
42.530182294270645
20
69.0698242403118
30
1.323975450208975e-13
 70
     32
  0
VERTEX
  8
MY3DLAYER
10
42.27622374962464
20
68.7242913235164
30
1.3329810819105637e-13
 70
     32
  0
VERTEX
  8
MY3DLAYER
10
42.01407430905527
20
68.3849307338821
30
1.3418258441191126e-13
 70
     32
  0
VERTEX
  8
MY3DLAYER
10
41.74388392845405
20
68.05193659396598
30
1.3505046774143122e-13
 70
     32
  0
VERTEX
  8
MY3DLAYER
10
41.46580716332711
20
67.72549938456058
30
1.3590126172912543e-13
 70
     32
  0
VERTEX
  8
MY3DLAYER
10
41.18000308038515
20
67.4058058357336
30
1.3673447970002423e-13
 70
     32
  0
VERTEX
  8
MY3DLAYER
10
40.886635166553944
20
67.09303882001404
30
1.375496450330694e-13
 70
     32
  0
VERTEX
  8
MY3DLAYER
10
4.568092671630067
20
25.774496325090183
30
1.0345649597136553e-13
 70
     32
  0
VERTEX
  8
MY3DLAYER
10
4.06042750910383
20
25.241278929997215
30
1.0345649597136553e-13
 70
     32
  0
VERTEX
  8
MY3DLAYER
10
3.579537588987252
20
24.683793869746584
30
1.0345649597136553e-13
 70
     32
  0
VERTEX
  8
MY3DLAYER
10
3.126581417218603
20
24.103384174678393
30
1.0345649597136553e-13
 70
     32
  0
VERTEX
  8
MY3DLAYER
10
2.7026502048900913
20
23.501448102585947
30
1.0345649597136553e-13
 70
     32
  0
VERTEX
  8
MY3DLAYER
10
2.3087652394242144
20
22.879435770190234
30
1.0345649597136553e-13
 70
     32
  0
VERTEX
  8
MY3DLAYER
10
1.9458754242029055
20
22.238845659681903
30
1.0345649597136553e-13
 70
     32
  0
VERTEX
  8
MY3DLAYER
10
1.6148549925766378
20
21.581221008746184
30
1.0345649597136553e-13
 70
     32
  0
VERTEX
  8
MY3DLAYER
10
1.3165014017589673
20
20.908146092768323
30
1.0345649597136553e-13
 70
     32
  0
VERTEX
  8
MY3DLAYER
10
1.0515334116829014
20
20.221242408175197
30
1.0345649597136553e-13
 70
     32
  0
VERTEX
  8
MY3DLAYER
10
0.8205893534451033
20
19.522164766108894
30
1.0345649597136553e-13
 70
     32
  0
VERTEX
  8
MY3DLAYER
10
0.6242255915100391
20
18.812597305840924
30
1.0345649597136553e-13
 70
     32
  0
VERTEX
  8
MY3DLAYER
10
0.46291518337981796
20
18.094249437533833
30
1.0345649597136553e-13
 70
     32
  0
VERTEX
  8
MY3DLAYER
10
0.3370467399564906
20
17.368851724122415
30
1.0345649597136553e-13
 70
     32
  0
VERTEX
  8
MY3DLAYER
10
0.2469234893452115
20
16.638151712235402
30
1.0345649597136553e-13
 70
     32
  0
VERTEX
  8
MY3DLAYER
10
0.19276254635062998
20
15.903909722203222
30
1.0345649597136553e-13
 70
     32
  0
VERTEX
  8
MY3DLAYER
10
0.17469438942824356
20
15.167894607291988
30
1.0345649597136553e-13
 70
     32
  0
VERTEX
  8
MY3DLAYER
10
0.19276254635062998
20
14.431879492380752
30
1.0345649597136553e-13
 70
     32
  0
VERTEX
  8
MY3DLAYER
10
0.24692348934530176
20
13.697637502348574
30
1.0345649597136553e-13
 70
     32
  0
VERTEX
  8
MY3DLAYER
10
0.3370467399564906
20
12.966937490461559
30
1.0345649597136553e-13
 70
     32
  0
VERTEX
  8
MY3DLAYER
10
0.46291518337972776
20
12.241539777050036
30
1.0345649597136553e-13
 70
     32
  0
VERTEX
  8
MY3DLAYER
10
0.6242255915100391
20
11.523191908743025
30
1.0345649597136553e-13
 70
     32
  0
VERTEX
  8
MY3DLAYER
10
0.820589353445013
20
10.813624448474965
30
1.0345649597136553e-13
 70
     32
  0
VERTEX
  8
MY3DLAYER
10
1.0515334116829014
20
10.114546806408663
30
1.0345649597136553e-13
 70
     32
  0
VERTEX
  8
MY3DLAYER
10
1.316501401758877
20
9.427643121815628
30
1.0345649597136553e-13
 70
     32
  0
VERTEX
  8
MY3DLAYER
10
1.6148549925765476
20
8.754568205837767
30
1.0345649597136553e-13
 70
     32
  0
VERTEX
  8
MY3DLAYER
10
1.9458754242028153
20
8.096943554901955
30
1.0345649597136553e-13
 70
     32
  0
VERTEX
  8
MY3DLAYER
10
2.308765239424034
20
7.456353444393626
30
1.0345649597136553e-13
 70
     32
  0
VERTEX
  8
MY3DLAYER
10
2.7026502048900007
20
6.8343411119979125
30
1.0345649597136553e-13
 70
     32
  0
VERTEX
  8
MY3DLAYER
10
3.1265814172185125
20
6.2324050399054665
30
1.0345649597136553e-13
 70
     32
  0
VERTEX
  8
MY3DLAYER
10
3.5795375889870713
20
5.6519953448371885
30
1.0345649597136553e-13
 70
     32
  0
VERTEX
  8
MY3DLAYER
10
4.060427509103739
20
5.094510284586557
30
1.0345649597136553e-13
 70
     32
  0
VERTEX
  8
MY3DLAYER
10
4.568092671629887
20
4.5612928894936795
30
1.0345649597136553e-13
 70
     32
  0
VERTEX
  8
MY3DLAYER
10
5.101310066722855
20
4.053627726967442
30
1.0345649597136553e-13
 70
     32
  0
VERTEX
  8
MY3DLAYER
10
5.658795126973486
20
3.5727378068508644
30
1.0345649597136553e-13
 70
     32
  0
VERTEX
  8
MY3DLAYER
10
6.239204822041674
20
3.1197816350823055
30
1.0345649597136553e-13
 70
     32
  0
VERTEX
  8
MY3DLAYER
10
6.841140894134121
20
2.6958504227537032
30
1.0345649597136553e-13
 70
     32
  0
VERTEX
  8
MY3DLAYER
10
7.463153226529834
20
2.3019654572878268
30
1.0345649597136553e-13
 70
     32
  0
VERTEX
  8
MY3DLAYER
10
8.103743337038162
20
1.9390756420665178
30
1.0345649597136553e-13
 70
     32
  0
VERTEX
  8
MY3DLAYER
10
8.761367987973884
20
1.6080552104401598
30
1.0345649597136553e-13
 70
     32
  0
VERTEX
  8
MY3DLAYER
10
9.434442903951744
20
1.3097016196225797
30
1.0345649597136553e-13
 70
     32
  0
VERTEX
  8
MY3DLAYER
10
10.121346588544782
20
1.0447336295466039
30
1.0345649597136553e-13
 70
     32
  0
VERTEX
  8
MY3DLAYER
10
10.820424230611172
20
0.8137895713087155
30
1.0345649597136553e-13
 70
     32
  0
VERTEX
  8
MY3DLAYER
10
11.529991690879234
20
0.6174258093737416
30
1.0345649597136553e-13
 70
     32
  0
VERTEX
  8
MY3DLAYER
10
12.24833955918624
20
0.45611540124343025
30
1.0345649597136553e-13
 70
     32
  0
VERTEX
  8
MY3DLAYER
10
12.973737272597665
20
0.3302469578201931
30
1.0345649597136553e-13
 70
     32
  0
VERTEX
  8
MY3DLAYER
10
13.704437284484678
20
0.24012370720891402
30
1.0345649597136553e-13
 70
     32
  0
VERTEX
  8
MY3DLAYER
10
14.438679274516767
20
0.18596276421424224
30
1.0345649597136553e-13
 70
     32
  0
VERTEX
  8
MY3DLAYER
10
15.174694389428183
20
0.16789460729185582
30
1.0345649597136553e-13
 70
     32
  0
VERTEX
  8
MY3DLAYER
10
15.910709504339419
20
0.18596276421424224
30
1.0345649597136553e-13
 70
     32
  0
VERTEX
  8
MY3DLAYER
10
16.644951494371508
20
0.24012370720891402
30
1.0345649597136553e-13
 70
     32
  0
VERTEX
  8
MY3DLAYER
10
17.37565150625852
20
0.3302469578201029
30
1.0345649597136553e-13
 70
     32
  0
VERTEX
  8
MY3DLAYER
10
18.101049219670028
20
0.45611540124334
30
1.0345649597136553e-13
 70
     32
  0
VERTEX
  8
MY3DLAYER
10
18.81939708797712
20
0.6174258093736513
30
1.0345649597136553e-13
 70
     32
  0
VERTEX
  8
MY3DLAYER
10
19.528964548245092
20
0.8137895713086253
30
1.0345649597136553e-13
 70
     32
  0
VERTEX
  8
MY3DLAYER
10
20.22804219031148
20
1.0447336295465137
30
1.0345649597136553e-13
 70
     32
  0
VERTEX
  8
MY3DLAYER
10
20.914945874904518
20
1.3097016196224893
30
1.0345649597136553e-13
 70
     32
  0
VERTEX
  8
MY3DLAYER
10
21.58802079088238
20
1.6080552104401598
30
1.0345649597136553e-13
 70
     32
  0
VERTEX
  8
MY3DLAYER
10
22.2456454418181
20
1.9390756420665178
30
1.0345649597136553e-13
 70
     32
  0
VERTEX
  8
MY3DLAYER
10
22.886235552326518
20
2.3019654572877366
30
1.0345649597136553e-13
 70
     32
  0
VERTEX
  8
MY3DLAYER
10
23.50824788472214
20
2.695850422753613
30
1.0345649597136553e-13
 70
     32
  0
VERTEX
  8
MY3DLAYER
10
24.11018395681468
20
3.119781635082125
30
1.0345649597136553e-13
 70
     32
  0
VERTEX
  8
MY3DLAYER
10
24.690593651882867
20
3.5727378068506837
30
1.0345649597136553e-13
 70
     32
  0
VERTEX
  8
MY3DLAYER
10
25.24807871213351
20
4.053627726967442
30
1.0345649597136553e-13
 70
     32
  0
VERTEX
  8
MY3DLAYER
10
25.78129610722639
20
4.561292889493499
30
1.0345649597136553e-13
 70
     32
  0
VERTEX
  8
MY3DLAYER
10
67.0998386021502
20
40.87983538441747
30
1.375496450330694e-13
 70
     32
  0
VERTEX
  8
MY3DLAYER
10
67.41260561786983
20
41.17320329824867
30
1.3659486375365576e-13
 70
     32
  0
VERTEX
  8
MY3DLAYER
10
67.73229916669682
20
41.45900738119064
30
1.3561893790397178e-13
 70
     32
  0
VERTEX
  8
MY3DLAYER
10
68.05873637610222
20
41.737084146317486
30
1.3462242573747243e-13
 70
     32
  0
VERTEX
  8
MY3DLAYER
10
68.39173051601824
20
42.00727452691879
30
1.3360589728348957e-13
 70
     32
  0
VERTEX
  8
MY3DLAYER
10
68.73109110565264
20
42.269423967488166
30
1.3256993402116107e-13
 70
     32
  0
VERTEX
  8
MY3DLAYER
10
69.07662402244796
20
42.52338251213417
30
1.315151285468103e-13
 70
     32
  0
VERTEX
  8
MY3DLAYER
10
69.42813161312495
20
42.769004890358
30
1.3044208423496703e-13
 70
     32
  0
VERTEX
  8
MY3DLAYER
10
69.78541280674445
20
43.00615060015188
30
1.2935141489322196e-13
 70
     32
  0
VERTEX
  8
MY3DLAYER
10
70.14826322972546
20
43.234683988369746
30
1.28243744411114e-13
 70
     32
  0
VERTEX
  8
MY3DLAYER
10
70.51647532275162
20
43.45447432832398
30
1.271197064032502e-13
 70
     32
  0
VERTEX
  8
MY3DLAYER
10
70.88983845949971
20
43.66539589456467
30
1.2597994384686273e-13
 70
     32
  0
VERTEX
  8
MY3DLAYER
10
71.26813906712404
20
43.86732803479716
30
1.248251087140099e-13
 70
     32
  0
VERTEX
  8
MY3DLAYER
10
71.65116074842463
20
44.06015523889842
30
1.2365586159863254e-13
 70
     32
  0
VERTEX
  8
MY3DLAYER
10
72.03868440563186
20
44.24376720499158
30
1.2247287133867803e-13
 70
     32
  0
VERTEX
  8
MY3DLAYER
10
72.4304883657358
20
44.418058902541205
30
1.2127681463350852e-13
 70
     32
  0
VERTEX
  8
MY3DLAYER
10
72.8263485072885
20
44.582930632433616
30
1.2006837565681219e-13
 70
     32
  0
VERTEX
  8
MY3DLAYER
10
73.22603838860717
20
44.73828808400676
30
1.188482456652398e-13
 70
     32
  0
VERTEX
  8
MY3DLAYER
10
73.62932937730406
20
44.884042388998786
30
1.1761712260298812e-13
 70
     32
  0
VERTEX
  8
MY3DLAYER
10
74.03599078107015
20
45.0201101723821
30
1.163757107025595e-13
 70
     32
  0
VERTEX
  8
MY3DLAYER
10
74.44578997963626
20
45.146413600057066
30
1.1512472008192335e-13
 70
     32
  0
VERTEX
  8
MY3DLAYER
10
74.858492557838
20
45.26288042337373
30
1.1386486633831114e-13
 70
     32
  0
VERTEX
  8
MY3DLAYER
10
75.27386243970686
20
45.369444020460605
30
1.1259687013887765e-13
 70
     32
  0
VERTEX
  8
MY3DLAYER
10
75.69166202351136
20
45.46604343433384
30
1.1132145680846143e-13
 70
     32
  0
VERTEX
  8
MY3DLAYER
10
76.11165231767097
20
45.552623407766106
30
1.1003935591468133e-13
 70
     32
  0
VERTEX
  8
MY3DLAYER
10
76.53359307746553
20
45.629134414895084
30
1.0875130085060616e-13
 70
     32
  0
VERTEX
  8
MY3DLAYER
10
76.95724294246044
20
45.69553268955347
30
1.0745802841523561e-13
 70
     32
  0
VERTEX
  8
MY3DLAYER
10
77.38235957457152
20
45.75178025030392
30
1.0616027839203343e-13
 70
     32
  0
VERTEX
  8
MY3DLAYER
10
77.80869979668766
20
45.797844922166306
30
1.0485879312575305e-13
 70
     32
  0
VERTEX
  8
MY3DLAYER
10
78.23601973177448
20
45.83370035502152
30
1.0355431709779849e-13
 70
     32
  0
VERTEX
  8
MY3DLAYER
10
78.66407494237785
20
45.859326038685
30
1.0224759650036224e-13
 70
     32
  0
VERTEX
  8
MY3DLAYER
10
79.09262057044776
20
45.8747073146389
30
1.0093937880958587e-13
 70
     32
  0
VERTEX
  8
MY3DLAYER
10
79.52141147740379
20
45.87983538441741
30
9.963041235798459e-14
 70
     32
  0
VERTEX
  8
MY3DLAYER
10
79.9502023843598
20
45.8747073146389
30
9.832144590638339e-14
 70
     32
  0
VERTEX
  8
MY3DLAYER
10
80.37874801242981
20
45.859326038685
30
9.701322821560693e-14
 70
     32
  0
VERTEX
  8
MY3DLAYER
10
80.80680322303309
20
45.83370035502152
30
9.570650761817076e-14
 70
     32
  0
VERTEX
  8
MY3DLAYER
10
81.23412315811991
20
45.797844922166306
30
9.44020315902162e-14
 70
     32
  0
VERTEX
  8
MY3DLAYER
10
81.66046338023605
20
45.75178025030392
30
9.310054632393583e-14
 70
     32
  0
VERTEX
  8
MY3DLAYER
10
82.08558001234722
20
45.69553268955347
30
9.180279630073364e-14
 70
     32
  0
VERTEX
  8
MY3DLAYER
10
82.50922987734214
20
45.629134414895084
30
9.05095238653631e-14
 70
     32
  0
VERTEX
  8
MY3DLAYER
10
82.93117063713659
20
45.552623407766106
30
8.922146880128794e-14
 70
     32
  0
VERTEX
  8
MY3DLAYER
10
83.3511609312962
20
45.46604343433384
30
8.793936790750783e-14
 70
     32
  0
VERTEX
  8
MY3DLAYER
10
83.7689605151007
20
45.36944402046051
30
8.666395457709161e-14
 70
     32
  0
VERTEX
  8
MY3DLAYER
10
84.18433039696956
20
45.26288042337364
30
8.539595837765811e-14
 70
     32
  0
VERTEX
  8
MY3DLAYER
10
84.5970329751713
20
45.146413600057066
30
8.413610463404592e-14
 70
     32
  0
VERTEX
  8
MY3DLAYER
10
85.00683217373742
20
45.0201101723821
30
8.288511401340975e-14
 70
     32
  0
VERTEX
  8
MY3DLAYER
10
85.4134935775035
20
44.884042388998694
30
8.164370211298113e-14
 70
     32
  0
VERTEX
  8
MY3DLAYER
10
85.81678456620041
20
44.73828808400667
30
8.041257905072948e-14
 70
     32
  0
VERTEX
  8
MY3DLAYER
10
86.21647444751906
20
44.58293063243352
30
7.919244905915708e-14
 70
     32
  0
VERTEX
  8
MY3DLAYER
10
86.61233458907185
20
44.418058902541205
30
7.798401008246076e-14
 70
     32
  0
VERTEX
  8
MY3DLAYER
10
87.00413854917568
20
44.24376720499149
30
7.678795337729123e-14
 70
     32
  0
VERTEX
  8
MY3DLAYER
10
87.39166220638292
20
44.06015523889842
30
7.560496311733671e-14
 70
     32
  0
VERTEX
  8
MY3DLAYER
10
87.77468388768348
20
43.86732803479707
30
7.443571600195936e-14
 70
     32
  0
VERTEX
  8
MY3DLAYER
10
88.1529844953079
20
43.66539589456467
30
7.328088086910662e-14
 70
     32
  0
VERTEX
  8
MY3DLAYER
10
88.526347632056
20
43.45447432832389
30
7.214111831271905e-14
 70
     32
  0
VERTEX
  8
MY3DLAYER
10
88.89455972508206
20
43.23468398836957
30
7.101708030485535e-14
 70
     32
  0
VERTEX
  8
MY3DLAYER
10
89.25741014806307
20
43.006150600151784
30
6.990940982274738e-14
 70
     32
  0
VERTEX
  8
MY3DLAYER
10
89.61469134168257
20
42.769004890357905
30
6.881874048100231e-14
 70
     32
  0
VERTEX
  8
MY3DLAYER
10
89.96619893235955
20
42.52338251213408
30
6.774569616915895e-14
 70
     32
  0
VERTEX
  8
MY3DLAYER
10
90.31173184915495
20
42.26942396748807
30
6.669089069480827e-14
 70
     32
  0
VERTEX
  8
MY3DLAYER
10
90.65109243878935
20
42.00727452691861
30
6.565492743247968e-14
 70
     32
  0
VERTEX
  8
MY3DLAYER
10
90.98408657870537
20
41.737084146317486
30
6.46383989784969e-14
 70
     32
  0
VERTEX
  8
MY3DLAYER
10
91.31052378811069
20
41.45900738119045
30
6.364188681199756e-14
 70
     32
  0
VERTEX
  8
MY3DLAYER
10
91.63021733693776
20
41.17320329824858
30
6.266596096231359e-14
 70
     32
  0
VERTEX
  8
MY3DLAYER
10
91.9429843526573
20
40.87983538441729
30
6.171117968290004e-14
 70
     32
  0
SEQEND
  0
POLYLINE
 8
Layer0
 66
     1
70
    8
 10
0.0
 20
 0.0
 30
0.0
  0
VERTEX
  8
MY3DLAYER
10
154.17305062137888
20
15.889693198989077
30
3.253801906584017e-14
 70
     32
  0
VERTEX
  8
MY3DLAYER
10
154.3229012551358
20
15.527921766641606
30
3.259695981865664e-14
 70
     32
  0
VERTEX
  8
MY3DLAYER
10
154.37401251570068
20
15.139693198986993
30
3.270626559843195e-14
 70
     32
  0
VERTEX
  8
MY3DLAYER
10
154.32290125513526
20
14.751464631335358
30
3.285848739690845e-14
 70
     32
  0
VERTEX
  8
MY3DLAYER
10
154.17305062137763
20
14.389693198988518
30
3.3043251550081935e-14
 70
     32
  0
VERTEX
  8
MY3DLAYER
10
153.93467268748103
20
14.079033027209627
30
3.324796668624823e-14
 70
     32
  0
VERTEX
  8
MY3DLAYER
10
153.6240125157016
20
13.840655093311582
30
3.3458681807187003e-14
 70
     32
  0
VERTEX
  8
MY3DLAYER
10
153.26224108335563
20
13.690804459554563
30
3.366103702562839e-14
 70
     32
  0
VERTEX
  8
MY3DLAYER
10
152.8740125157021
20
13.639693198988326
30
3.38412421678438e-14
 70
     32
  0
VERTEX
  8
MY3DLAYER
10
151.374012515701
20
13.639693198987965
30
3.4470986253016296e-14
 70
     32
  0
VERTEX
  8
MY3DLAYER
10
150.98578394804966
20
13.690804459554473
30
3.4616760636365956e-14
 70
     32
  0
VERTEX
  8
MY3DLAYER
10
150.62401251570208
20
13.840655093312936
30
3.471816997753006e-14
 70
     32
  0
VERTEX
  8
MY3DLAYER
10
150.3133523439221
20
14.079033027208004
30
3.476830339749463e-14
 70
     32
  0
VERTEX
  8
MY3DLAYER
10
150.07497441002516
20
14.389693198988969
30
3.4763744386536955e-14
 70
     32
  0
VERTEX
  8
MY3DLAYER
10
149.9251237762668
20
14.751464631334274
30
3.470480363372184e-14
 70
     32
  0
VERTEX
  8
MY3DLAYER
10
149.874012515701
20
15.139693198987985
30
3.4595497853947094e-14
 70
     32
  0
VERTEX
  8
MY3DLAYER
10
149.92512377626787
20
15.527921766642327
30
3.444327605546916e-14
 70
     32
  0
VERTEX
  8
MY3DLAYER
10
150.07497441002425
20
15.889693198988175
30
3.425851190229647e-14
 70
     32
  0
VERTEX
  8
MY3DLAYER
10
150.3133523439223
20
16.200353370767154
30
3.405379676612953e-14
 70
     32
  0
VERTEX
  8
MY3DLAYER
10
150.62401251570154
20
16.43873130466601
30
3.3843081645190684e-14
 70
     32
  0
VERTEX
  8
MY3DLAYER
10
150.98578394804855
20
16.58858193842276
30
3.3640726426748813e-14
 70
     32
  0
VERTEX
  8
MY3DLAYER
10
151.3740125157019
20
16.639693198986922
30
3.34605212845342e-14
 70
     32
  0
VERTEX
  8
MY3DLAYER
10
152.8740125157021
20
16.63969319898864
30
3.283077719936163e-14
 70
     32
  0
VERTEX
  8
MY3DLAYER
10
153.262241083356
20
16.58858193842276
30
3.2685002816010684e-14
 70
     32
  0
VERTEX
  8
MY3DLAYER
10
153.62401251570122
20
16.43873130466475
30
3.2583593474847465e-14
 70
     32
  0
VERTEX
  8
MY3DLAYER
10
153.93467268748103
20
16.20035337076815
30
3.2533460054883454e-14
 70
     32
  0
VERTEX
  8
MY3DLAYER
10
154.17305062137888
20
15.889693198989077
30
3.253801906584017e-14
 70
     32
  0
SEQEND
  0
POLYLINE
 8
Layer0
 66
     1
70
    8
 10
0.0
 20
 0.0
 30
0.0
  0
VERTEX
  8
MY3DLAYER
10
133.57497441002585
20
15.889693198987814
30
4.118569683918641e-14
 70
     32
  0
VERTEX
  8
MY3DLAYER
10
133.81335234392117
20
16.20035337076914
30
4.0980981703019876e-14
 70
     32
  0
VERTEX
  8
MY3DLAYER
10
134.12401251570097
20
16.43873130466475
30
4.0770266582081746e-14
 70
     32
  0
VERTEX
  8
MY3DLAYER
10
134.48578394804798
20
16.58858193842204
30
4.056791136363979e-14
 70
     32
  0
VERTEX
  8
MY3DLAYER
10
134.8740125157017
20
16.63969319898918
30
4.038770622142398e-14
 70
     32
  0
VERTEX
  8
MY3DLAYER
10
136.37401251570117
20
16.63969319898909
30
3.975796213625237e-14
 70
     32
  0
VERTEX
  8
MY3DLAYER
10
136.76224108335597
20
16.58858193842276
30
3.961218775290119e-14
 70
     32
  0
VERTEX
  8
MY3DLAYER
10
137.12401251570154
20
16.438731304663754
30
3.951077841173813e-14
 70
     32
  0
VERTEX
  8
MY3DLAYER
10
137.43467268748134
20
16.200353370767786
30
3.9460644991773955e-14
 70
     32
  0
VERTEX
  8
MY3DLAYER
10
137.6730506213783
20
15.889693198988807
30
3.946520400273091e-14
 70
     32
  0
VERTEX
  8
MY3DLAYER
10
137.82290125513362
20
15.527921766642779
30
3.952414475554763e-14
 70
     32
  0
VERTEX
  8
MY3DLAYER
10
137.87401251570103
20
15.139693198987445
30
3.963345053532221e-14
 70
     32
  0
VERTEX
  8
MY3DLAYER
10
137.82290125513487
20
14.75146463133283
30
3.978567233379999e-14
 70
     32
  0
VERTEX
  8
MY3DLAYER
10
137.67305062137956
20
14.389693198987795
30
3.997043648697188e-14
 70
     32
  0
VERTEX
  8
MY3DLAYER
10
137.4346726874808
20
14.079033027207823
30
4.0175151623139374e-14
 70
     32
  0
VERTEX
  8
MY3DLAYER
10
137.12401251570262
20
13.840655093311312
30
4.03858667440771e-14
 70
     32
  0
VERTEX
  8
MY3DLAYER
10
136.7622410833556
20
13.690804459554112
30
4.058822196251905e-14
 70
     32
  0
VERTEX
  8
MY3DLAYER
10
136.37401251570208
20
13.63969319898941
30
4.076842710473399e-14
 70
     32
  0
VERTEX
  8
MY3DLAYER
10
134.87401251570188
20
13.639693198988326
30
4.1398171189906235e-14
 70
     32
  0
VERTEX
  8
MY3DLAYER
10
134.48578394804852
20
13.690804459554203
30
4.154394557325702e-14
 70
     32
  0
VERTEX
  8
MY3DLAYER
10
134.1240125157015
20
13.840655093311764
30
4.164535491442112e-14
 70
     32
  0
VERTEX
  8
MY3DLAYER
10
133.8133523439219
20
14.079033027208725
30
4.169548833438489e-14
 70
     32
  0
VERTEX
  8
MY3DLAYER
10
133.5749744100244
20
14.389693198988336
30
4.169092932342786e-14
 70
     32
  0
VERTEX
  8
MY3DLAYER
10
133.4251237762671
20
14.751464631334184
30
4.163198857061218e-14
 70
     32
  0
VERTEX
  8
MY3DLAYER
10
133.37401251570367
20
15.139693198989429
30
4.1522682790835916e-14
 70
     32
  0
VERTEX
  8
MY3DLAYER
10
133.42512377626727
20
15.52792176664314
30
4.13704609923595e-14
 70
     32
  0
VERTEX
  8
MY3DLAYER
10
133.57497441002585
20
15.889693198987814
30
4.118569683918641e-14
 70
     32
  0
SEQEND
  0
POLYLINE
 8
Layer0
 66
     1
70
    8
 10
0.0
 20
 0.0
 30
0.0
  0
VERTEX
  8
MY3DLAYER
10
139.8743142051681
20
14.945528116602283
30
3.885906410160559e-14
 70
     32
  0
VERTEX
  8
MY3DLAYER
10
139.95284744666355
20
15.986780290059512
30
3.8475377257180074e-14
 70
     32
  0
VERTEX
  8
MY3DLAYER
10
140.29820062609218
20
16.972226757509453
30
3.799846813126217e-14
 70
     32
  0
VERTEX
  8
MY3DLAYER
10
140.88683849499782
20
17.834710970720018
30
3.746083729265514e-14
 70
     32
  0
VERTEX
  8
MY3DLAYER
10
141.67864635538638
20
18.51545605588765
30
3.689912339453096e-14
 70
     32
  0
VERTEX
  8
MY3DLAYER
10
142.6196638100942
20
18.96807036043808
30
3.63516063107731e-14
 70
     32
  0
VERTEX
  8
MY3DLAYER
10
143.6457620746893
20
19.161708967500715
30
3.585559842582298e-14
 70
     32
  0
VERTEX
  8
MY3DLAYER
10
144.68701424814716
20
19.08317572600508
30
3.544490185734886e-14
 70
     32
  0
VERTEX
  8
MY3DLAYER
10
145.67246071559566
20
18.73782254657555
30
3.5147504897785237e-14
 70
     32
  0
VERTEX
  8
MY3DLAYER
10
146.5349449288071
20
18.149184677670917
30
3.498367465845257e-14
 70
     32
  0
VERTEX
  8
MY3DLAYER
10
147.21569001397359
20
17.357376817283427
30
3.496457589942051e-14
 70
     32
  0
VERTEX
  8
MY3DLAYER
10
147.66830431852637
20
16.416359362574976
30
3.509151016955399e-14
 70
     32
  0
VERTEX
  8
MY3DLAYER
10
147.86194292558702
20
15.390261097979437
30
3.535582710811374e-14
 70
     32
  0
VERTEX
  8
MY3DLAYER
10
147.783409684091
20
14.349008924522387
30
3.5739513952539496e-14
 70
     32
  0
VERTEX
  8
MY3DLAYER
10
147.43805650466294
20
13.363562457072716
30
3.6216423078457e-14
 70
     32
  0
VERTEX
  8
MY3DLAYER
10
146.8494186357564
20
12.501078243861514
30
3.675405391706459e-14
 70
     32
  0
VERTEX
  8
MY3DLAYER
10
146.05761077536962
20
11.820333158693952
30
3.731576781518805e-14
 70
     32
  0
VERTEX
  8
MY3DLAYER
10
145.11659332066128
20
11.36771885414298
30
3.786328489894639e-14
 70
     32
  0
VERTEX
  8
MY3DLAYER
10
144.0904950560658
20
11.174080247082333
30
3.835929278389587e-14
 70
     32
  0
VERTEX
  8
MY3DLAYER
10
143.0492428826094
20
11.252613488577246
30
3.876998935236959e-14
 70
     32
  0
VERTEX
  8
MY3DLAYER
10
142.06379641515983
20
11.597966668005872
30
3.9067386311933937e-14
 70
     32
  0
VERTEX
  8
MY3DLAYER
10
141.20131220194781
20
12.18660453691286
30
3.923121655126612e-14
 70
     32
  0
VERTEX
  8
MY3DLAYER
10
140.52056711678136
20
12.978412397299374
30
3.925031531029858e-14
 70
     32
  0
VERTEX
  8
MY3DLAYER
10
140.0679528122309
20
13.919429852006834
30
3.9123381040164467e-14
 70
     32
  0
VERTEX
  8
MY3DLAYER
10
139.8743142051681
20
14.945528116602283
30
3.885906410160559e-14
 70
     32
  0
SEQEND
  0
POLYLINE
 8
Layer0
 66
     1
70
    8
 10
0.0
 20
 0.0
 30
0.0
  0
VERTEX
  8
MY3DLAYER
10
4.869772333428658
20
143.13953019154673
30
1.1143958003719877e-13
 70
     32
  0
VERTEX
  8
MY3DLAYER
10
4.719921699671729
20
143.5013016238941
30
1.1138063928438237e-13
 70
     32
  0
VERTEX
  8
MY3DLAYER
10
4.668810439106755
20
143.88953019154883
30
1.1127133350460698e-13
 70
     32
  0
VERTEX
  8
MY3DLAYER
10
4.71992169967218
20
144.27775875920045
30
1.1111911170613049e-13
 70
     32
  0
VERTEX
  8
MY3DLAYER
10
4.869772333429921
20
144.6395301915473
30
1.1093434755295699e-13
 70
     32
  0
VERTEX
  8
MY3DLAYER
10
5.108150267326522
20
144.9501903633262
30
1.107296324167907e-13
 70
     32
  0
VERTEX
  8
MY3DLAYER
10
5.418810439105953
20
145.18856829722415
30
1.1051891729585201e-13
 70
     32
  0
VERTEX
  8
MY3DLAYER
10
5.780581871451891
20
145.33841893098116
30
1.1031656207741055e-13
 70
     32
  0
VERTEX
  8
MY3DLAYER
10
6.168810439105421
20
145.3895301915475
30
1.1013635693519513e-13
 70
     32
  0
VERTEX
  8
MY3DLAYER
10
7.668810439106704
20
145.38953019154766
30
1.0950661285002264e-13
 70
     32
  0
VERTEX
  8
MY3DLAYER
10
8.057039006757979
20
145.33841893098116
30
1.0936083846667297e-13
 70
     32
  0
VERTEX
  8
MY3DLAYER
10
8.41881043910545
20
145.1885682972228
30
1.0925942912550896e-13
 70
     32
  0
VERTEX
  8
MY3DLAYER
10
8.729470610885421
20
144.9501903633278
30
1.0920929570554439e-13
 70
     32
  0
VERTEX
  8
MY3DLAYER
10
8.967848544782385
20
144.63953019154675
30
1.0921385471650206e-13
 70
     32
  0
VERTEX
  8
MY3DLAYER
10
9.117699178540757
20
144.27775875920136
30
1.0927279546931718e-13
 70
     32
  0
VERTEX
  8
MY3DLAYER
10
9.168810439106544
20
143.88953019154764
30
1.0938210124909183e-13
 70
     32
  0
VERTEX
  8
MY3DLAYER
10
9.117699178539674
20
143.5013016238934
30
1.0953432304756985e-13
 70
     32
  0
VERTEX
  8
MY3DLAYER
10
8.967848544783287
20
143.13953019154755
30
1.0971908720074255e-13
 70
     32
  0
VERTEX
  8
MY3DLAYER
10
8.729470610885242
20
142.82887001976857
30
1.0992380233690948e-13
 70
     32
  0
VERTEX
  8
MY3DLAYER
10
8.418810439105991
20
142.5904920858698
30
1.1013451745784833e-13
 70
     32
  0
VERTEX
  8
MY3DLAYER
10
8.05703900675897
20
142.44064145211306
30
1.103368726762902e-13
 70
     32
  0
VERTEX
  8
MY3DLAYER
10
7.668810439105621
20
142.3895301915489
30
1.1051707781850482e-13
 70
     32
  0
VERTEX
  8
MY3DLAYER
10
6.168810439105421
20
142.3895301915471
30
1.1114682190367739e-13
 70
     32
  0
VERTEX
  8
MY3DLAYER
10
5.78058187145153
20
142.44064145211306
30
1.1129259628702825e-13
 70
     32
  0
VERTEX
  8
MY3DLAYER
10
5.418810439106314
20
142.59049208587106
30
1.1139400562819154e-13
 70
     32
  0
VERTEX
  8
MY3DLAYER
10
5.108150267326522
20
142.82887001976766
30
1.1144413904815547e-13
 70
     32
  0
VERTEX
  8
MY3DLAYER
10
4.869772333428658
20
143.13953019154673
30
1.1143958003719877e-13
 70
     32
  0
SEQEND
  0
POLYLINE
 8
Layer0
 66
     1
70
    8
 10
0.0
 20
 0.0
 30
0.0
  0
VERTEX
  8
MY3DLAYER
10
25.467848544781724
20
143.13953019154755
30
1.0279190226385269e-13
 70
     32
  0
VERTEX
  8
MY3DLAYER
10
25.229470610886384
20
142.8288700197663
30
1.029966174000193e-13
 70
     32
  0
VERTEX
  8
MY3DLAYER
10
24.91881043910659
20
142.5904920858707
30
1.0320733252095735e-13
 70
     32
  0
VERTEX
  8
MY3DLAYER
10
24.557039006759563
20
142.4406414521134
30
1.034096877393993e-13
 70
     32
  0
VERTEX
  8
MY3DLAYER
10
24.16881043910567
20
142.38953019154627
30
1.0358989288161519e-13
 70
     32
  0
VERTEX
  8
MY3DLAYER
10
22.668810439106373
20
142.38953019154636
30
1.0421963696678671e-13
 70
     32
  0
VERTEX
  8
MY3DLAYER
10
22.28058187145158
20
142.4406414521127
30
1.0436541135013782e-13
 70
     32
  0
VERTEX
  8
MY3DLAYER
10
21.918810439106004
20
142.59049208587177
30
1.0446682069130089e-13
 70
     32
  0
VERTEX
  8
MY3DLAYER
10
21.60815026732621
20
142.82887001976775
30
1.0451695411126506e-13
 70
     32
  0
VERTEX
  8
MY3DLAYER
10
21.369772333429157
20
143.13953019154673
30
1.0451239510030819e-13
 70
     32
  0
VERTEX
  8
MY3DLAYER
10
21.219921699673943
20
143.50130162389277
30
1.0445345434749138e-13
 70
     32
  0
VERTEX
  8
MY3DLAYER
10
21.168810439106533
20
143.889530191548
30
1.0434414856771689e-13
 70
     32
  0
VERTEX
  8
MY3DLAYER
10
21.219921699672682
20
144.2777587592027
30
1.041919267692391e-13
 70
     32
  0
VERTEX
  8
MY3DLAYER
10
21.369772333427985
20
144.63953019154775
30
1.0400716261606722e-13
 70
     32
  0
VERTEX
  8
MY3DLAYER
10
21.608150267326753
20
144.95019036332764
30
1.0380244747989971e-13
 70
     32
  0
VERTEX
  8
MY3DLAYER
10
21.91881043910492
20
145.18856829722415
30
1.0359173235896199e-13
 70
     32
  0
VERTEX
  8
MY3DLAYER
10
22.28058187145194
20
145.33841893098133
30
1.0338937714051996e-13
 70
     32
  0
VERTEX
  8
MY3DLAYER
10
22.66881043910547
20
145.38953019154604
30
1.032091719983051e-13
 70
     32
  0
VERTEX
  8
MY3DLAYER
10
24.16881043910567
20
145.38953019154712
30
1.0257942791313278e-13
 70
     32
  0
VERTEX
  8
MY3DLAYER
10
24.55703900675902
20
145.33841893098116
30
1.0243365352978207e-13
 70
     32
  0
VERTEX
  8
MY3DLAYER
10
24.918810439106046
20
145.1885682972237
30
1.0233224418861797e-13
 70
     32
  0
VERTEX
  8
MY3DLAYER
10
25.229470610885663
20
144.95019036332673
30
1.0228211076865412e-13
 70
     32
  0
VERTEX
  8
MY3DLAYER
10
25.467848544783166
20
144.63953019154712
30
1.0228666977961115e-13
 70
     32
  0
VERTEX
  8
MY3DLAYER
10
25.61769917854046
20
144.27775875920116
30
1.0234561053242698e-13
 70
     32
  0
VERTEX
  8
MY3DLAYER
10
25.668810439103897
20
143.88953019154602
30
1.024549163122031e-13
 70
     32
  0
VERTEX
  8
MY3DLAYER
10
25.617699178540278
20
143.50130162389223
30
1.026071381106796e-13
 70
     32
  0
VERTEX
  8
MY3DLAYER
10
25.467848544781724
20
143.13953019154755
30
1.0279190226385269e-13
 70
     32
  0
SEQEND
  0
POLYLINE
 8
Layer0
 66
     1
70
    8
 10
0.0
 20
 0.0
 30
0.0
  0
VERTEX
  8
MY3DLAYER
10
19.168508749639436
20
144.08369527393324
30
1.0511853500143342e-13
 70
     32
  0
VERTEX
  8
MY3DLAYER
10
19.089975508143983
20
143.04244310047602
30
1.0550222184585901e-13
 70
     32
  0
VERTEX
  8
MY3DLAYER
10
18.744622328715355
20
142.05699663302607
30
1.0597913097177685e-13
 70
     32
  0
VERTEX
  8
MY3DLAYER
10
18.15598445980973
20
141.1945124198155
30
1.0651676181038389e-13
 70
     32
  0
VERTEX
  8
MY3DLAYER
10
17.364176599421157
20
140.5137673346479
30
1.0707847570850814e-13
 70
     32
  0
VERTEX
  8
MY3DLAYER
10
16.42315914471334
20
140.06115303009747
30
1.0762599279226599e-13
 70
     32
  0
VERTEX
  8
MY3DLAYER
10
15.397060880118158
20
139.86751442303492
30
1.0812200067721611e-13
 70
     32
  0
VERTEX
  8
MY3DLAYER
10
14.355808706660207
20
139.94604766453054
30
1.0853269724569015e-13
 70
     32
  0
VERTEX
  8
MY3DLAYER
10
13.37036223921189
20
140.29140084396008
30
1.0883009420525378e-13
 70
     32
  0
VERTEX
  8
MY3DLAYER
10
12.507878026000329
20
140.8800387128648
30
1.0899392444458644e-13
 70
     32
  0
VERTEX
  8
MY3DLAYER
10
11.82713294083395
20
141.6718465732522
30
1.090130232036185e-13
 70
     32
  0
VERTEX
  8
MY3DLAYER
10
11.374518636281174
20
142.61286402796074
30
1.0888608893348504e-13
 70
     32
  0
VERTEX
  8
MY3DLAYER
10
11.180880029220436
20
143.63896229255627
30
1.0862177199492527e-13
 70
     32
  0
VERTEX
  8
MY3DLAYER
10
11.259413270716522
20
144.68021446601324
30
1.0823808515049951e-13
 70
     32
  0
VERTEX
  8
MY3DLAYER
10
11.604766450144696
20
145.66566093346302
30
1.0776117602458202e-13
 70
     32
  0
VERTEX
  8
MY3DLAYER
10
12.193404319051227
20
146.5281451466742
30
1.0722354518597435e-13
 70
     32
  0
VERTEX
  8
MY3DLAYER
10
12.985212179437916
20
147.20889023184165
30
1.0666183128785088e-13
 70
     32
  0
VERTEX
  8
MY3DLAYER
10
13.926229634146457
20
147.6615045363926
30
1.0611431420409262e-13
 70
     32
  0
VERTEX
  8
MY3DLAYER
10
14.952327898741727
20
147.85514314345326
30
1.0561830631914307e-13
 70
     32
  0
VERTEX
  8
MY3DLAYER
10
15.993580072198323
20
147.77660990195835
30
1.0520760975066942e-13
 70
     32
  0
VERTEX
  8
MY3DLAYER
10
16.979026539647727
20
147.43125672252955
30
1.0491021279110507e-13
 70
     32
  0
VERTEX
  8
MY3DLAYER
10
17.84151075285973
20
146.84261885362267
30
1.0474638255177289e-13
 70
     32
  0
VERTEX
  8
MY3DLAYER
10
18.522255838026194
20
146.05081099323607
30
1.0472728379274044e-13
 70
     32
  0
VERTEX
  8
MY3DLAYER
10
18.974870142576624
20
145.1097935385288
30
1.0485421806287463e-13
 70
     32
  0
VERTEX
  8
MY3DLAYER
10
19.168508749639436
20
144.08369527393324
30
1.0511853500143342e-13
 70
     32
  0
SEQEND
  0
POLYLINE
 8
Layer0
 66
     1
70
    8
 10
0.0
 20
 0.0
 30
0.0
  0
VERTEX
  8
MY3DLAYER
10
144.09049505606907
20
139.8675144230324
30
4.8752234934484403e-14
 70
     32
  0
VERTEX
  8
MY3DLAYER
10
143.04924288261174
20
139.94604766452775
30
4.916293150295828e-14
 70
     32
  0
VERTEX
  8
MY3DLAYER
10
142.06379641516182
20
140.29140084395647
30
4.946032846252279e-14
 70
     32
  0
VERTEX
  8
MY3DLAYER
10
141.20131220195125
20
140.8800387128621
30
4.962415870185473e-14
 70
     32
  0
VERTEX
  8
MY3DLAYER
10
140.5205671167837
20
141.67184657325058
30
4.964325746088703e-14
 70
     32
  0
VERTEX
  8
MY3DLAYER
10
140.06795281223327
20
142.6128640279584
30
4.951632319075276e-14
 70
     32
  0
VERTEX
  8
MY3DLAYER
10
139.87431420517063
20
143.63896229255366
30
4.925200625219388e-14
 70
     32
  0
VERTEX
  8
MY3DLAYER
10
139.95284744666645
20
144.68021446601153
30
4.8868319407768043e-14
 70
     32
  0
VERTEX
  8
MY3DLAYER
10
140.2982006260958
20
145.66566093346003
30
4.83914102818503e-14
 70
     32
  0
VERTEX
  8
MY3DLAYER
10
140.88683849500052
20
146.52814514667148
30
4.7853779443243355e-14
 70
     32
  0
VERTEX
  8
MY3DLAYER
10
141.67864635538803
20
147.20889023183778
30
4.729206554511997e-14
 70
     32
  0
VERTEX
  8
MY3DLAYER
10
142.61966381009657
20
147.66150453639065
30
4.674454846136099e-14
 70
     32
  0
VERTEX
  8
MY3DLAYER
10
143.64576207469202
20
147.8551431434514
30
4.624854057641143e-14
 70
     32
  0
VERTEX
  8
MY3DLAYER
10
144.68701424814915
20
147.7766099019552
30
4.583784400793779e-14
 70
     32
  0
VERTEX
  8
MY3DLAYER
10
145.67246071559873
20
147.43125672252702
30
4.554044704837328e-14
 70
     32
  0
VERTEX
  8
MY3DLAYER
10
146.53494492881
20
146.8426188536205
30
4.537661680904134e-14
 70
     32
  0
VERTEX
  8
MY3DLAYER
10
147.21569001397737
20
146.05081099323382
30
4.535751805000848e-14
 70
     32
  0
VERTEX
  8
MY3DLAYER
10
147.66830431852836
20
145.10979353852528
30
4.548445232014275e-14
 70
     32
  0
VERTEX
  8
MY3DLAYER
10
147.861942925589
20
144.08369527393
30
4.574876925870251e-14
 70
     32
  0
VERTEX
  8
MY3DLAYER
10
147.78340968409407
20
143.0424431004734
30
4.613245610312762e-14
 70
     32
  0
VERTEX
  8
MY3DLAYER
10
147.43805650466544
20
142.056996633024
30
4.660936522904529e-14
 70
     32
  0
VERTEX
  8
MY3DLAYER
10
146.84941863575838
20
141.194512419812
30
4.714699606765336e-14
 70
     32
  0
VERTEX
  8
MY3DLAYER
10
146.05761077537178
20
140.51376733464554
30
4.770870996577642e-14
 70
     32
  0
VERTEX
  8
MY3DLAYER
10
145.11659332066452
20
140.0611530300951
30
4.825622704953412e-14
 70
     32
  0
VERTEX
  8
MY3DLAYER
10
144.09049505606907
20
139.8675144230324
30
4.8752234934484403e-14
 70
     32
  0
SEQEND
  0
POLYLINE
 8
Layer0
 66
     1
70
    8
 10
0.0
 20
 0.0
 30
0.0
  0
VERTEX
  8
MY3DLAYER
10
143.14632997368318
20
133.5681746278901
30
5.1270377247708654e-14
 70
     32
  0
VERTEX
  8
MY3DLAYER
10
142.83566980190193
20
133.80655256178537
30
5.1320510667673706e-14
 70
     32
  0
VERTEX
  8
MY3DLAYER
10
142.59729186800644
20
134.11721273356514
30
5.131595165671587e-14
 70
     32
  0
VERTEX
  8
MY3DLAYER
10
142.44744123424914
20
134.47898416591218
30
5.125701090389972e-14
 70
     32
  0
VERTEX
  8
MY3DLAYER
10
142.3963299736819
20
134.86721273356608
30
5.114770512412553e-14
 70
     32
  0
VERTEX
  8
MY3DLAYER
10
142.39632997368207
20
136.36721273356537
30
5.0642472639884645e-14
 70
     32
  0
VERTEX
  8
MY3DLAYER
10
142.4474412342484
20
136.75544130122015
30
5.049025084140663e-14
 70
     32
  0
VERTEX
  8
MY3DLAYER
10
142.59729186800752
20
137.11721273356574
30
5.0305486688233134e-14
 70
     32
  0
VERTEX
  8
MY3DLAYER
10
142.83566980190358
20
137.42787290534554
30
5.010077155206668e-14
 70
     32
  0
VERTEX
  8
MY3DLAYER
10
143.14632997368244
20
137.66625083924268
30
4.9890056431128475e-14
 70
     32
  0
VERTEX
  8
MY3DLAYER
10
143.5081014060284
20
137.8161014729978
30
4.9687701212687646e-14
 70
     32
  0
VERTEX
  8
MY3DLAYER
10
143.89632997368372
20
137.8672127335652
30
4.950749607047111e-14
 70
     32
  0
VERTEX
  8
MY3DLAYER
10
144.28455854133853
20
137.81610147299907
30
4.9361721687119845e-14
 70
     32
  0
VERTEX
  8
MY3DLAYER
10
144.64632997368338
20
137.66625083924376
30
4.9260312345955824e-14
 70
     32
  0
VERTEX
  8
MY3DLAYER
10
144.95699014546335
20
137.42787290534497
30
4.921017892599245e-14
 70
     32
  0
VERTEX
  8
MY3DLAYER
10
145.19536807935995
20
137.11721273356682
30
4.921473793694949e-14
 70
     32
  0
VERTEX
  8
MY3DLAYER
10
145.34521871311705
20
136.7554413012198
30
4.927367868976564e-14
 70
     32
  0
VERTEX
  8
MY3DLAYER
10
145.39632997368176
20
136.36721273356628
30
4.938298446954079e-14
 70
     32
  0
VERTEX
  8
MY3DLAYER
10
145.39632997368284
20
134.86721273356608
30
4.988821695378143e-14
 70
     32
  0
VERTEX
  8
MY3DLAYER
10
145.34521871311688
20
134.47898416591272
30
5.004043875225873e-14
 70
     32
  0
VERTEX
  8
MY3DLAYER
10
145.1953680793594
20
134.1172127335658
30
5.022520290543214e-14
 70
     32
  0
VERTEX
  8
MY3DLAYER
10
144.95699014546244
20
133.80655256178608
30
5.042991804159884e-14
 70
     32
  0
VERTEX
  8
MY3DLAYER
10
144.64632997368284
20
133.56817462788857
30
5.0640633162537525e-14
 70
     32
  0
VERTEX
  8
MY3DLAYER
10
144.2845585413369
20
133.4183239941313
30
5.0842988380979e-14
 70
     32
  0
VERTEX
  8
MY3DLAYER
10
143.89632997368156
20
133.36721273356784
30
5.102319352319425e-14
 70
     32
  0
VERTEX
  8
MY3DLAYER
10
143.50810140602786
20
133.41832399413147
30
5.116896790654583e-14
 70
     32
  0
VERTEX
  8
MY3DLAYER
10
143.14632997368318
20
133.5681746278901
30
5.1270377247708654e-14
 70
     32
  0
SEQEND
  0
POLYLINE
 8
Layer0
 66
     1
70
    8
 10
0.0
 20
 0.0
 30
0.0
  0
VERTEX
  8
MY3DLAYER
10
143.14632997368264
20
154.16625083924308
30
4.4332499104476805e-14
 70
     32
  0
VERTEX
  8
MY3DLAYER
10
143.50810140603002
20
154.316101473
30
4.4130143886034694e-14
 70
     32
  0
VERTEX
  8
MY3DLAYER
10
143.89632997368463
20
154.36721273356497
30
4.394993874381928e-14
 70
     32
  0
VERTEX
  8
MY3DLAYER
10
144.28455854133617
20
154.31610147299955
30
4.380416436046914e-14
 70
     32
  0
VERTEX
  8
MY3DLAYER
10
144.6463299736832
20
154.1662508392418
30
4.370275501930512e-14
 70
     32
  0
VERTEX
  8
MY3DLAYER
10
144.9569901454619
20
153.9278729053452
30
4.3652621599341506e-14
 70
     32
  0
VERTEX
  8
MY3DLAYER
10
145.19536807935995
20
153.61721273356576
30
4.365718061029822e-14
 70
     32
  0
VERTEX
  8
MY3DLAYER
10
145.34521871311705
20
153.25544130121992
30
4.371612136311413e-14
 70
     32
  0
VERTEX
  8
MY3DLAYER
10
145.3963299736832
20
152.8672127335663
30
4.382542714288856e-14
 70
     32
  0
VERTEX
  8
MY3DLAYER
10
145.39632997368358
20
151.3672127335651
30
4.4330659627129924e-14
 70
     32
  0
VERTEX
  8
MY3DLAYER
10
145.34521871311705
20
150.97898416591383
30
4.448288142560674e-14
 70
     32
  0
VERTEX
  8
MY3DLAYER
10
145.19536807935867
20
150.61721273356628
30
4.466764557878079e-14
 70
     32
  0
VERTEX
  8
MY3DLAYER
10
144.95699014546352
20
150.3065525617863
30
4.487236071494677e-14
 70
     32
  0
VERTEX
  8
MY3DLAYER
10
144.64632997368247
20
150.06817462788933
30
4.508307583588586e-14
 70
     32
  0
VERTEX
  8
MY3DLAYER
10
144.28455854133725
20
149.91832399413096
30
4.5285431054327485e-14
 70
     32
  0
VERTEX
  8
MY3DLAYER
10
143.89632997368355
20
149.86721273356517
30
4.546563619654282e-14
 70
     32
  0
VERTEX
  8
MY3DLAYER
10
143.5081014060291
20
149.91832399413204
30
4.561141057989361e-14
 70
     32
  0
VERTEX
  8
MY3DLAYER
10
143.14632997368335
20
150.06817462788854
30
4.571281992105763e-14
 70
     32
  0
VERTEX
  8
MY3DLAYER
10
142.8356698019043
20
150.30655256178656
30
4.5762953341020755e-14
 70
     32
  0
VERTEX
  8
MY3DLAYER
10
142.59729186800553
20
150.61721273356574
30
4.5758394330064525e-14
 70
     32
  0
VERTEX
  8
MY3DLAYER
10
142.44744123424877
20
150.97898416591275
30
4.569945357724805e-14
 70
     32
  0
VERTEX
  8
MY3DLAYER
10
142.3963299736846
20
151.3672127335662
30
4.559014779747282e-14
 70
     32
  0
VERTEX
  8
MY3DLAYER
10
142.39632997368298
20
152.8672127335664
30
4.508491531323242e-14
 70
     32
  0
VERTEX
  8
MY3DLAYER
10
142.44744123424877
20
153.2554413012202
30
4.493269351475496e-14
 70
     32
  0
VERTEX
  8
MY3DLAYER
10
142.59729186800698
20
153.6172127335654
30
4.474792936158195e-14
 70
     32
  0
VERTEX
  8
MY3DLAYER
10
142.83566980190338
20
153.9278729053452
30
4.454321422541533e-14
 70
     32
  0
VERTEX
  8
MY3DLAYER
10
143.14632997368264
20
154.16625083924308
30
4.4332499104476805e-14
 70
     32
  0
SEQEND
  0
POLYLINE
 8
Layer0
 66
     1
70
    8
 10
0.0
 20
 0.0
 30
0.0
  0
VERTEX
  8
MY3DLAYER
10
14.952327898738659
20
19.16170896750315
30
9.546455055697077e-14
 70
     32
  0
VERTEX
  8
MY3DLAYER
10
15.993580072195888
20
19.083175726007696
30
9.505385398849689e-14
 70
     32
  0
VERTEX
  8
MY3DLAYER
10
16.97902653964574
20
18.73782254657907
30
9.475645702893238e-14
 70
     32
  0
VERTEX
  8
MY3DLAYER
10
17.8415107528563
20
18.149184677673446
30
9.459262678960044e-14
 70
     32
  0
VERTEX
  8
MY3DLAYER
10
18.522255838023938
20
17.357376817284873
30
9.457352803056814e-14
 70
     32
  0
VERTEX
  8
MY3DLAYER
10
18.974870142574368
20
16.41635936257705
30
9.470046230070241e-14
 70
     32
  0
VERTEX
  8
MY3DLAYER
10
19.16850874963691
20
15.390261097981872
30
9.496477923926128e-14
 70
     32
  0
VERTEX
  8
MY3DLAYER
10
19.089975508141276
20
14.349008924524012
30
9.534846608368713e-14
 70
     32
  0
VERTEX
  8
MY3DLAYER
10
18.744622328711838
20
13.363562457075604
30
9.582537520960486e-14
 70
     32
  0
VERTEX
  8
MY3DLAYER
10
18.15598445980711
20
12.501078243864042
30
9.636300604821182e-14
 70
     32
  0
VERTEX
  8
MY3DLAYER
10
17.364176599419622
20
11.820333158697743
30
9.69247199463352e-14
 70
     32
  0
VERTEX
  8
MY3DLAYER
10
16.423159144711082
20
11.367718854144876
30
9.747223703009409e-14
 70
     32
  0
VERTEX
  8
MY3DLAYER
10
15.397060880115541
20
11.174080247084229
30
9.796824491504374e-14
 70
     32
  0
VERTEX
  8
MY3DLAYER
10
14.355808706658493
20
11.252613488580224
30
9.83789414835173e-14
 70
     32
  0
VERTEX
  8
MY3DLAYER
10
13.370362239208822
20
11.597966668008489
30
9.867633844308188e-14
 70
     32
  0
VERTEX
  8
MY3DLAYER
10
12.507878025997622
20
12.186604536915025
30
9.884016868241383e-14
 70
     32
  0
VERTEX
  8
MY3DLAYER
10
11.82713294083016
20
12.978412397301721
30
9.885926744144668e-14
 70
     32
  0
VERTEX
  8
MY3DLAYER
10
11.37451863627919
20
13.919429852010172
30
9.873233317131241e-14
 70
     32
  0
VERTEX
  8
MY3DLAYER
10
11.180880029218542
20
14.945528116605532
30
9.846801623275265e-14
 70
     32
  0
VERTEX
  8
MY3DLAYER
10
11.259413270713544
20
15.986780290062038
30
9.808432938832754e-14
 70
     32
  0
VERTEX
  8
MY3DLAYER
10
11.604766450142261
20
16.97222675751153
30
9.760742026240988e-14
 70
     32
  0
VERTEX
  8
MY3DLAYER
10
12.193404319049153
20
17.834710970723446
30
9.70697894238018e-14
 70
     32
  0
VERTEX
  8
MY3DLAYER
10
12.98521217943575
20
18.515456055889906
30
9.650807552567874e-14
 70
     32
  0
VERTEX
  8
MY3DLAYER
10
13.92622963414312
20
18.968070360440336
30
9.596055844192104e-14
 70
     32
  0
VERTEX
  8
MY3DLAYER
10
14.952327898738659
20
19.16170896750315
30
9.546455055697077e-14
 70
     32
  0
SEQEND
  0
POLYLINE
 8
Layer0
 66
     1
70
    8
 10
0.0
 20
 0.0
 30
0.0
  0
VERTEX
  8
MY3DLAYER
10
15.896492981124371
20
25.461048762645426
30
9.294640824374651e-14
 70
     32
  0
VERTEX
  8
MY3DLAYER
10
16.207153152905605
20
25.22267082875009
30
9.289627482378146e-14
 70
     32
  0
VERTEX
  8
MY3DLAYER
10
16.445531086801303
20
24.9120106569703
30
9.29008338347393e-14
 70
     32
  0
VERTEX
  8
MY3DLAYER
10
16.595381720558503
20
24.550239224623276
30
9.295977458755545e-14
 70
     32
  0
VERTEX
  8
MY3DLAYER
10
16.646492981125643
20
24.162010656969475
30
9.306908036732964e-14
 70
     32
  0
VERTEX
  8
MY3DLAYER
10
16.646492981125554
20
22.662010656970086
30
9.357431285157052e-14
 70
     32
  0
VERTEX
  8
MY3DLAYER
10
16.595381720559136
20
22.273782089315294
30
9.372653465004846e-14
 70
     32
  0
VERTEX
  8
MY3DLAYER
10
16.44553108680013
20
21.912010656969805
30
9.391129880322203e-14
 70
     32
  0
VERTEX
  8
MY3DLAYER
10
16.207153152904162
20
21.601350485190014
30
9.41160139393884e-14
 70
     32
  0
VERTEX
  8
MY3DLAYER
10
15.896492981125183
20
21.362972551292962
30
9.43267290603267e-14
 70
     32
  0
VERTEX
  8
MY3DLAYER
10
15.534721548779155
20
21.213121917537748
30
9.452908427876752e-14
 70
     32
  0
VERTEX
  8
MY3DLAYER
10
15.146492981123819
20
21.162010656970338
30
9.470928942098406e-14
 70
     32
  0
VERTEX
  8
MY3DLAYER
10
14.758264413469206
20
21.213121917536395
30
9.485506380433524e-14
 70
     32
  0
VERTEX
  8
MY3DLAYER
10
14.39649298112417
20
21.36297255129179
30
9.495647314549934e-14
 70
     32
  0
VERTEX
  8
MY3DLAYER
10
14.085832809344199
20
21.601350485190466
30
9.500660656546264e-14
 70
     32
  0
VERTEX
  8
MY3DLAYER
10
13.847454875447779
20
21.912010656968725
30
9.500204755450568e-14
 70
     32
  0
VERTEX
  8
MY3DLAYER
10
13.697604241690488
20
22.273782089315745
30
9.494310680168953e-14
 70
     32
  0
VERTEX
  8
MY3DLAYER
10
13.646492981125785
20
22.662010656969276
30
9.483380102191438e-14
 70
     32
  0
VERTEX
  8
MY3DLAYER
10
13.646492981124792
20
24.162010656969567
30
9.432856853767373e-14
 70
     32
  0
VERTEX
  8
MY3DLAYER
10
13.697604241690668
20
24.550239224622825
30
9.417634673919643e-14
 70
     32
  0
VERTEX
  8
MY3DLAYER
10
13.84745487544823
20
24.912010656969755
30
9.399158258602302e-14
 70
     32
  0
VERTEX
  8
MY3DLAYER
10
14.085832809345282
20
25.222670828749457
30
9.378686744985632e-14
 70
     32
  0
VERTEX
  8
MY3DLAYER
10
14.396492981124892
20
25.461048762646872
30
9.357615232891764e-14
 70
     32
  0
VERTEX
  8
MY3DLAYER
10
14.75826441347065
20
25.61089939640416
30
9.337379711047617e-14
 70
     32
  0
VERTEX
  8
MY3DLAYER
10
15.146492981125986
20
25.6620106569676
30
9.319359196826092e-14
 70
     32
  0
VERTEX
  8
MY3DLAYER
10
15.534721548779697
20
25.61089939640398
30
9.304781758490934e-14
 70
     32
  0
VERTEX
  8
MY3DLAYER
10
15.896492981124371
20
25.461048762645426
30
9.294640824374651e-14
 70
     32
  0
SEQEND
  0
POLYLINE
 8
Layer0
 66
     1
70
    8
 10
0.0
 20
 0.0
 30
0.0
  0
VERTEX
  8
MY3DLAYER
10
15.896492981125093
20
4.862972551292451
30
9.988428638697837e-14
 70
     32
  0
VERTEX
  8
MY3DLAYER
10
15.534721548777531
20
4.713121917535431
30
1.0008664160542048e-13
 70
     32
  0
VERTEX
  8
MY3DLAYER
10
15.146492981122917
20
4.662010656970548
30
1.0026684674763588e-13
 70
     32
  0
VERTEX
  8
MY3DLAYER
10
14.758264413471371
20
4.713121917535973
30
1.0041262113098602e-13
 70
     32
  0
VERTEX
  8
MY3DLAYER
10
14.39649298112444
20
4.862972551293714
30
1.0051403047215005e-13
 70
     32
  0
VERTEX
  8
MY3DLAYER
10
14.085832809345643
20
5.101350485190315
30
1.0056416389211366e-13
 70
     32
  0
VERTEX
  8
MY3DLAYER
10
13.847454875447598
20
5.412010656969655
30
1.0055960488115695e-13
 70
     32
  0
VERTEX
  8
MY3DLAYER
10
13.697604241690579
20
5.773782089315594
30
1.0050066412834104e-13
 70
     32
  0
VERTEX
  8
MY3DLAYER
10
13.646492981124341
20
6.162010656969124
30
1.0039135834856661e-13
 70
     32
  0
VERTEX
  8
MY3DLAYER
10
13.646492981124071
20
7.662010656970406
30
9.988612586432525e-14
 70
     32
  0
VERTEX
  8
MY3DLAYER
10
13.697604241690579
20
8.05023922462177
30
9.973390406584843e-14
 70
     32
  0
VERTEX
  8
MY3DLAYER
10
13.847454875449042
20
8.412010656969242
30
9.954913991267445e-14
 70
     32
  0
VERTEX
  8
MY3DLAYER
10
14.085832809344017
20
8.722670828749123
30
9.93444247765084e-14
 70
     32
  0
VERTEX
  8
MY3DLAYER
10
14.396492981125073
20
8.961048762646175
30
9.913370965556931e-14
 70
     32
  0
VERTEX
  8
MY3DLAYER
10
14.75826441347038
20
9.11089939640455
30
9.893135443712768e-14
 70
     32
  0
VERTEX
  8
MY3DLAYER
10
15.146492981124181
20
9.162010656970244
30
9.875114929491234e-14
 70
     32
  0
VERTEX
  8
MY3DLAYER
10
15.534721548778434
20
9.110899396403376
30
9.860537491156156e-14
 70
     32
  0
VERTEX
  8
MY3DLAYER
10
15.89649298112428
20
8.961048762646987
30
9.850396557039754e-14
 70
     32
  0
VERTEX
  8
MY3DLAYER
10
16.20715315290326
20
8.722670828748944
30
9.845383215043442e-14
 70
     32
  0
VERTEX
  8
MY3DLAYER
10
16.445531086802028
20
8.412010656969784
30
9.845839116139064e-14
 70
     32
  0
VERTEX
  8
MY3DLAYER
10
16.595381720558777
20
8.050239224622672
30
9.851733191420712e-14
 70
     32
  0
VERTEX
  8
MY3DLAYER
10
16.646492981122936
20
7.662010656969323
30
9.862663769398242e-14
 70
     32
  0
VERTEX
  8
MY3DLAYER
10
16.64649298112474
20
6.162010656969124
30
9.913187017822274e-14
 70
     32
  0
VERTEX
  8
MY3DLAYER
10
16.595381720558777
20
5.773782089315233
30
9.928409197670021e-14
 70
     32
  0
VERTEX
  8
MY3DLAYER
10
16.445531086800763
20
5.412010656970016
30
9.946885612987322e-14
 70
     32
  0
VERTEX
  8
MY3DLAYER
10
16.207153152904162
20
5.101350485190225
30
9.967357126603983e-14
 70
     32
  0
VERTEX
  8
MY3DLAYER
10
15.896492981125093
20
4.862972551292451
30
9.988428638697837e-14
 70
     32
  0
SEQEND
  0
POLYLINE
 8
Layer0
 66
     1
70
    8
 10
0.0
 20
 0.0
 30
0.0
  0
VERTEX
  8
MY3DLAYER
10
62.7714114774038
20
94.76461169526777
30
7.902656315552153e-14
 70
     32
  0
VERTEX
  8
MY3DLAYER
10
62.77863438739556
20
94.9116374057621
30
7.897400932231797e-14
 70
     32
  0
VERTEX
  8
MY3DLAYER
10
62.800233556798936
20
95.05724717829197
30
7.891589683146364e-14
 70
     32
  0
VERTEX
  8
MY3DLAYER
10
62.836000973805454
20
95.20003871114943
30
7.885278533801302e-14
 70
     32
  0
VERTEX
  8
MY3DLAYER
10
62.88559217863685
20
95.33863684381541
30
7.878528264014823e-14
 70
     32
  0
VERTEX
  8
MY3DLAYER
10
62.94852958088133
20
95.47170680050678
30
7.871403882575063e-14
 70
     32
  0
VERTEX
  8
MY3DLAYER
10
63.02420705895003
20
95.5979670447971
30
7.863974001169844e-14
 70
     32
  0
VERTEX
  8
MY3DLAYER
10
63.11189579735969
20
95.71620162151318
30
7.856310173618703e-14
 70
     32
  0
VERTEX
  8
MY3DLAYER
10
63.21075130562393
20
95.82527186704749
30
7.848486206770429e-14
 70
     32
  0
VERTEX
  8
MY3DLAYER
10
63.319821551158334
20
95.92412737531181
30
7.840577449702771e-14
 70
     32
  0
VERTEX
  8
MY3DLAYER
10
63.43805612787441
20
96.01181611372148
30
7.832660068069677e-14
 70
     32
  0
VERTEX
  8
MY3DLAYER
10
63.564316372164825
20
96.08749359179018
30
7.824810310584343e-14
 70
     32
  0
VERTEX
  8
MY3DLAYER
10
63.69738632885619
20
96.15043099403466
30
7.817103774702473e-14
 70
     32
  0
VERTEX
  8
MY3DLAYER
10
63.83598446152208
20
96.20002219886605
30
7.809614678577424e-14
 70
     32
  0
VERTEX
  8
MY3DLAYER
10
63.97877599437963
20
96.23578961587258
30
7.802415146298838e-14
 70
     32
  0
VERTEX
  8
MY3DLAYER
10
64.12438576690941
20
96.25738878527595
30
7.795574513298233e-14
 70
     32
  0
VERTEX
  8
MY3DLAYER
10
64.27141147740383
20
96.26461169526762
30
7.789158658610863e-14
 70
     32
  0
VERTEX
  8
MY3DLAYER
10
64.41843718789823
20
96.25738878527595
30
7.783229370424634e-14
 70
     32
  0
VERTEX
  8
MY3DLAYER
10
64.56404696042802
20
96.23578961587258
30
7.777843751026051e-14
 70
     32
  0
VERTEX
  8
MY3DLAYER
10
64.70683849328557
20
96.20002219886605
30
7.773053666874018e-14
 70
     32
  0
VERTEX
  8
MY3DLAYER
10
64.84543662595146
20
96.15043099403466
30
7.768905249097436e-14
 70
     32
  0
VERTEX
  8
MY3DLAYER
10
64.97850658264282
20
96.08749359179018
30
7.765438449227244e-14
 70
     32
  0
VERTEX
  8
MY3DLAYER
10
65.10476682693324
20
96.01181611372148
30
7.762686654441349e-14
 70
     32
  0
VERTEX
  8
MY3DLAYER
10
65.2230014036493
20
95.92412737531181
30
7.760676366027812e-14
 70
     32
  0
VERTEX
  8
MY3DLAYER
10
65.33207164918372
20
95.82527186704749
30
7.759426944162998e-14
 70
     32
  0
VERTEX
  8
MY3DLAYER
10
65.43092715744795
20
95.71620162151318
30
7.758950421462466e-14
 70
     32
  0
VERTEX
  8
MY3DLAYER
10
65.51861589585761
20
95.5979670447971
30
7.759251387100311e-14
 70
     32
  0
VERTEX
  8
MY3DLAYER
10
65.59429337392632
20
95.47170680050678
30
7.760326942612926e-14
 70
     32
  0
VERTEX
  8
MY3DLAYER
10
65.65723077617079
20
95.33863684381541
30
7.762166729812762e-14
 70
     32
  0
VERTEX
  8
MY3DLAYER
10
65.7068219810022
20
95.20003871114943
30
7.764753030543356e-14
 70
     32
  0
VERTEX
  8
MY3DLAYER
10
65.74258939800872
20
95.05724717829197
30
7.768060937314848e-14
 70
     32
  0
VERTEX
  8
MY3DLAYER
10
65.76418856741208
20
94.9116374057621
30
7.772058593176761e-14
 70
     32
  0
VERTEX
  8
MY3DLAYER
10
65.77141147740384
20
94.76461169526777
30
7.776707498517775e-14
 70
     32
  0
VERTEX
  8
MY3DLAYER
10
65.76418856741208
20
94.61758598477346
30
7.781962881838132e-14
 70
     32
  0
VERTEX
  8
MY3DLAYER
10
65.74258939800872
20
94.47197621224358
30
7.787774130923565e-14
 70
     32
  0
VERTEX
  8
MY3DLAYER
10
65.7068219810022
20
94.32918467938612
30
7.794085280268626e-14
 70
     32
  0
VERTEX
  8
MY3DLAYER
10
65.65723077617079
20
94.19058654672014
30
7.800835550055105e-14
 70
     32
  0
VERTEX
  8
MY3DLAYER
10
65.59429337392632
20
94.05751659002887
30
7.807959931494865e-14
 70
     32
  0
VERTEX
  8
MY3DLAYER
10
65.51861589585761
20
93.93125634573836
30
7.815389812900084e-14
 70
     32
  0
VERTEX
  8
MY3DLAYER
10
65.43092715744795
20
93.81302176902228
30
7.823053640451233e-14
 70
     32
  0
VERTEX
  8
MY3DLAYER
10
65.33207164918372
20
93.70395152348797
30
7.830877607299508e-14
 70
     32
  0
VERTEX
  8
MY3DLAYER
10
65.2230014036493
20
93.60509601522374
30
7.838786364367157e-14
 70
     32
  0
VERTEX
  8
MY3DLAYER
10
65.10476682693324
20
93.51740727681407
30
7.846703746000252e-14
 70
     32
  0
VERTEX
  8
MY3DLAYER
10
64.97850658264282
20
93.44172979874519
30
7.854553503485593e-14
 70
     32
  0
VERTEX
  8
MY3DLAYER
10
64.84543662595146
20
93.37879239650088
30
7.862260039367456e-14
 70
     32
  0
VERTEX
  8
MY3DLAYER
10
64.70683849328557
20
93.3292011916695
30
7.869749135492505e-14
 70
     32
  0
VERTEX
  8
MY3DLAYER
10
64.56404696042802
20
93.29343377466297
30
7.87694866777109e-14
 70
     32
  0
VERTEX
  8
MY3DLAYER
10
64.41843718789823
20
93.27183460525943
30
7.883789300771696e-14
 70
     32
  0
VERTEX
  8
MY3DLAYER
10
64.27141147740383
20
93.26461169526776
30
7.890205155459065e-14
 70
     32
  0
VERTEX
  8
MY3DLAYER
10
64.12438576690941
20
93.27183460525943
30
7.896134443645294e-14
 70
     32
  0
VERTEX
  8
MY3DLAYER
10
63.97877599437963
20
93.29343377466297
30
7.901520063043877e-14
 70
     32
  0
VERTEX
  8
MY3DLAYER
10
63.83598446152208
20
93.3292011916695
30
7.90631014719591e-14
 70
     32
  0
VERTEX
  8
MY3DLAYER
10
63.69738632885619
20
93.37879239650088
30
7.910458564972493e-14
 70
     32
  0
VERTEX
  8
MY3DLAYER
10
63.564316372164825
20
93.44172979874519
30
7.913925364842685e-14
 70
     32
  0
VERTEX
  8
MY3DLAYER
10
63.43805612787441
20
93.51740727681407
30
7.91667715962858e-14
 70
     32
  0
VERTEX
  8
MY3DLAYER
10
63.319821551158334
20
93.60509601522374
30
7.918687448042117e-14
 70
     32
  0
VERTEX
  8
MY3DLAYER
10
63.21075130562393
20
93.70395152348797
30
7.91993686990693e-14
 70
     32
  0
VERTEX
  8
MY3DLAYER
10
63.11189579735969
20
93.81302176902228
30
7.920413392607471e-14
 70
     32
  0
VERTEX
  8
MY3DLAYER
10
63.02420705895003
20
93.93125634573836
30
7.920112426969618e-14
 70
     32
  0
VERTEX
  8
MY3DLAYER
10
62.94852958088133
20
94.05751659002887
30
7.919036871457002e-14
 70
     32
  0
VERTEX
  8
MY3DLAYER
10
62.88559217863685
20
94.19058654672014
30
7.917197084257166e-14
 70
     32
  0
VERTEX
  8
MY3DLAYER
10
62.836000973805454
20
94.32918467938612
30
7.914610783526573e-14
 70
     32
  0
VERTEX
  8
MY3DLAYER
10
62.800233556798936
20
94.47197621224358
30
7.911302876755081e-14
 70
     32
  0
VERTEX
  8
MY3DLAYER
10
62.77863438739556
20
94.61758598477346
30
7.907305220893175e-14
 70
     32
  0
VERTEX
  8
MY3DLAYER
10
62.7714114774038
20
94.76461169526777
30
7.902656315552153e-14
 70
     32
  0
SEQEND
  0
POLYLINE
 8
Layer0
 66
     1
70
    8
 10
0.0
 20
 0.0
 30
0.0
  0
VERTEX
  8
MY3DLAYER
10
64.56404696042802
20
62.79343377466287
30
8.904254719061218e-14
 70
     32
  0
VERTEX
  8
MY3DLAYER
10
64.41843718789823
20
62.77183460525951
30
8.911095352061831e-14
 70
     32
  0
VERTEX
  8
MY3DLAYER
10
64.27141147740383
20
62.76461169526783
30
8.9175112067492e-14
 70
     32
  0
VERTEX
  8
MY3DLAYER
10
64.12438576690941
20
62.77183460525951
30
8.92344049493543e-14
 70
     32
  0
VERTEX
  8
MY3DLAYER
10
63.97877599437963
20
62.79343377466287
30
8.928826114334005e-14
 70
     32
  0
VERTEX
  8
MY3DLAYER
10
63.83598446152208
20
62.82920119166939
30
8.933616198486037e-14
 70
     32
  0
VERTEX
  8
MY3DLAYER
10
63.69738632885619
20
62.87879239650079
30
8.937764616262628e-14
 70
     32
  0
VERTEX
  8
MY3DLAYER
10
63.564316372164825
20
62.941729798745264
30
8.941231416132812e-14
 70
     32
  0
VERTEX
  8
MY3DLAYER
10
63.43805612787441
20
63.01740727681398
30
8.943983210918715e-14
 70
     32
  0
VERTEX
  8
MY3DLAYER
10
63.319821551158334
20
63.10509601522364
30
8.945993499332252e-14
 70
     32
  0
VERTEX
  8
MY3DLAYER
10
63.21075130562393
20
63.20395152348805
30
8.947242921197066e-14
 70
     32
  0
VERTEX
  8
MY3DLAYER
10
63.11189579735969
20
63.31302176902237
30
8.947719443897599e-14
 70
     32
  0
VERTEX
  8
MY3DLAYER
10
63.02420705895003
20
63.43125634573844
30
8.947418478259753e-14
 70
     32
  0
VERTEX
  8
MY3DLAYER
10
62.94852958088133
20
63.55751659002876
30
8.946342922747129e-14
 70
     32
  0
VERTEX
  8
MY3DLAYER
10
62.88559217863685
20
63.69058654672022
30
8.944503135547301e-14
 70
     32
  0
VERTEX
  8
MY3DLAYER
10
62.836000973805454
20
63.8291846793862
30
8.941916834816708e-14
 70
     32
  0
VERTEX
  8
MY3DLAYER
10
62.800233556798936
20
63.97197621224366
30
8.938608928045208e-14
 70
     32
  0
VERTEX
  8
MY3DLAYER
10
62.77863438739556
20
64.11758598477354
30
8.934611272183302e-14
 70
     32
  0
VERTEX
  8
MY3DLAYER
10
62.7714114774038
20
64.26461169526786
30
8.92996236684228e-14
 70
     32
  0
VERTEX
  8
MY3DLAYER
10
62.77863438739556
20
64.41163740576216
30
8.924706983521923e-14
 70
     32
  0
VERTEX
  8
MY3DLAYER
10
62.800233556798936
20
64.55724717829204
30
8.918895734436491e-14
 70
     32
  0
VERTEX
  8
MY3DLAYER
10
62.836000973805454
20
64.7000387111495
30
8.91258458509143e-14
 70
     32
  0
VERTEX
  8
MY3DLAYER
10
62.88559217863685
20
64.8386368438155
30
8.905834315304951e-14
 70
     32
  0
VERTEX
  8
MY3DLAYER
10
62.94852958088133
20
64.97170680050677
30
8.898709933865191e-14
 70
     32
  0
VERTEX
  8
MY3DLAYER
10
63.02420705895003
20
65.09796704479727
30
8.891280052459972e-14
 70
     32
  0
VERTEX
  8
MY3DLAYER
10
63.11189579735969
20
65.21620162151333
30
8.883616224908831e-14
 70
     32
  0
VERTEX
  8
MY3DLAYER
10
63.21075130562393
20
65.32527186704766
30
8.875792258060555e-14
 70
     32
  0
VERTEX
  8
MY3DLAYER
10
63.319821551158334
20
65.4241273753119
30
8.867883500992899e-14
 70
     32
  0
VERTEX
  8
MY3DLAYER
10
63.43805612787441
20
65.51181611372155
30
8.859966119359804e-14
 70
     32
  0
VERTEX
  8
MY3DLAYER
10
63.564316372164825
20
65.58749359179045
30
8.85211636187447e-14
 70
     32
  0
VERTEX
  8
MY3DLAYER
10
63.69738632885619
20
65.65043099403474
30
8.844409825992599e-14
 70
     32
  0
VERTEX
  8
MY3DLAYER
10
63.83598446152208
20
65.70002219886614
30
8.83692072986755e-14
 70
     32
  0
VERTEX
  8
MY3DLAYER
10
63.97877599437963
20
65.73578961587265
30
8.829721197588973e-14
 70
     32
  0
VERTEX
  8
MY3DLAYER
10
64.12438576690941
20
65.7573887852762
30
8.82288056458836e-14
 70
     32
  0
VERTEX
  8
MY3DLAYER
10
64.27141147740383
20
65.76461169526787
30
8.816464709900982e-14
 70
     32
  0
VERTEX
  8
MY3DLAYER
10
64.41843718789823
20
65.7573887852762
30
8.810535421714753e-14
 70
     32
  0
VERTEX
  8
MY3DLAYER
10
64.56404696042802
20
65.73578961587265
30
8.805149802316186e-14
 70
     32
  0
VERTEX
  8
MY3DLAYER
10
64.70683849328557
20
65.70002219886614
30
8.800359718164145e-14
 70
     32
  0
VERTEX
  8
MY3DLAYER
10
64.84543662595146
20
65.65043099403474
30
8.796211300387556e-14
 70
     32
  0
VERTEX
  8
MY3DLAYER
10
64.97850658264282
20
65.58749359179045
30
8.792744500517371e-14
 70
     32
  0
VERTEX
  8
MY3DLAYER
10
65.10476682693324
20
65.51181611372155
30
8.789992705731476e-14
 70
     32
  0
VERTEX
  8
MY3DLAYER
10
65.2230014036493
20
65.4241273753119
30
8.787982417317939e-14
 70
     32
  0
VERTEX
  8
MY3DLAYER
10
65.33207164918372
20
65.32527186704766
30
8.786732995453116e-14
 70
     32
  0
VERTEX
  8
MY3DLAYER
10
65.43092715744795
20
65.21620162151333
30
8.786256472752592e-14
 70
     32
  0
VERTEX
  8
MY3DLAYER
10
65.51861589585761
20
65.09796704479727
30
8.786557438390438e-14
 70
     32
  0
VERTEX
  8
MY3DLAYER
10
65.59429337392632
20
64.97170680050677
30
8.787632993903054e-14
 70
     32
  0
VERTEX
  8
MY3DLAYER
10
65.65723077617079
20
64.8386368438155
30
8.78947278110289e-14
 70
     32
  0
VERTEX
  8
MY3DLAYER
10
65.7068219810022
20
64.7000387111495
30
8.792059081833483e-14
 70
     32
  0
VERTEX
  8
MY3DLAYER
10
65.74258939800872
20
64.55724717829204
30
8.795366988604974e-14
 70
     32
  0
VERTEX
  8
MY3DLAYER
10
65.76418856741208
20
64.41163740576216
30
8.799364644466889e-14
 70
     32
  0
VERTEX
  8
MY3DLAYER
10
65.77141147740384
20
64.26461169526786
30
8.804013549807903e-14
 70
     32
  0
VERTEX
  8
MY3DLAYER
10
65.76418856741208
20
64.11758598477354
30
8.809268933128259e-14
 70
     32
  0
VERTEX
  8
MY3DLAYER
10
65.74258939800872
20
63.97197621224366
30
8.815080182213692e-14
 70
     32
  0
VERTEX
  8
MY3DLAYER
10
65.7068219810022
20
63.8291846793862
30
8.821391331558753e-14
 70
     32
  0
VERTEX
  8
MY3DLAYER
10
65.65723077617079
20
63.69058654672022
30
8.828141601345231e-14
 70
     32
  0
VERTEX
  8
MY3DLAYER
10
65.59429337392632
20
63.55751659002876
30
8.835265982785e-14
 70
     32
  0
VERTEX
  8
MY3DLAYER
10
65.51861589585761
20
63.43125634573844
30
8.84269586419021e-14
 70
     32
  0
VERTEX
  8
MY3DLAYER
10
65.43092715744795
20
63.31302176902237
30
8.85035969174136e-14
 70
     32
  0
VERTEX
  8
MY3DLAYER
10
65.33207164918372
20
63.20395152348805
30
8.858183658589634e-14
 70
     32
  0
VERTEX
  8
MY3DLAYER
10
65.2230014036493
20
63.10509601522364
30
8.866092415657284e-14
 70
     32
  0
VERTEX
  8
MY3DLAYER
10
65.10476682693324
20
63.01740727681398
30
8.874009797290387e-14
 70
     32
  0
VERTEX
  8
MY3DLAYER
10
64.97850658264282
20
62.941729798745264
30
8.881859554775721e-14
 70
     32
  0
VERTEX
  8
MY3DLAYER
10
64.84543662595146
20
62.87879239650079
30
8.889566090657591e-14
 70
     32
  0
VERTEX
  8
MY3DLAYER
10
64.70683849328557
20
62.82920119166939
30
8.89705518678264e-14
 70
     32
  0
VERTEX
  8
MY3DLAYER
10
64.56404696042802
20
62.79343377466287
30
8.904254719061218e-14
 70
     32
  0
SEQEND
  0
POLYLINE
 8
Layer0
 66
     1
70
    8
 10
0.0
 20
 0.0
 30
0.0
  0
VERTEX
  8
MY3DLAYER
10
93.27863438739544
20
94.61758598477346
30
6.626825581043727e-14
 70
     32
  0
VERTEX
  8
MY3DLAYER
10
93.27141147740377
20
94.76461169526777
30
6.622176675702705e-14
 70
     32
  0
VERTEX
  8
MY3DLAYER
10
93.27863438739544
20
94.9116374057621
30
6.616921292382348e-14
 70
     32
  0
VERTEX
  8
MY3DLAYER
10
93.3002335567989
20
95.05724717829197
30
6.611110043296916e-14
 70
     32
  0
VERTEX
  8
MY3DLAYER
10
93.33600097380543
20
95.20003871114943
30
6.604798893951854e-14
 70
     32
  0
VERTEX
  8
MY3DLAYER
10
93.38559217863681
20
95.33863684381541
30
6.598048624165376e-14
 70
     32
  0
VERTEX
  8
MY3DLAYER
10
93.4485295808812
20
95.47170680050678
30
6.590924242725615e-14
 70
     32
  0
VERTEX
  8
MY3DLAYER
10
93.52420705894991
20
95.5979670447971
30
6.583494361320397e-14
 70
     32
  0
VERTEX
  8
MY3DLAYER
10
93.61189579735957
20
95.71620162151318
30
6.575830533769256e-14
 70
     32
  0
VERTEX
  8
MY3DLAYER
10
93.7107513056239
20
95.82527186704749
30
6.56800656692098e-14
 70
     32
  0
VERTEX
  8
MY3DLAYER
10
93.8198215511583
20
95.92412737531181
30
6.560097809853324e-14
 70
     32
  0
VERTEX
  8
MY3DLAYER
10
93.93805612787438
20
96.01181611372148
30
6.552180428220229e-14
 70
     32
  0
VERTEX
  8
MY3DLAYER
10
94.0643163721647
20
96.08749359179018
30
6.544330670734895e-14
 70
     32
  0
VERTEX
  8
MY3DLAYER
10
94.19738632885615
20
96.15043099403466
30
6.536624134853024e-14
 70
     32
  0
VERTEX
  8
MY3DLAYER
10
94.33598446152205
20
96.20002219886605
30
6.529135038727975e-14
 70
     32
  0
VERTEX
  8
MY3DLAYER
10
94.4787759943796
20
96.23578961587258
30
6.52193550644939e-14
 70
     32
  0
VERTEX
  8
MY3DLAYER
10
94.62438576690938
20
96.25738878527595
30
6.515094873448785e-14
 70
     32
  0
VERTEX
  8
MY3DLAYER
10
94.77141147740379
20
96.26461169526762
30
6.508679018761416e-14
 70
     32
  0
VERTEX
  8
MY3DLAYER
10
94.9184371878981
20
96.25738878527595
30
6.502749730575185e-14
 70
     32
  0
VERTEX
  8
MY3DLAYER
10
95.06404696042799
20
96.23578961587258
30
6.497364111176602e-14
 70
     32
  0
VERTEX
  8
MY3DLAYER
10
95.20683849328545
20
96.20002219886605
30
6.49257402702457e-14
 70
     32
  0
VERTEX
  8
MY3DLAYER
10
95.34543662595145
20
96.15043099403466
30
6.488425609247988e-14
 70
     32
  0
VERTEX
  8
MY3DLAYER
10
95.47850658264272
20
96.08749359179018
30
6.484958809377795e-14
 70
     32
  0
VERTEX
  8
MY3DLAYER
10
95.60476682693323
20
96.01181611372148
30
6.482207014591901e-14
 70
     32
  0
VERTEX
  8
MY3DLAYER
10
95.7230014036493
20
95.92412737531181
30
6.480196726178363e-14
 70
     32
  0
VERTEX
  8
MY3DLAYER
10
95.83207164918362
20
95.82527186704749
30
6.47894730431355e-14
 70
     32
  0
VERTEX
  8
MY3DLAYER
10
95.93092715744785
20
95.71620162151318
30
6.478470781613017e-14
 70
     32
  0
VERTEX
  8
MY3DLAYER
10
96.01861589585761
20
95.5979670447971
30
6.478771747250863e-14
 70
     32
  0
VERTEX
  8
MY3DLAYER
10
96.0942933739263
20
95.47170680050678
30
6.479847302763478e-14
 70
     32
  0
VERTEX
  8
MY3DLAYER
10
96.15723077617069
20
95.33863684381541
30
6.481687089963315e-14
 70
     32
  0
VERTEX
  8
MY3DLAYER
10
96.2068219810021
20
95.20003871114943
30
6.484273390693907e-14
 70
     32
  0
VERTEX
  8
MY3DLAYER
10
96.24258939800862
20
95.05724717829197
30
6.487581297465399e-14
 70
     32
  0
VERTEX
  8
MY3DLAYER
10
96.26418856741208
20
94.9116374057621
30
6.491578953327314e-14
 70
     32
  0
VERTEX
  8
MY3DLAYER
10
96.27141147740383
20
94.76461169526777
30
6.496227858668327e-14
 70
     32
  0
VERTEX
  8
MY3DLAYER
10
96.26418856741208
20
94.61758598477346
30
6.501483241988684e-14
 70
     32
  0
VERTEX
  8
MY3DLAYER
10
96.24258939800862
20
94.47197621224358
30
6.507294491074117e-14
 70
     32
  0
VERTEX
  8
MY3DLAYER
10
96.2068219810021
20
94.32918467938612
30
6.513605640419178e-14
 70
     32
  0
VERTEX
  8
MY3DLAYER
10
96.15723077617069
20
94.19058654672014
30
6.520355910205656e-14
 70
     32
  0
VERTEX
  8
MY3DLAYER
10
96.0942933739263
20
94.05751659002887
30
6.527480291645417e-14
 70
     32
  0
VERTEX
  8
MY3DLAYER
10
96.01861589585761
20
93.93125634573836
30
6.534910173050635e-14
 70
     32
  0
VERTEX
  8
MY3DLAYER
10
95.93092715744785
20
93.81302176902228
30
6.542574000601785e-14
 70
     32
  0
VERTEX
  8
MY3DLAYER
10
95.83207164918362
20
93.70395152348797
30
6.550397967450059e-14
 70
     32
  0
VERTEX
  8
MY3DLAYER
10
95.7230014036493
20
93.60509601522374
30
6.558306724517709e-14
 70
     32
  0
VERTEX
  8
MY3DLAYER
10
95.60476682693323
20
93.51740727681407
30
6.566224106150803e-14
 70
     32
  0
VERTEX
  8
MY3DLAYER
10
95.47850658264272
20
93.44172979874519
30
6.574073863636146e-14
 70
     32
  0
VERTEX
  8
MY3DLAYER
10
95.34543662595145
20
93.37879239650088
30
6.581780399518008e-14
 70
     32
  0
VERTEX
  8
MY3DLAYER
10
95.20683849328545
20
93.3292011916695
30
6.589269495643057e-14
 70
     32
  0
VERTEX
  8
MY3DLAYER
10
95.06404696042799
20
93.29343377466297
30
6.596469027921643e-14
 70
     32
  0
VERTEX
  8
MY3DLAYER
10
94.9184371878981
20
93.27183460525943
30
6.603309660922248e-14
 70
     32
  0
VERTEX
  8
MY3DLAYER
10
94.77141147740379
20
93.26461169526776
30
6.609725515609616e-14
 70
     32
  0
VERTEX
  8
MY3DLAYER
10
94.62438576690938
20
93.27183460525943
30
6.615654803795847e-14
 70
     32
  0
VERTEX
  8
MY3DLAYER
10
94.4787759943796
20
93.29343377466297
30
6.621040423194422e-14
 70
     32
  0
VERTEX
  8
MY3DLAYER
10
94.33598446152205
20
93.3292011916695
30
6.625830507346462e-14
 70
     32
  0
VERTEX
  8
MY3DLAYER
10
94.19738632885615
20
93.37879239650088
30
6.629978925123044e-14
 70
     32
  0
VERTEX
  8
MY3DLAYER
10
94.0643163721647
20
93.44172979874519
30
6.633445724993237e-14
 70
     32
  0
VERTEX
  8
MY3DLAYER
10
93.93805612787438
20
93.51740727681407
30
6.636197519779131e-14
 70
     32
  0
VERTEX
  8
MY3DLAYER
10
93.8198215511583
20
93.60509601522374
30
6.638207808192668e-14
 70
     32
  0
VERTEX
  8
MY3DLAYER
10
93.7107513056239
20
93.70395152348797
30
6.639457230057482e-14
 70
     32
  0
VERTEX
  8
MY3DLAYER
10
93.61189579735957
20
93.81302176902228
30
6.639933752758023e-14
 70
     32
  0
VERTEX
  8
MY3DLAYER
10
93.52420705894991
20
93.93125634573836
30
6.639632787120169e-14
 70
     32
  0
VERTEX
  8
MY3DLAYER
10
93.4485295808812
20
94.05751659002887
30
6.638557231607553e-14
 70
     32
  0
VERTEX
  8
MY3DLAYER
10
93.38559217863681
20
94.19058654672014
30
6.636717444407718e-14
 70
     32
  0
VERTEX
  8
MY3DLAYER
10
93.33600097380543
20
94.32918467938612
30
6.634131143677125e-14
 70
     32
  0
VERTEX
  8
MY3DLAYER
10
93.3002335567989
20
94.47197621224358
30
6.630823236905633e-14
 70
     32
  0
VERTEX
  8
MY3DLAYER
10
93.27863438739544
20
94.61758598477346
30
6.626825581043727e-14
 70
     32
  0
SEQEND
  0
POLYLINE
 8
Layer0
 66
     1
70
    8
 10
0.0
 20
 0.0
 30
0.0
  0
VERTEX
  8
MY3DLAYER
10
96.26418856741208
20
64.41163740576216
30
7.51888500461744e-14
 70
     32
  0
VERTEX
  8
MY3DLAYER
10
96.27141147740383
20
64.26461169526786
30
7.523533909958454e-14
 70
     32
  0
VERTEX
  8
MY3DLAYER
10
96.26418856741208
20
64.11758598477354
30
7.528789293278811e-14
 70
     32
  0
VERTEX
  8
MY3DLAYER
10
96.24258939800862
20
63.97197621224366
30
7.534600542364243e-14
 70
     32
  0
VERTEX
  8
MY3DLAYER
10
96.2068219810021
20
63.8291846793862
30
7.540911691709305e-14
 70
     32
  0
VERTEX
  8
MY3DLAYER
10
96.15723077617069
20
63.69058654672022
30
7.547661961495784e-14
 70
     32
  0
VERTEX
  8
MY3DLAYER
10
96.0942933739263
20
63.55751659002876
30
7.554786342935552e-14
 70
     32
  0
VERTEX
  8
MY3DLAYER
10
96.01861589585761
20
63.43125634573844
30
7.562216224340763e-14
 70
     32
  0
VERTEX
  8
MY3DLAYER
10
95.93092715744785
20
63.31302176902237
30
7.569880051891911e-14
 70
     32
  0
VERTEX
  8
MY3DLAYER
10
95.83207164918362
20
63.20395152348805
30
7.577704018740187e-14
 70
     32
  0
VERTEX
  8
MY3DLAYER
10
95.7230014036493
20
63.10509601522364
30
7.585612775807835e-14
 70
     32
  0
VERTEX
  8
MY3DLAYER
10
95.60476682693323
20
63.01740727681398
30
7.593530157440938e-14
 70
     32
  0
VERTEX
  8
MY3DLAYER
10
95.47850658264272
20
62.941729798745264
30
7.601379914926272e-14
 70
     32
  0
VERTEX
  8
MY3DLAYER
10
95.34543662595145
20
62.87879239650079
30
7.609086450808143e-14
 70
     32
  0
VERTEX
  8
MY3DLAYER
10
95.20683849328545
20
62.82920119166939
30
7.616575546933192e-14
 70
     32
  0
VERTEX
  8
MY3DLAYER
10
95.06404696042799
20
62.79343377466287
30
7.623775079211769e-14
 70
     32
  0
VERTEX
  8
MY3DLAYER
10
94.9184371878981
20
62.77183460525951
30
7.630615712212383e-14
 70
     32
  0
VERTEX
  8
MY3DLAYER
10
94.77141147740379
20
62.76461169526783
30
7.637031566899751e-14
 70
     32
  0
VERTEX
  8
MY3DLAYER
10
94.62438576690938
20
62.77183460525951
30
7.642960855085982e-14
 70
     32
  0
VERTEX
  8
MY3DLAYER
10
94.4787759943796
20
62.79343377466287
30
7.648346474484557e-14
 70
     32
  0
VERTEX
  8
MY3DLAYER
10
94.33598446152205
20
62.82920119166939
30
7.653136558636589e-14
 70
     32
  0
VERTEX
  8
MY3DLAYER
10
94.19738632885615
20
62.87879239650079
30
7.657284976413179e-14
 70
     32
  0
VERTEX
  8
MY3DLAYER
10
94.0643163721647
20
62.941729798745264
30
7.660751776283363e-14
 70
     32
  0
VERTEX
  8
MY3DLAYER
10
93.93805612787438
20
63.01740727681398
30
7.663503571069266e-14
 70
     32
  0
VERTEX
  8
MY3DLAYER
10
93.8198215511583
20
63.10509601522364
30
7.665513859482804e-14
 70
     32
  0
VERTEX
  8
MY3DLAYER
10
93.7107513056239
20
63.20395152348805
30
7.666763281347617e-14
 70
     32
  0
VERTEX
  8
MY3DLAYER
10
93.61189579735957
20
63.31302176902237
30
7.66723980404815e-14
 70
     32
  0
VERTEX
  8
MY3DLAYER
10
93.52420705894991
20
63.43125634573844
30
7.666938838410304e-14
 70
     32
  0
VERTEX
  8
MY3DLAYER
10
93.4485295808812
20
63.55751659002876
30
7.665863282897681e-14
 70
     32
  0
VERTEX
  8
MY3DLAYER
10
93.38559217863681
20
63.69058654672022
30
7.664023495697853e-14
 70
     32
  0
VERTEX
  8
MY3DLAYER
10
93.33600097380543
20
63.8291846793862
30
7.66143719496726e-14
 70
     32
  0
VERTEX
  8
MY3DLAYER
10
93.3002335567989
20
63.97197621224366
30
7.65812928819576e-14
 70
     32
  0
VERTEX
  8
MY3DLAYER
10
93.27863438739544
20
64.11758598477354
30
7.654131632333855e-14
 70
     32
  0
VERTEX
  8
MY3DLAYER
10
93.27141147740377
20
64.26461169526786
30
7.649482726992832e-14
 70
     32
  0
VERTEX
  8
MY3DLAYER
10
93.27863438739544
20
64.41163740576216
30
7.644227343672476e-14
 70
     32
  0
VERTEX
  8
MY3DLAYER
10
93.3002335567989
20
64.55724717829204
30
7.638416094587042e-14
 70
     32
  0
VERTEX
  8
MY3DLAYER
10
93.33600097380543
20
64.7000387111495
30
7.632104945241981e-14
 70
     32
  0
VERTEX
  8
MY3DLAYER
10
93.38559217863681
20
64.8386368438155
30
7.625354675455503e-14
 70
     32
  0
VERTEX
  8
MY3DLAYER
10
93.4485295808812
20
64.97170680050677
30
7.618230294015742e-14
 70
     32
  0
VERTEX
  8
MY3DLAYER
10
93.52420705894991
20
65.09796704479727
30
7.610800412610524e-14
 70
     32
  0
VERTEX
  8
MY3DLAYER
10
93.61189579735957
20
65.21620162151333
30
7.603136585059382e-14
 70
     32
  0
VERTEX
  8
MY3DLAYER
10
93.7107513056239
20
65.32527186704766
30
7.595312618211108e-14
 70
     32
  0
VERTEX
  8
MY3DLAYER
10
93.8198215511583
20
65.4241273753119
30
7.58740386114345e-14
 70
     32
  0
VERTEX
  8
MY3DLAYER
10
93.93805612787438
20
65.51181611372155
30
7.579486479510357e-14
 70
     32
  0
VERTEX
  8
MY3DLAYER
10
94.0643163721647
20
65.58749359179045
30
7.571636722025021e-14
 70
     32
  0
VERTEX
  8
MY3DLAYER
10
94.19738632885615
20
65.65043099403474
30
7.563930186143151e-14
 70
     32
  0
VERTEX
  8
MY3DLAYER
10
94.33598446152205
20
65.70002219886614
30
7.556441090018103e-14
 70
     32
  0
VERTEX
  8
MY3DLAYER
10
94.4787759943796
20
65.73578961587265
30
7.549241557739517e-14
 70
     32
  0
VERTEX
  8
MY3DLAYER
10
94.62438576690938
20
65.7573887852762
30
7.542400924738911e-14
 70
     32
  0
VERTEX
  8
MY3DLAYER
10
94.77141147740379
20
65.76461169526787
30
7.535985070051535e-14
 70
     32
  0
VERTEX
  8
MY3DLAYER
10
94.9184371878981
20
65.7573887852762
30
7.530055781865305e-14
 70
     32
  0
VERTEX
  8
MY3DLAYER
10
95.06404696042799
20
65.73578961587265
30
7.524670162466737e-14
 70
     32
  0
VERTEX
  8
MY3DLAYER
10
95.20683849328545
20
65.70002219886614
30
7.519880078314698e-14
 70
     32
  0
VERTEX
  8
MY3DLAYER
10
95.34543662595145
20
65.65043099403474
30
7.515731660538107e-14
 70
     32
  0
VERTEX
  8
MY3DLAYER
10
95.47850658264272
20
65.58749359179045
30
7.512264860667922e-14
 70
     32
  0
VERTEX
  8
MY3DLAYER
10
95.60476682693323
20
65.51181611372155
30
7.509513065882027e-14
 70
     32
  0
VERTEX
  8
MY3DLAYER
10
95.7230014036493
20
65.4241273753119
30
7.507502777468491e-14
 70
     32
  0
VERTEX
  8
MY3DLAYER
10
95.83207164918362
20
65.32527186704766
30
7.506253355603669e-14
 70
     32
  0
VERTEX
  8
MY3DLAYER
10
95.93092715744785
20
65.21620162151333
30
7.505776832903144e-14
 70
     32
  0
VERTEX
  8
MY3DLAYER
10
96.01861589585761
20
65.09796704479727
30
7.50607779854099e-14
 70
     32
  0
VERTEX
  8
MY3DLAYER
10
96.0942933739263
20
64.97170680050677
30
7.507153354053606e-14
 70
     32
  0
VERTEX
  8
MY3DLAYER
10
96.15723077617069
20
64.8386368438155
30
7.508993141253441e-14
 70
     32
  0
VERTEX
  8
MY3DLAYER
10
96.2068219810021
20
64.7000387111495
30
7.511579441984034e-14
 70
     32
  0
VERTEX
  8
MY3DLAYER
10
96.24258939800862
20
64.55724717829204
30
7.514887348755526e-14
 70
     32
  0
VERTEX
  8
MY3DLAYER
10
96.26418856741208
20
64.41163740576216
30
7.51888500461744e-14
 70
     32
  0
SEQEND
  0
POLYLINE
 8
Layer0
 66
     1
70
    8
 10
0.0
 20
 0.0
 30
0.0
  0
VERTEX
  8
MY3DLAYER
10
71.02141147740382
20
61.51461169526776
30
8.545683563403406e-14
 70
     32
  0
VERTEX
  8
MY3DLAYER
10
88.0214114774037
20
61.51461169526776
30
8.671632380437776e-14
 70
     32
  0
VERTEX
  8
MY3DLAYER
10
88.09501301087087
20
61.512804878495885
30
8.668603229248824e-14
 70
     32
  0
VERTEX
  8
MY3DLAYER
10
88.16843720944708
20
61.507388783153665
30
8.665703091418341e-14
 70
     32
  0
VERTEX
  8
MY3DLAYER
10
88.24150721016024
20
61.49837645708896
30
8.662938952693934e-14
 70
     32
  0
VERTEX
  8
MY3DLAYER
10
88.31404698098008
20
61.48578961178453
30
8.66031747212783e-14
 70
     32
  0
VERTEX
  8
MY3DLAYER
10
88.38588176724663
20
61.46965857005275
30
8.657844965096263e-14
 70
     32
  0
VERTEX
  8
MY3DLAYER
10
88.45683851266949
20
61.45002219298596
30
8.655527388085183e-14
 70
     32
  0
VERTEX
  8
MY3DLAYER
10
88.52674627623546
20
61.42692778633576
30
8.653370324340572e-14
 70
     32
  0
VERTEX
  8
MY3DLAYER
10
88.59543664402041
20
61.400430986550205
30
8.651378970417844e-14
 70
     32
  0
VERTEX
  8
MY3DLAYER
10
88.66274413491348
20
61.37059562674026
30
8.649558123663008e-14
 70
     32
  0
VERTEX
  8
MY3DLAYER
10
88.7285065992751
20
61.33749358289999
30
8.647912170655322e-14
 70
     32
  0
VERTEX
  8
MY3DLAYER
10
88.7925656095702
20
61.30120460075208
30
8.64644507663972e-14
 70
     32
  0
VERTEX
  8
MY3DLAYER
10
88.85476684203334
20
61.261816103632
30
8.64516037597415e-14
 70
     32
  0
VERTEX
  8
MY3DLAYER
10
88.91496044844874
20
61.21942298187838
30
8.644061163615019e-14
 70
     32
  0
VERTEX
  8
MY3DLAYER
10
88.97300141714776
20
61.17412736423386
30
8.643150087661142e-14
 70
     32
  0
VERTEX
  8
MY3DLAYER
10
89.0287499223542
20
61.126038371807695
30
8.642429342974289e-14
 70
     32
  0
VERTEX
  8
MY3DLAYER
10
89.08207166103738
20
61.075271855193755
30
8.641900665891512e-14
 70
     32
  0
VERTEX
  8
MY3DLAYER
10
89.13283817645953
20
61.0219501153759
30
8.641565330042199e-14
 70
     32
  0
VERTEX
  8
MY3DLAYER
10
89.1809271676396
20
60.96620160909454
30
8.641424143279784e-14
 70
     32
  0
VERTEX
  8
MY3DLAYER
10
89.22622278398674
20
60.90816063938304
30
8.641477445735536e-14
 70
     32
  0
VERTEX
  8
MY3DLAYER
10
89.2686159043949
20
60.847967032020044
30
8.641725108999156e-14
 70
     32
  0
VERTEX
  8
MY3DLAYER
10
89.30800440012467
20
60.78576579867654
30
8.642166536428183e-14
 70
     32
  0
VERTEX
  8
MY3DLAYER
10
89.34429338084094
20
60.721706787570355
30
8.642800664585268e-14
 70
     32
  0
VERTEX
  8
MY3DLAYER
10
89.37739542321104
20
60.655944322468876
30
8.643625965800159e-14
 70
     32
  0
VERTEX
  8
MY3DLAYER
10
89.4072307815167
20
60.58863683090886
30
8.644640451849952e-14
 70
     32
  0
VERTEX
  8
MY3DLAYER
10
89.43372757976694
20
60.519946462531756
30
8.645841678748922e-14
 70
     32
  0
VERTEX
  8
MY3DLAYER
10
89.45682198485446
20
60.450038698449525
30
8.647226752636288e-14
 70
     32
  0
VERTEX
  8
MY3DLAYER
10
89.4764583603354
20
60.37908195258783
30
8.648792336747762e-14
 70
     32
  0
VERTEX
  8
MY3DLAYER
10
89.49258940046137
20
60.307247165960604
30
8.650534659454137e-14
 70
     32
  0
VERTEX
  8
MY3DLAYER
10
89.50517624414448
20
60.23470739485948
30
8.652449523347419e-14
 70
     32
  0
VERTEX
  8
MY3DLAYER
10
89.51418856857595
20
60.1616373939449
30
8.65453231535284e-14
 70
     32
  0
VERTEX
  8
MY3DLAYER
10
89.51960466227699
20
60.088213195247604
30
8.656778017842046e-14
 70
     32
  0
VERTEX
  8
MY3DLAYER
10
89.52141147740372
20
60.014611684091825
30
8.65918122072112e-14
 70
     32
  0
VERTEX
  8
MY3DLAYER
10
89.51960466118032
20
59.94101017296303
30
8.66173613446387e-14
 70
     32
  0
VERTEX
  8
MY3DLAYER
10
89.51418856638513
20
59.8675859743465
30
8.664436604059365e-14
 70
     32
  0
VERTEX
  8
MY3DLAYER
10
89.50517624086483
20
59.7945159735662
30
8.667276123839889e-14
 70
     32
  0
VERTEX
  8
MY3DLAYER
10
89.49258939610085
20
59.72197620265259
30
8.670247853153623e-14
 70
     32
  0
VERTEX
  8
MY3DLAYER
10
89.47645835490437
20
59.650141416265754
30
8.673344632844437e-14
 70
     32
  0
VERTEX
  8
MY3DLAYER
10
89.45682197836611
20
59.57918467069661
30
8.676559002498885e-14
 70
     32
  0
VERTEX
  8
MY3DLAYER
10
89.43372757223685
20
59.509276906958654
30
8.67988321841899e-14
 70
     32
  0
VERTEX
  8
MY3DLAYER
10
89.40723077296305
20
59.44058653897616
30
8.683309272277517e-14
 70
     32
  0
VERTEX
  8
MY3DLAYER
10
89.37739541365455
20
59.373279047860834
30
8.686828910410702e-14
 70
     32
  0
VERTEX
  8
MY3DLAYER
10
89.34429337030429
20
59.30751658325261
30
8.690433653702081e-14
 70
     32
  0
VERTEX
  8
MY3DLAYER
10
89.30800438863365
20
59.243457572687134
30
8.694114818009421e-14
 70
     32
  0
VERTEX
  8
MY3DLAYER
10
89.26861589197695
20
59.18125633993055
30
8.697863535085539e-14
 70
     32
  0
VERTEX
  8
MY3DLAYER
10
89.22622277067191
20
59.12106273319922
30
8.70167077394275e-14
 70
     32
  0
VERTEX
  8
MY3DLAYER
10
89.18092715345972
20
59.0630217641628
30
8.705527362609253e-14
 70
     32
  0
VERTEX
  8
MY3DLAYER
10
89.13283816144902
20
59.00727325859802
30
8.709424010225245e-14
 70
     32
  0
VERTEX
  8
MY3DLAYER
10
89.0820716452323
20
58.953951519536645
30
8.713351329425397e-14
 70
     32
  0
VERTEX
  8
MY3DLAYER
10
89.02874990579264
20
58.903185003717255
30
8.717299858953855e-14
 70
     32
  0
VERTEX
  8
MY3DLAYER
10
88.97300139986962
20
58.85509601212183
30
8.721260086457228e-14
 70
     32
  0
VERTEX
  8
MY3DLAYER
10
88.91496043049561
20
58.80980039534225
30
8.72522247140067e-14
 70
     32
  0
VERTEX
  8
MY3DLAYER
10
88.85476682344844
20
58.767407274485514
30
8.729177468051891e-14
 70
     32
  0
VERTEX
  8
MY3DLAYER
10
88.79256559039841
20
58.72801877829228
30
8.733115548477622e-14
 70
     32
  0
VERTEX
  8
MY3DLAYER
10
88.72850657956266
20
58.69172979709883
30
8.737027225497263e-14
 70
     32
  0
VERTEX
  8
MY3DLAYER
10
88.66274411470772
20
58.65862775423873
30
8.740903075538366e-14
 70
     32
  0
VERTEX
  8
MY3DLAYER
10
88.59543662337013
20
58.62879239543161
30
8.744733761338763e-14
 70
     32
  0
VERTEX
  8
MY3DLAYER
10
88.5267462551903
20
58.602295596669634
30
8.74851005444093e-14
 70
     32
  0
VERTEX
  8
MY3DLAYER
10
88.45683849128025
20
58.57920119106107
30
8.752222857424099e-14
 70
     32
  0
VERTEX
  8
MY3DLAYER
10
88.38588174556473
20
58.5595648150516
30
8.755863225820776e-14
 70
     32
  0
VERTEX
  8
MY3DLAYER
10
88.31404695905779
20
58.543433774390415
30
8.75942238966471e-14
 70
     32
  0
VERTEX
  8
MY3DLAYER
10
88.24150718805043
20
58.53084693016678
30
8.762891774618535e-14
 70
     32
  0
VERTEX
  8
MY3DLAYER
10
88.168437187203
20
58.52183460519099
30
8.766263022630107e-14
 70
     32
  0
VERTEX
  8
MY3DLAYER
10
88.09501298854603
20
58.51641851094283
30
8.769528012067742e-14
 70
     32
  0
VERTEX
  8
MY3DLAYER
10
88.0214114774037
20
58.51461169526772
30
8.772678877285985e-14
 70
     32
  0
VERTEX
  8
MY3DLAYER
10
71.02141147740382
20
58.51461169526772
30
8.646730060251607e-14
 70
     32
  0
VERTEX
  8
MY3DLAYER
10
70.94780996626149
20
58.51641851094283
30
8.649759210540245e-14
 70
     32
  0
VERTEX
  8
MY3DLAYER
10
70.87438576760452
20
58.52183460519099
30
8.652659348410964e-14
 70
     32
  0
VERTEX
  8
MY3DLAYER
10
70.8013157667571
20
58.53084693016678
30
8.655423487177688e-14
 70
     32
  0
VERTEX
  8
MY3DLAYER
10
70.72877599574973
20
58.543433774390415
30
8.658044967788074e-14
 70
     32
  0
VERTEX
  8
MY3DLAYER
10
70.65694120924279
20
58.5595648150516
30
8.660517474865782e-14
 70
     32
  0
VERTEX
  8
MY3DLAYER
10
70.58598446352728
20
58.57920119106107
30
8.662835051924758e-14
 70
     32
  0
VERTEX
  8
MY3DLAYER
10
70.51607669961723
20
58.602295596669634
30
8.66499211571891e-14
 70
     32
  0
VERTEX
  8
MY3DLAYER
10
70.44738633143739
20
58.62879239543161
30
8.666983469692684e-14
 70
     32
  0
VERTEX
  8
MY3DLAYER
10
70.3800788400998
20
58.65862775423873
30
8.668804316499969e-14
 70
     32
  0
VERTEX
  8
MY3DLAYER
10
70.31431637524486
20
58.69172979709883
30
8.67045026956137e-14
 70
     32
  0
VERTEX
  8
MY3DLAYER
10
70.25025736440912
20
58.72801877829228
30
8.671917363631827e-14
 70
     32
  0
VERTEX
  8
MY3DLAYER
10
70.18805613135908
20
58.767407274485514
30
8.67320206435326e-14
 70
     32
  0
VERTEX
  8
MY3DLAYER
10
70.12786252431191
20
58.80980039534225
30
8.67430127676912e-14
 70
     32
  0
VERTEX
  8
MY3DLAYER
10
70.0698215549379
20
58.85509601212183
30
8.675212352780463e-14
 70
     32
  0
VERTEX
  8
MY3DLAYER
10
70.01407304901488
20
58.903185003717255
30
8.675933097525384e-14
 70
     32
  0
VERTEX
  8
MY3DLAYER
10
69.96075130957523
20
58.953951519536645
30
8.676461774666676e-14
 70
     32
  0
VERTEX
  8
MY3DLAYER
10
69.90998479335852
20
59.00727325859802
30
8.676797110574825e-14
 70
     32
  0
VERTEX
  8
MY3DLAYER
10
69.8618958013478
20
59.0630217641628
30
8.676938297396263e-14
 70
     32
  0
VERTEX
  8
MY3DLAYER
10
69.81660018413562
20
59.12106273319922
30
8.676884994999556e-14
 70
     32
  0
VERTEX
  8
MY3DLAYER
10
69.77420706283058
20
59.18125633993055
30
8.67663733179486e-14
 70
     32
  0
VERTEX
  8
MY3DLAYER
10
69.73481856617389
20
59.243457572687134
30
8.676195904424518e-14
 70
     32
  0
VERTEX
  8
MY3DLAYER
10
69.69852958450325
20
59.30751658325261
30
8.675561776325725e-14
 70
     32
  0
VERTEX
  8
MY3DLAYER
10
69.66542754115297
20
59.373279047860834
30
8.67473647516859e-14
 70
     32
  0
VERTEX
  8
MY3DLAYER
10
69.63559218184449
20
59.44058653897616
30
8.673721989175878e-14
 70
     32
  0
VERTEX
  8
MY3DLAYER
10
69.60909538257067
20
59.509276906958654
30
8.672520762333171e-14
 70
     32
  0
VERTEX
  8
MY3DLAYER
10
69.58600097644143
20
59.57918467069661
30
8.671135688501132e-14
 70
     32
  0
VERTEX
  8
MY3DLAYER
10
69.56636459990315
20
59.650141416265754
30
8.66957010444391e-14
 70
     32
  0
VERTEX
  8
MY3DLAYER
10
69.55023355870668
20
59.72197620265259
30
8.667827781790577e-14
 70
     32
  0
VERTEX
  8
MY3DLAYER
10
69.53764671394269
20
59.7945159735662
30
8.665912917948983e-14
 70
     32
  0
VERTEX
  8
MY3DLAYER
10
69.52863438842239
20
59.8675859743465
30
8.663830125993807e-14
 70
     32
  0
VERTEX
  8
MY3DLAYER
10
69.52321829362721
20
59.94101017296303
30
8.661584423553243e-14
 70
     32
  0
VERTEX
  8
MY3DLAYER
10
69.5214114774038
20
60.014611684091825
30
8.65918122072112e-14
 70
     32
  0
VERTEX
  8
MY3DLAYER
10
69.52321829253053
20
60.088213195247604
30
8.656626307023509e-14
 70
     32
  0
VERTEX
  8
MY3DLAYER
10
69.52863438623157
20
60.1616373939449
30
8.65392583747123e-14
 70
     32
  0
VERTEX
  8
MY3DLAYER
10
69.53764671066305
20
60.23470739485948
30
8.651086317731902e-14
 70
     32
  0
VERTEX
  8
MY3DLAYER
10
69.55023355434615
20
60.307247165960604
30
8.648114588457225e-14
 70
     32
  0
VERTEX
  8
MY3DLAYER
10
69.56636459447213
20
60.37908195258783
30
8.645017808803254e-14
 70
     32
  0
VERTEX
  8
MY3DLAYER
10
69.58600096995306
20
60.450038698449525
30
8.641803439183343e-14
 70
     32
  0
VERTEX
  8
MY3DLAYER
10
69.6090953750406
20
60.519946462531756
30
8.638479223295377e-14
 70
     32
  0
VERTEX
  8
MY3DLAYER
10
69.63559217329082
20
60.58863683090886
30
8.635053169466529e-14
 70
     32
  0
VERTEX
  8
MY3DLAYER
10
69.66542753159648
20
60.655944322468876
30
8.631533531360474e-14
 70
     32
  0
VERTEX
  8
MY3DLAYER
10
69.69852957396658
20
60.721706787570355
30
8.62792878809362e-14
 70
     32
  0
VERTEX
  8
MY3DLAYER
10
69.73481855468286
20
60.78576579867654
30
8.624247623808145e-14
 70
     32
  0
VERTEX
  8
MY3DLAYER
10
69.77420705041261
20
60.847967032020044
30
8.620498906751167e-14
 70
     32
  0
VERTEX
  8
MY3DLAYER
10
69.81660017082078
20
60.90816063938304
30
8.616691667910338e-14
 70
     32
  0
VERTEX
  8
MY3DLAYER
10
69.86189578716792
20
60.96620160909454
30
8.612835079257411e-14
 70
     32
  0
VERTEX
  8
MY3DLAYER
10
69.90998477834799
20
61.0219501153759
30
8.60893843165216e-14
 70
     32
  0
VERTEX
  8
MY3DLAYER
10
69.96075129377014
20
61.075271855193755
30
8.605011112459886e-14
 70
     32
  0
VERTEX
  8
MY3DLAYER
10
70.01407303245333
20
61.126038371807695
30
8.601062582936422e-14
 70
     32
  0
VERTEX
  8
MY3DLAYER
10
70.06982153765976
20
61.17412736423386
30
8.597102355435156e-14
 70
     32
  0
VERTEX
  8
MY3DLAYER
10
70.12786250635878
20
61.21942298187838
30
8.593139970490913e-14
 70
     32
  0
VERTEX
  8
MY3DLAYER
10
70.18805611277419
20
61.261816103632
30
8.589184973836005e-14
 70
     32
  0
VERTEX
  8
MY3DLAYER
10
70.25025734523732
20
61.30120460075208
30
8.585246893403701e-14
 70
     32
  0
VERTEX
  8
MY3DLAYER
10
70.31431635553244
20
61.33749358289999
30
8.581335216374603e-14
 70
     32
  0
VERTEX
  8
MY3DLAYER
10
70.38007881989404
20
61.37059562674026
30
8.577459366321213e-14
 70
     32
  0
VERTEX
  8
MY3DLAYER
10
70.44738631078711
20
61.400430986550205
30
8.5736286805057e-14
 70
     32
  0
VERTEX
  8
MY3DLAYER
10
70.51607667857206
20
61.42692778633576
30
8.569852387385629e-14
 70
     32
  0
VERTEX
  8
MY3DLAYER
10
70.58598444213803
20
61.45002219298596
30
8.566139584381821e-14
 70
     32
  0
VERTEX
  8
MY3DLAYER
10
70.6569411875609
20
61.46965857005275
30
8.562499215961814e-14
 70
     32
  0
VERTEX
  8
MY3DLAYER
10
70.72877597382744
20
61.48578961178453
30
8.55894005209192e-14
 70
     32
  0
VERTEX
  8
MY3DLAYER
10
70.8013157446473
20
61.49837645708896
30
8.555470667109562e-14
 70
     32
  0
VERTEX
  8
MY3DLAYER
10
70.87438574536046
20
61.507388783153665
30
8.55209941906695e-14
 70
     32
  0
VERTEX
  8
MY3DLAYER
10
70.94780994393665
20
61.512804878495885
30
8.548834429595852e-14
 70
     32
  0
VERTEX
  8
MY3DLAYER
10
71.02141147740382
20
61.51461169526776
30
8.545683563403406e-14
 70
     32
  0
SEQEND
  0
POLYLINE
 8
Layer0
 66
     1
70
    8
 10
0.0
 20
 0.0
 30
0.0
  0
VERTEX
  8
MY3DLAYER
10
89.51418856857595
20
99.16163740512077
30
7.473127578132148e-14
 70
     32
  0
VERTEX
  8
MY3DLAYER
10
89.51960466227699
20
99.08821320642348
30
7.475373280621363e-14
 70
     32
  0
VERTEX
  8
MY3DLAYER
10
89.52141147740372
20
99.0146116952677
30
7.477776483500437e-14
 70
     32
  0
VERTEX
  8
MY3DLAYER
10
89.51960466118032
20
98.9410101841389
30
7.480331397243179e-14
 70
     32
  0
VERTEX
  8
MY3DLAYER
10
89.51418856638513
20
98.86758598552237
30
7.483031866838683e-14
 70
     32
  0
VERTEX
  8
MY3DLAYER
10
89.50517624086483
20
98.79451598474208
30
7.485871386619197e-14
 70
     32
  0
VERTEX
  8
MY3DLAYER
10
89.49258939610085
20
98.72197621382847
30
7.488843115932931e-14
 70
     32
  0
VERTEX
  8
MY3DLAYER
10
89.47645835490437
20
98.65014142744162
30
7.491939895623754e-14
 70
     32
  0
VERTEX
  8
MY3DLAYER
10
89.45682197836611
20
98.57918468187249
30
7.495154265278193e-14
 70
     32
  0
VERTEX
  8
MY3DLAYER
10
89.43372757223685
20
98.50927691813452
30
7.498478481198307e-14
 70
     32
  0
VERTEX
  8
MY3DLAYER
10
89.40723077296305
20
98.44058655015203
30
7.501904535056825e-14
 70
     32
  0
VERTEX
  8
MY3DLAYER
10
89.37739541365455
20
98.3732790590367
30
7.50542417319001e-14
 70
     32
  0
VERTEX
  8
MY3DLAYER
10
89.34429337030429
20
98.30751659442848
30
7.509028916481397e-14
 70
     32
  0
VERTEX
  8
MY3DLAYER
10
89.30800438863365
20
98.243457583863
30
7.512710080788729e-14
 70
     32
  0
VERTEX
  8
MY3DLAYER
10
89.26861589197695
20
98.18125635110641
30
7.516458797864848e-14
 70
     32
  0
VERTEX
  8
MY3DLAYER
10
89.22622277067191
20
98.1210627443751
30
7.520266036722059e-14
 70
     32
  0
VERTEX
  8
MY3DLAYER
10
89.18092715345972
20
98.06302177533867
30
7.524122625388563e-14
 70
     32
  0
VERTEX
  8
MY3DLAYER
10
89.13283816144902
20
98.00727326977389
30
7.528019273004553e-14
 70
     32
  0
VERTEX
  8
MY3DLAYER
10
89.0820716452323
20
97.95395153071252
30
7.531946592204706e-14
 70
     32
  0
VERTEX
  8
MY3DLAYER
10
89.02874990579264
20
97.90318501489313
30
7.535895121733172e-14
 70
     32
  0
VERTEX
  8
MY3DLAYER
10
88.97300139986962
20
97.8550960232977
30
7.539855349236545e-14
 70
     32
  0
VERTEX
  8
MY3DLAYER
10
88.91496043049561
20
97.80980040651812
30
7.543817734179987e-14
 70
     32
  0
VERTEX
  8
MY3DLAYER
10
88.85476682344844
20
97.76740728566139
30
7.547772730831208e-14
 70
     32
  0
VERTEX
  8
MY3DLAYER
10
88.79256559039841
20
97.72801878946815
30
7.551710811256931e-14
 70
     32
  0
VERTEX
  8
MY3DLAYER
10
88.72850657956266
20
97.6917298082747
30
7.55562248827658e-14
 70
     32
  0
VERTEX
  8
MY3DLAYER
10
88.66274411470772
20
97.65862776541461
30
7.559498338317675e-14
 70
     32
  0
VERTEX
  8
MY3DLAYER
10
88.59543662337013
20
97.62879240660749
30
7.563329024118072e-14
 70
     32
  0
VERTEX
  8
MY3DLAYER
10
88.5267462551903
20
97.6022956078455
30
7.567105317220239e-14
 70
     32
  0
VERTEX
  8
MY3DLAYER
10
88.45683849128025
20
97.57920120223694
30
7.570818120203407e-14
 70
     32
  0
VERTEX
  8
MY3DLAYER
10
88.38588174556473
20
97.55956482622747
30
7.574458488600084e-14
 70
     32
  0
VERTEX
  8
MY3DLAYER
10
88.31404695905779
20
97.5434337855663
30
7.578017652444018e-14
 70
     32
  0
VERTEX
  8
MY3DLAYER
10
88.24150718805043
20
97.53084694134266
30
7.581487037397852e-14
 70
     32
  0
VERTEX
  8
MY3DLAYER
10
88.168437187203
20
97.52183461636686
30
7.584858285409415e-14
 70
     32
  0
VERTEX
  8
MY3DLAYER
10
88.09501298854603
20
97.5164185221187
30
7.58812327484705e-14
 70
     32
  0
VERTEX
  8
MY3DLAYER
10
88.0214114774037
20
97.51461170644359
30
7.591274140065294e-14
 70
     32
  0
VERTEX
  8
MY3DLAYER
10
71.02141147740382
20
97.51461170644359
30
7.465325323030925e-14
 70
     32
  0
VERTEX
  8
MY3DLAYER
10
70.94780996626149
20
97.5164185221187
30
7.468354473319554e-14
 70
     32
  0
VERTEX
  8
MY3DLAYER
10
70.87438576760452
20
97.52183461636686
30
7.47125461119028e-14
 70
     32
  0
VERTEX
  8
MY3DLAYER
10
70.8013157667571
20
97.53084694134266
30
7.474018749956998e-14
 70
     32
  0
VERTEX
  8
MY3DLAYER
10
70.72877599574973
20
97.5434337855663
30
7.476640230567384e-14
 70
     32
  0
VERTEX
  8
MY3DLAYER
10
70.65694120924279
20
97.55956482622747
30
7.4791127376451e-14
 70
     32
  0
VERTEX
  8
MY3DLAYER
10
70.58598446352728
20
97.57920120223694
30
7.481430314704068e-14
 70
     32
  0
VERTEX
  8
MY3DLAYER
10
70.51607669961723
20
97.6022956078455
30
7.483587378498228e-14
 70
     32
  0
VERTEX
  8
MY3DLAYER
10
70.44738633143739
20
97.62879240660749
30
7.485578732471994e-14
 70
     32
  0
VERTEX
  8
MY3DLAYER
10
70.3800788400998
20
97.65862776541461
30
7.487399579279278e-14
 70
     32
  0
VERTEX
  8
MY3DLAYER
10
70.31431637524486
20
97.6917298082747
30
7.489045532340688e-14
 70
     32
  0
VERTEX
  8
MY3DLAYER
10
70.25025736440912
20
97.72801878946815
30
7.490512626411143e-14
 70
     32
  0
VERTEX
  8
MY3DLAYER
10
70.18805613135908
20
97.76740728566139
30
7.49179732713257e-14
 70
     32
  0
VERTEX
  8
MY3DLAYER
10
70.12786252431191
20
97.80980040651812
30
7.492896539548436e-14
 70
     32
  0
VERTEX
  8
MY3DLAYER
10
70.0698215549379
20
97.8550960232977
30
7.493807615559771e-14
 70
     32
  0
VERTEX
  8
MY3DLAYER
10
70.01407304901488
20
97.90318501489313
30
7.494528360304692e-14
 70
     32
  0
VERTEX
  8
MY3DLAYER
10
69.96075130957523
20
97.95395153071252
30
7.495057037445992e-14
 70
     32
  0
VERTEX
  8
MY3DLAYER
10
69.90998479335852
20
98.00727326977389
30
7.495392373354143e-14
 70
     32
  0
VERTEX
  8
MY3DLAYER
10
69.8618958013478
20
98.06302177533867
30
7.495533560175571e-14
 70
     32
  0
VERTEX
  8
MY3DLAYER
10
69.81660018413562
20
98.1210627443751
30
7.495480257778873e-14
 70
     32
  0
VERTEX
  8
MY3DLAYER
10
69.77420706283058
20
98.18125635110641
30
7.495232594574169e-14
 70
     32
  0
VERTEX
  8
MY3DLAYER
10
69.73481856617389
20
98.243457583863
30
7.494791167203836e-14
 70
     32
  0
VERTEX
  8
MY3DLAYER
10
69.69852958450325
20
98.30751659442848
30
7.494157039105034e-14
 70
     32
  0
VERTEX
  8
MY3DLAYER
10
69.66542754115297
20
98.3732790590367
30
7.493331737947898e-14
 70
     32
  0
VERTEX
  8
MY3DLAYER
10
69.63559218184449
20
98.44058655015203
30
7.492317251955186e-14
 70
     32
  0
VERTEX
  8
MY3DLAYER
10
69.60909538257067
20
98.50927691813452
30
7.491116025112488e-14
 70
     32
  0
VERTEX
  8
MY3DLAYER
10
69.58600097644143
20
98.57918468187249
30
7.489730951280448e-14
 70
     32
  0
VERTEX
  8
MY3DLAYER
10
69.56636459990315
20
98.65014142744162
30
7.488165367223219e-14
 70
     32
  0
VERTEX
  8
MY3DLAYER
10
69.55023355870668
20
98.72197621382847
30
7.486423044569886e-14
 70
     32
  0
VERTEX
  8
MY3DLAYER
10
69.53764671394269
20
98.79451598474208
30
7.484508180728292e-14
 70
     32
  0
VERTEX
  8
MY3DLAYER
10
69.52863438842239
20
98.86758598552237
30
7.482425388773117e-14
 70
     32
  0
VERTEX
  8
MY3DLAYER
10
69.52321829362721
20
98.9410101841389
30
7.480179686332551e-14
 70
     32
  0
VERTEX
  8
MY3DLAYER
10
69.5214114774038
20
99.0146116952677
30
7.477776483500437e-14
 70
     32
  0
VERTEX
  8
MY3DLAYER
10
69.52321829253053
20
99.08821320642348
30
7.475221569802817e-14
 70
     32
  0
VERTEX
  8
MY3DLAYER
10
69.52863438623157
20
99.16163740512077
30
7.472521100250538e-14
 70
     32
  0
VERTEX
  8
MY3DLAYER
10
69.53764671066305
20
99.23470740603535
30
7.469681580511211e-14
 70
     32
  0
VERTEX
  8
MY3DLAYER
10
69.55023355434615
20
99.30724717713647
30
7.466709851236541e-14
 70
     32
  0
VERTEX
  8
MY3DLAYER
10
69.56636459447213
20
99.37908196376371
30
7.463613071582564e-14
 70
     32
  0
VERTEX
  8
MY3DLAYER
10
69.58600096995306
20
99.4500387096254
30
7.460398701962652e-14
 70
     32
  0
VERTEX
  8
MY3DLAYER
10
69.6090953750406
20
99.51994647370762
30
7.457074486074686e-14
 70
     32
  0
VERTEX
  8
MY3DLAYER
10
69.63559217329082
20
99.58863684208472
30
7.453648432245846e-14
 70
     32
  0
VERTEX
  8
MY3DLAYER
10
69.66542753159648
20
99.65594433364475
30
7.450128794139791e-14
 70
     32
  0
VERTEX
  8
MY3DLAYER
10
69.69852957396658
20
99.72170679874623
30
7.44652405087293e-14
 70
     32
  0
VERTEX
  8
MY3DLAYER
10
69.73481855468286
20
99.78576580985242
30
7.442842886587454e-14
 70
     32
  0
VERTEX
  8
MY3DLAYER
10
69.77420705041261
20
99.84796704319591
30
7.439094169530483e-14
 70
     32
  0
VERTEX
  8
MY3DLAYER
10
69.81660017082078
20
99.90816065055891
30
7.435286930689654e-14
 70
     32
  0
VERTEX
  8
MY3DLAYER
10
69.86189578716792
20
99.96620162027041
30
7.431430342036728e-14
 70
     32
  0
VERTEX
  8
MY3DLAYER
10
69.90998477834799
20
100.02195012655177
30
7.427533694431478e-14
 70
     32
  0
VERTEX
  8
MY3DLAYER
10
69.96075129377014
20
100.07527186636963
30
7.423606375239196e-14
 70
     32
  0
VERTEX
  8
MY3DLAYER
10
70.01407303245333
20
100.12603838298355
30
7.41965784571573e-14
 70
     32
  0
VERTEX
  8
MY3DLAYER
10
70.06982153765976
20
100.17412737540973
30
7.415697618214465e-14
 70
     32
  0
VERTEX
  8
MY3DLAYER
10
70.12786250635878
20
100.21942299305425
30
7.411735233270221e-14
 70
     32
  0
VERTEX
  8
MY3DLAYER
10
70.18805611277419
20
100.26181611480787
30
7.407780236615314e-14
 70
     32
  0
VERTEX
  8
MY3DLAYER
10
70.25025734523732
20
100.30120461192794
30
7.403842156183011e-14
 70
     32
  0
VERTEX
  8
MY3DLAYER
10
70.31431635553244
20
100.33749359407585
30
7.399930479153912e-14
 70
     32
  0
VERTEX
  8
MY3DLAYER
10
70.38007881989404
20
100.37059563791613
30
7.396054629100523e-14
 70
     32
  0
VERTEX
  8
MY3DLAYER
10
70.44738631078711
20
100.40043099772606
30
7.39222394328501e-14
 70
     32
  0
VERTEX
  8
MY3DLAYER
10
70.51607667857206
20
100.42692779751162
30
7.388447650164937e-14
 70
     32
  0
VERTEX
  8
MY3DLAYER
10
70.58598444213803
20
100.45002220416183
30
7.384734847161131e-14
 70
     32
  0
VERTEX
  8
MY3DLAYER
10
70.6569411875609
20
100.46965858122861
30
7.381094478741123e-14
 70
     32
  0
VERTEX
  8
MY3DLAYER
10
70.72877597382744
20
100.4857896229604
30
7.377535314871228e-14
 70
     32
  0
VERTEX
  8
MY3DLAYER
10
70.8013157446473
20
100.49837646826482
30
7.37406592988887e-14
 70
     32
  0
VERTEX
  8
MY3DLAYER
10
70.87438574536046
20
100.50738879432953
30
7.370694681846265e-14
 70
     32
  0
VERTEX
  8
MY3DLAYER
10
70.94780994393665
20
100.51280488967174
30
7.367429692375161e-14
 70
     32
  0
VERTEX
  8
MY3DLAYER
10
71.02141147740382
20
100.51461170644362
30
7.364278826182714e-14
 70
     32
  0
VERTEX
  8
MY3DLAYER
10
88.0214114774037
20
100.51461170644362
30
7.490227643217084e-14
 70
     32
  0
VERTEX
  8
MY3DLAYER
10
88.09501301087087
20
100.51280488967174
30
7.487198492028133e-14
 70
     32
  0
VERTEX
  8
MY3DLAYER
10
88.16843720944708
20
100.50738879432953
30
7.484298354197657e-14
 70
     32
  0
VERTEX
  8
MY3DLAYER
10
88.24150721016024
20
100.49837646826482
30
7.481534215473242e-14
 70
     32
  0
VERTEX
  8
MY3DLAYER
10
88.31404698098008
20
100.4857896229604
30
7.478912734907138e-14
 70
     32
  0
VERTEX
  8
MY3DLAYER
10
88.38588176724663
20
100.46965858122861
30
7.476440227875572e-14
 70
     32
  0
VERTEX
  8
MY3DLAYER
10
88.45683851266949
20
100.45002220416183
30
7.4741226508645e-14
 70
     32
  0
VERTEX
  8
MY3DLAYER
10
88.52674627623546
20
100.42692779751162
30
7.47196558711988e-14
 70
     32
  0
VERTEX
  8
MY3DLAYER
10
88.59543664402041
20
100.40043099772606
30
7.46997423319716e-14
 70
     32
  0
VERTEX
  8
MY3DLAYER
10
88.66274413491348
20
100.37059563791613
30
7.468153386442325e-14
 70
     32
  0
VERTEX
  8
MY3DLAYER
10
88.7285065992751
20
100.33749359407585
30
7.466507433434639e-14
 70
     32
  0
VERTEX
  8
MY3DLAYER
10
88.7925656095702
20
100.30120461192794
30
7.465040339419028e-14
 70
     32
  0
VERTEX
  8
MY3DLAYER
10
88.85476684203334
20
100.26181611480787
30
7.463755638753466e-14
 70
     32
  0
VERTEX
  8
MY3DLAYER
10
88.91496044844874
20
100.21942299305425
30
7.462656426394327e-14
 70
     32
  0
VERTEX
  8
MY3DLAYER
10
88.97300141714776
20
100.17412737540973
30
7.461745350440459e-14
 70
     32
  0
VERTEX
  8
MY3DLAYER
10
89.0287499223542
20
100.12603838298355
30
7.461024605753597e-14
 70
     32
  0
VERTEX
  8
MY3DLAYER
10
89.08207166103738
20
100.07527186636963
30
7.460495928670829e-14
 70
     32
  0
VERTEX
  8
MY3DLAYER
10
89.13283817645953
20
100.02195012655177
30
7.460160592821517e-14
 70
     32
  0
VERTEX
  8
MY3DLAYER
10
89.1809271676396
20
99.96620162027041
30
7.460019406059092e-14
 70
     32
  0
VERTEX
  8
MY3DLAYER
10
89.22622278398674
20
99.90816065055891
30
7.460072708514845e-14
 70
     32
  0
VERTEX
  8
MY3DLAYER
10
89.2686159043949
20
99.84796704319591
30
7.460320371778473e-14
 70
     32
  0
VERTEX
  8
MY3DLAYER
10
89.30800440012467
20
99.78576580985242
30
7.460761799207491e-14
 70
     32
  0
VERTEX
  8
MY3DLAYER
10
89.34429338084094
20
99.72170679874623
30
7.461395927364585e-14
 70
     32
  0
VERTEX
  8
MY3DLAYER
10
89.37739542321104
20
99.65594433364475
30
7.462221228579467e-14
 70
     32
  0
VERTEX
  8
MY3DLAYER
10
89.4072307815167
20
99.58863684208472
30
7.463235714629268e-14
 70
     32
  0
VERTEX
  8
MY3DLAYER
10
89.43372757976694
20
99.51994647370762
30
7.46443694152823e-14
 70
     32
  0
VERTEX
  8
MY3DLAYER
10
89.45682198485446
20
99.4500387096254
30
7.465822015415597e-14
 70
     32
  0
VERTEX
  8
MY3DLAYER
10
89.4764583603354
20
99.37908196376371
30
7.467387599527079e-14
 70
     32
  0
VERTEX
  8
MY3DLAYER
10
89.49258940046137
20
99.30724717713647
30
7.469129922233446e-14
 70
     32
  0
VERTEX
  8
MY3DLAYER
10
89.50517624414448
20
99.23470740603535
30
7.471044786126736e-14
 70
     32
  0
VERTEX
  8
MY3DLAYER
10
89.51418856857595
20
99.16163740512077
30
7.473127578132148e-14
 70
     32
  0
SEQEND
  0
POLYLINE
 8
Layer0
 66
     1
70
    8
 10
0.0
 20
 0.0
 30
0.0
  0
VERTEX
  8
MY3DLAYER
10
60.35719791502958
20
49.036689633911436
30
7.864173787747796e-14
 70
     32
  0
VERTEX
  8
MY3DLAYER
10
38.180791043836514
20
26.860282762718438
30
4.330520543754638e-14
 70
     32
  0
VERTEX
  8
MY3DLAYER
10
37.83308771672095
20
26.55535512873378
30
4.295566919534891e-14
 70
     32
  0
VERTEX
  8
MY3DLAYER
10
37.44855799680294
20
26.298420584239462
30
4.2597181502319184e-14
 70
     32
  0
VERTEX
  8
MY3DLAYER
10
37.03378129420202
20
26.09387535052749
30
4.2235876182276494e-14
 70
     32
  0
VERTEX
  8
MY3DLAYER
10
36.59585455329762
20
25.945219253257335
30
4.187793526941952e-14
 70
     32
  0
VERTEX
  8
MY3DLAYER
10
36.14227082204291
20
25.85499583946854
30
4.1529483232007235e-14
 70
     32
  0
VERTEX
  8
MY3DLAYER
10
35.68079104383654
20
25.824748856785686
30
4.1196482181008905e-14
 70
     32
  0
VERTEX
  8
MY3DLAYER
10
35.21931126563027
20
25.854995839468533
30
4.088462985673246e-14
 70
     32
  0
VERTEX
  8
MY3DLAYER
10
34.76572753437547
20
25.945219253257328
30
4.059926213890806e-14
 70
     32
  0
VERTEX
  8
MY3DLAYER
10
34.32780079347106
20
26.093875350527483
30
4.0345261748306564e-14
 70
     32
  0
VERTEX
  8
MY3DLAYER
10
33.913024090870145
20
26.29842058423945
30
4.012697470203339e-14
 70
     32
  0
VERTEX
  8
MY3DLAYER
10
33.528494370952146
20
26.55535512873377
30
3.994813595197084e-14
 70
     32
  0
VERTEX
  8
MY3DLAYER
10
33.18079104383657
20
26.860282762718427
30
3.981180547871596e-14
 70
     32
  0
VERTEX
  8
MY3DLAYER
10
26.86708254485254
20
33.17399126170255
30
5.461528156120209e-14
 70
     32
  0
VERTEX
  8
MY3DLAYER
10
26.562154910867896
20
33.52169458881815
30
5.4886505426721885e-14
 70
     32
  0
VERTEX
  8
MY3DLAYER
10
26.305220366373536
20
33.90622430873618
30
5.520486691171734e-14
 70
     32
  0
VERTEX
  8
MY3DLAYER
10
26.10067513266162
20
34.32100101133705
30
5.5564918762913695e-14
 70
     32
  0
VERTEX
  8
MY3DLAYER
10
25.952019035391466
20
34.758927752241455
30
5.596050039331172e-14
 70
     32
  0
VERTEX
  8
MY3DLAYER
10
25.861795621602635
20
35.21251148349626
30
5.6384843291539395e-14
 70
     32
  0
VERTEX
  8
MY3DLAYER
10
25.831548638919813
20
35.67399126170254
30
5.683068683295795e-14
 70
     32
  0
VERTEX
  8
MY3DLAYER
10
25.861795621602635
20
36.13547103990882
30
5.729040251096252e-14
 70
     32
  0
VERTEX
  8
MY3DLAYER
10
25.952019035391466
20
36.58905477116363
30
5.77561244628452e-14
 70
     32
  0
VERTEX
  8
MY3DLAYER
10
26.10067513266162
20
37.026981512068026
30
5.821988405688675e-14
 70
     32
  0
VERTEX
  8
MY3DLAYER
10
26.305220366373536
20
37.4417582146689
30
5.867374623785469e-14
 70
     32
  0
VERTEX
  8
MY3DLAYER
10
26.562154910867896
20
37.82628793458693
30
5.910994529799822e-14
 70
     32
  0
VERTEX
  8
MY3DLAYER
10
26.86708254485254
20
38.17399126170253
30
5.952101775046113e-14
 70
     32
  0
VERTEX
  8
MY3DLAYER
10
49.04348941604568
20
60.35039813289551
30
8.807988918091307e-14
 70
     32
  0
VERTEX
  8
MY3DLAYER
10
49.391192743161255
20
60.655325766880175
30
8.843794778019906e-14
 70
     32
  0
VERTEX
  8
MY3DLAYER
10
49.77572246307935
20
60.91226031137448
30
8.876416630999149e-14
 70
     32
  0
VERTEX
  8
MY3DLAYER
10
50.190499165680166
20
61.11680554508646
30
8.905296308080076e-14
 70
     32
  0
VERTEX
  8
MY3DLAYER
10
50.62842590658453
20
61.26546164235661
30
8.92993966998087e-14
 70
     32
  0
VERTEX
  8
MY3DLAYER
10
51.0820096378393
20
61.3556850561454
30
8.949925061946979e-14
 70
     32
  0
VERTEX
  8
MY3DLAYER
10
51.543489416045574
20
61.38593203882826
30
8.964910528380867e-14
 70
     32
  0
VERTEX
  8
MY3DLAYER
10
52.00496919425185
20
61.35568505614541
30
8.974639663797092e-14
 70
     32
  0
VERTEX
  8
MY3DLAYER
10
52.45855292550665
20
61.26546164235661
30
8.978945999991257e-14
 70
     32
  0
VERTEX
  8
MY3DLAYER
10
52.896479666411054
20
61.11680554508646
30
8.977755854357135e-14
 70
     32
  0
VERTEX
  8
MY3DLAYER
10
53.31125636901188
20
60.912260311374496
30
8.971089590616504e-14
 70
     32
  0
VERTEX
  8
MY3DLAYER
10
53.69578608892998
20
60.65532576688018
30
8.959061270390198e-14
 70
     32
  0
VERTEX
  8
MY3DLAYER
10
54.043489416045546
20
60.35039813289553
30
8.941876701572168e-14
 70
     32
  0
VERTEX
  8
MY3DLAYER
10
60.35719791502958
20
54.03668963391128
30
8.395968062868292e-14
 70
     32
  0
VERTEX
  8
MY3DLAYER
10
60.66212554901423
20
53.688986306795684
30
8.361841395072671e-14
 70
     32
  0
VERTEX
  8
MY3DLAYER
10
60.91906009350849
20
53.30445658687766
30
8.323348614418077e-14
 70
     32
  0
VERTEX
  8
MY3DLAYER
10
61.1236053272205
20
52.88967988427679
30
8.28114834305372e-14
 70
     32
  0
VERTEX
  8
MY3DLAYER
10
61.27226142449065
20
52.451753143372386
30
8.235962639322776e-14
 70
     32
  0
VERTEX
  8
MY3DLAYER
10
61.36248483827939
20
51.99816941211758
30
8.18856464314392e-14
 70
     32
  0
VERTEX
  8
MY3DLAYER
10
61.39273182096222
20
51.53668963391131
30
8.139765347372985e-14
 70
     32
  0
VERTEX
  8
MY3DLAYER
10
61.36248483827939
20
51.07520985570501
30
8.090399721490327e-14
 70
     32
  0
VERTEX
  8
MY3DLAYER
10
61.27226142449065
20
50.62162612445024
30
8.041312425041544e-14
 70
     32
  0
VERTEX
  8
MY3DLAYER
10
61.12360532722041
20
50.18369938354592
30
7.993343355278435e-14
 70
     32
  0
VERTEX
  8
MY3DLAYER
10
60.91906009350849
20
49.768922680945074
30
7.947313276284187e-14
 70
     32
  0
VERTEX
  8
MY3DLAYER
10
60.66212554901423
20
49.38439296102703
30
7.904009775472347e-14
 70
     32
  0
VERTEX
  8
MY3DLAYER
10
60.35719791502958
20
49.036689633911436
30
7.864173787747796e-14
 70
     32
  0
SEQEND
  0
POLYLINE
 8
Layer0
 66
     1
70
    8
 10
0.0
 20
 0.0
 30
0.0
  0
VERTEX
  8
MY3DLAYER
10
97.77056153031533
20
108.40759726608663
30
8.723912907392749e-14
 70
     32
  0
VERTEX
  8
MY3DLAYER
10
97.9192176275855
20
108.84552400699098
30
8.776497028762905e-14
 70
     32
  0
VERTEX
  8
MY3DLAYER
10
98.12376286129741
20
109.26030070959186
30
8.831106153151807e-14
 70
     32
  0
VERTEX
  8
MY3DLAYER
10
98.38069740579176
20
109.64483042950985
30
8.886805903300662e-14
 70
     32
  0
VERTEX
  8
MY3DLAYER
10
98.68562503977641
20
109.99253375662548
30
8.942643241041528e-14
 70
     32
  0
VERTEX
  8
MY3DLAYER
10
120.86203191096973
20
132.16894062781847
30
1.2101019626129986e-13
 70
     32
  0
VERTEX
  8
MY3DLAYER
10
121.20973523808522
20
132.47386826180312
30
1.2153953790946684e-13
 70
     32
  0
VERTEX
  8
MY3DLAYER
10
121.59426495800331
20
132.73080280629745
30
1.2205809091162085e-13
 70
     32
  0
VERTEX
  8
MY3DLAYER
10
122.00904166060423
20
132.93534804000942
30
1.225569826821246e-13
 70
     32
  0
VERTEX
  8
MY3DLAYER
10
122.44696840150863
20
133.08400413727955
30
1.230276770444662e-13
 70
     32
  0
VERTEX
  8
MY3DLAYER
10
122.90055213276334
20
133.17422755106836
30
1.234621202876046e-13
 70
     32
  0
VERTEX
  8
MY3DLAYER
10
123.3620319109697
20
133.2044745337512
30
1.2385287896719923e-13
 70
     32
  0
VERTEX
  8
MY3DLAYER
10
123.82351168917607
20
133.17422755106836
30
1.241932670939037e-13
 70
     32
  0
VERTEX
  8
MY3DLAYER
10
124.27709542043078
20
133.08400413727955
30
1.2447746053249658e-13
 70
     32
  0
VERTEX
  8
MY3DLAYER
10
124.71502216133518
20
132.93534804000942
30
1.247005966544501e-13
 70
     32
  0
VERTEX
  8
MY3DLAYER
10
125.12979886393592
20
132.73080280629745
30
1.248588575388528e-13
 70
     32
  0
VERTEX
  8
MY3DLAYER
10
125.51432858385401
20
132.47386826180312
30
1.249495352980943e-13
 70
     32
  0
VERTEX
  8
MY3DLAYER
10
125.86203191096968
20
132.16894062781847
30
1.2497107841057334e-13
 70
     32
  0
VERTEX
  8
MY3DLAYER
10
132.1757404099547
20
125.85523212883363
30
1.3191767868060814e-13
 70
     32
  0
VERTEX
  8
MY3DLAYER
10
132.48066804393935
20
125.50752880171802
30
1.3174891970646906e-13
 70
     32
  0
VERTEX
  8
MY3DLAYER
10
132.73760258843362
20
125.12299908179997
30
1.315126668522578e-13
 70
     32
  0
VERTEX
  8
MY3DLAYER
10
132.9421478221457
20
124.7082223791991
30
1.3121296246981154e-13
 70
     32
  0
VERTEX
  8
MY3DLAYER
10
133.090803919416
20
124.27029563829474
30
1.308549345842075e-13
 70
     32
  0
VERTEX
  8
MY3DLAYER
10
133.18102733320475
20
123.81671190703995
30
1.304447091518327e-13
 70
     32
  0
VERTEX
  8
MY3DLAYER
10
133.21127431588758
20
123.35523212883366
30
1.29989305243571e-13
 70
     32
  0
VERTEX
  8
MY3DLAYER
10
133.18102733320475
20
122.89375235062735
30
1.2949651494655436e-13
 70
     32
  0
VERTEX
  8
MY3DLAYER
10
133.090803919416
20
122.44016861937254
30
1.2897477003939217e-13
 70
     32
  0
VERTEX
  8
MY3DLAYER
10
132.94214782214553
20
122.00224187846814
30
1.2843299772210098e-13
 70
     32
  0
VERTEX
  8
MY3DLAYER
10
132.73760258843362
20
121.58746517586732
30
1.278804678692373e-13
 70
     32
  0
VERTEX
  8
MY3DLAYER
10
132.48066804393935
20
121.20293545594927
30
1.2732663441977403e-13
 70
     32
  0
VERTEX
  8
MY3DLAYER
10
132.1757404099547
20
120.85523212883365
30
1.2678097361758273e-13
 70
     32
  0
VERTEX
  8
MY3DLAYER
10
109.99933353876106
20
98.67882525764072
30
8.841954875721869e-14
 70
     32
  0
VERTEX
  8
MY3DLAYER
10
109.65163021164558
20
98.37389762365608
30
8.789872946614007e-14
 70
     32
  0
VERTEX
  8
MY3DLAYER
10
109.26710049172749
20
98.11696307916176
30
8.734790730074891e-14
 70
     32
  0
VERTEX
  8
MY3DLAYER
10
108.85232378912657
20
97.91241784544981
30
8.677650698101159e-14
 70
     32
  0
VERTEX
  8
MY3DLAYER
10
108.41439704822217
20
97.7637617481796
30
8.6194305324821e-14
 70
     32
  0
VERTEX
  8
MY3DLAYER
10
107.96081331696746
20
97.67353833439081
30
8.561126396393146e-14
 70
     32
  0
VERTEX
  8
MY3DLAYER
10
107.49933353876109
20
97.643291351708
30
8.503735889767732e-14
 70
     32
  0
VERTEX
  8
MY3DLAYER
10
107.03785376055491
20
97.67353833439081
30
8.448240980085863e-14
 70
     32
  0
VERTEX
  8
MY3DLAYER
10
106.58427002930001
20
97.7637617481796
30
8.39559120063831e-14
 70
     32
  0
VERTEX
  8
MY3DLAYER
10
106.14634328839561
20
97.91241784544981
30
8.346687403748681e-14
 70
     32
  0
VERTEX
  8
MY3DLAYER
10
105.7315665857947
20
98.11696307916176
30
8.302366346940455e-14
 70
     32
  0
VERTEX
  8
MY3DLAYER
10
105.34703686587679
20
98.37389762365608
30
8.263386375783748e-14
 70
     32
  0
VERTEX
  8
MY3DLAYER
10
104.99933353876112
20
98.67882525764072
30
8.230414448392335e-14
 70
     32
  0
VERTEX
  8
MY3DLAYER
10
98.68562503977641
20
104.99253375662549
30
8.470193390933577e-14
 70
     32
  0
VERTEX
  8
MY3DLAYER
10
98.38069740579176
20
105.3402370837411
30
8.48006500710385e-14
 70
     32
  0
VERTEX
  8
MY3DLAYER
10
98.12376286129741
20
105.72476680365915
30
8.497033660369916e-14
 70
     32
  0
VERTEX
  8
MY3DLAYER
10
97.9192176275855
20
106.13954350626003
30
8.520809012369825e-14
 70
     32
  0
VERTEX
  8
MY3DLAYER
10
97.77056153031533
20
106.57747024716443
30
8.550984260239084e-14
 70
     32
  0
VERTEX
  8
MY3DLAYER
10
97.68033811652651
20
107.03105397841924
30
8.587043097120484e-14
 70
     32
  0
VERTEX
  8
MY3DLAYER
10
97.65009113384369
20
107.4925337566255
30
8.628368546317588e-14
 70
     32
  0
VERTEX
  8
MY3DLAYER
10
97.68033811652651
20
107.95401353483183
30
8.674253517937048e-14
 70
     32
  0
VERTEX
  8
MY3DLAYER
10
97.77056153031533
20
108.40759726608663
30
8.723912907392749e-14
 70
     32
  0
SEQEND
  0
POLYLINE
 8
Layer0
 66
     1
70
    8
 10
0.0
 20
 0.0
 30
0.0
  0
VERTEX
  8
MY3DLAYER
10
37.83308771672293
20
132.47386826180394
30
-3.115152698350066e-14
 70
     32
  0
VERTEX
  8
MY3DLAYER
10
38.18079104383805
20
132.16894062781907
30
-3.169718778569184e-14
 70
     32
  0
VERTEX
  8
MY3DLAYER
10
60.35719791503102
20
109.99253375662593
30
3.05586060787949e-14
 70
     32
  0
VERTEX
  8
MY3DLAYER
10
60.66212554901567
20
109.6448304295108
30
3.003778678771632e-14
 70
     32
  0
VERTEX
  8
MY3DLAYER
10
60.919060093510566
20
109.26030070959244
30
2.948696462232511e-14
 70
     32
  0
VERTEX
  8
MY3DLAYER
10
61.12360532722176
20
108.84552400699152
30
2.8915564302587835e-14
 70
     32
  0
VERTEX
  8
MY3DLAYER
10
61.272261424492186
20
108.40759726608717
30
2.833336264639732e-14
 70
     32
  0
VERTEX
  8
MY3DLAYER
10
61.36248483828093
20
107.95401353483227
30
2.775032128550774e-14
 70
     32
  0
VERTEX
  8
MY3DLAYER
10
61.39273182096402
20
107.49253375662627
30
2.717641621925352e-14
 70
     32
  0
VERTEX
  8
MY3DLAYER
10
61.362484838280835
20
107.03105397841982
30
2.6621467122434875e-14
 70
     32
  0
VERTEX
  8
MY3DLAYER
10
61.272261424492186
20
106.57747024716497
30
2.609496932795931e-14
 70
     32
  0
VERTEX
  8
MY3DLAYER
10
61.123605327222215
20
106.13954350626071
30
2.560593135906302e-14
 70
     32
  0
VERTEX
  8
MY3DLAYER
10
60.91906009351012
20
105.7247668036596
30
2.516272079098083e-14
 70
     32
  0
VERTEX
  8
MY3DLAYER
10
60.66212554901603
20
105.3402370837417
30
2.477292107941373e-14
 70
     32
  0
VERTEX
  8
MY3DLAYER
10
60.357197915030845
20
104.99253375662589
30
2.444320180549955e-14
 70
     32
  0
VERTEX
  8
MY3DLAYER
10
54.04348941604645
20
98.67882525764111
30
2.3182198461970676e-14
 70
     32
  0
VERTEX
  8
MY3DLAYER
10
53.695786088930426
20
98.37389762365642
30
2.328091462367328e-14
 70
     32
  0
VERTEX
  8
MY3DLAYER
10
53.311256369012604
20
98.11696307916219
30
2.3450601156334024e-14
 70
     32
  0
VERTEX
  8
MY3DLAYER
10
52.896479666411956
20
97.91241784545024
30
2.3688354676333107e-14
 70
     32
  0
VERTEX
  8
MY3DLAYER
10
52.45855292550765
20
97.76376174818003
30
2.3990107155025702e-14
 70
     32
  0
VERTEX
  8
MY3DLAYER
10
52.004969194252574
20
97.67353833439147
30
2.4350695523839663e-14
 70
     32
  0
VERTEX
  8
MY3DLAYER
10
51.5434894160463
20
97.64329135170856
30
2.4763950015810658e-14
 70
     32
  0
VERTEX
  8
MY3DLAYER
10
51.08200963783993
20
97.67353833439152
30
2.522279973200526e-14
 70
     32
  0
VERTEX
  8
MY3DLAYER
10
50.62842590658525
20
97.76376174818017
30
2.5719393626562267e-14
 70
     32
  0
VERTEX
  8
MY3DLAYER
10
50.19049916568089
20
97.91241784545055
30
2.624523484026386e-14
 70
     32
  0
VERTEX
  8
MY3DLAYER
10
49.775722463080164
20
98.11696307916242
30
2.6791326084152926e-14
 70
     32
  0
VERTEX
  8
MY3DLAYER
10
49.39119274316225
20
98.37389762365677
30
2.7348323585641473e-14
 70
     32
  0
VERTEX
  8
MY3DLAYER
10
49.043489416046405
20
98.67882525764146
30
2.7906696963050045e-14
 70
     32
  0
VERTEX
  8
MY3DLAYER
10
26.867082544853353
20
120.85523212883429
30
-4.1126757910916255e-14
 70
     32
  0
VERTEX
  8
MY3DLAYER
10
26.5621549108688
20
121.20293545594998
30
-4.0597416262749155e-14
 70
     32
  0
VERTEX
  8
MY3DLAYER
10
26.30522036637444
20
121.58746517586786
30
-4.0078863260595266e-14
 70
     32
  0
VERTEX
  8
MY3DLAYER
10
26.10067513266216
20
122.00224187846887
30
-3.9579971490091423e-14
 70
     32
  0
VERTEX
  8
MY3DLAYER
10
25.952019035392098
20
122.44016861937281
30
-3.910927712774991e-14
 70
     32
  0
VERTEX
  8
MY3DLAYER
10
25.86179562160336
20
122.89375235062793
30
-3.8674833884611506e-14
 70
     32
  0
VERTEX
  8
MY3DLAYER
10
25.831548638920534
20
123.35523212883412
30
-3.8284075205016796e-14
 70
     32
  0
VERTEX
  8
MY3DLAYER
10
25.86179562160363
20
123.81671190704034
30
-3.7943687078312335e-14
 70
     32
  0
VERTEX
  8
MY3DLAYER
10
25.952019035392187
20
124.27029563829538
30
-3.765949363971953e-14
 70
     32
  0
VERTEX
  8
MY3DLAYER
10
26.100675132662342
20
124.70822237919964
30
-3.743635751776595e-14
 70
     32
  0
VERTEX
  8
MY3DLAYER
10
26.30522036637408
20
125.1229990818006
30
-3.7278096633363214e-14
 70
     32
  0
VERTEX
  8
MY3DLAYER
10
26.5621549108688
20
125.50752880171856
30
-3.718741887412173e-14
 70
     32
  0
VERTEX
  8
MY3DLAYER
10
26.86708254485326
20
125.85523212883419
30
-3.7165875761642786e-14
 70
     32
  0
VERTEX
  8
MY3DLAYER
10
33.18079104383828
20
132.16894062781893
30
-2.6560482722666553e-14
 70
     32
  0
VERTEX
  8
MY3DLAYER
10
33.52849437095395
20
132.4738682618038
30
-2.6729241696805515e-14
 70
     32
  0
VERTEX
  8
MY3DLAYER
10
33.913024090871865
20
132.73080280629793
30
-2.6965494551016762e-14
 70
     32
  0
VERTEX
  8
MY3DLAYER
10
34.3278007934726
20
132.93534804000998
30
-2.7265198933463098e-14
 70
     32
  0
VERTEX
  8
MY3DLAYER
10
34.76572753437701
20
133.0840041372803
30
-2.7623226819067074e-14
 70
     32
  0
VERTEX
  8
MY3DLAYER
10
35.21931126563207
20
133.174227551069
30
-2.803345225144191e-14
 70
     32
  0
VERTEX
  8
MY3DLAYER
10
35.68079104383808
20
133.2044745337515
30
-2.84888561597037e-14
 70
     32
  0
VERTEX
  8
MY3DLAYER
10
36.142270822044445
20
133.17422755106878
30
-2.898164645672032e-14
 70
     32
  0
VERTEX
  8
MY3DLAYER
10
36.59585455329933
20
133.08400413728006
30
-2.9503391363882485e-14
 70
     32
  0
VERTEX
  8
MY3DLAYER
10
37.033781294203735
20
132.93534804000998
30
-3.004516368117364e-14
 70
     32
  0
VERTEX
  8
MY3DLAYER
10
37.44855799680457
20
132.730802806298
30
-3.059769353403725e-14
 70
     32
  0
VERTEX
  8
MY3DLAYER
10
37.83308771672293
20
132.47386826180394
30
-3.115152698350066e-14
 70
     32
  0
SEQEND
  0
POLYLINE
 8
Layer0
 66
     1
70
    8
 10
0.0
 20
 0.0
 30
0.0
  0
VERTEX
  8
MY3DLAYER
10
132.73760258843362
20
33.90622430873583
30
-8.62255025692883e-15
 70
     32
  0
VERTEX
  8
MY3DLAYER
10
132.48066804393952
20
33.521694588817894
30
-9.012349968495928e-15
 70
     32
  0
VERTEX
  8
MY3DLAYER
10
132.17574040995433
20
33.17399126170212
30
-9.342069242410108e-15
 70
     32
  0
VERTEX
  8
MY3DLAYER
10
125.8620319109704
20
26.86028276271794
30
1.2361306438399796e-15
 70
     32
  0
VERTEX
  8
MY3DLAYER
10
125.51432858385438
20
26.55535512873327
30
1.334846805542583e-15
 70
     32
  0
VERTEX
  8
MY3DLAYER
10
125.12979886393646
20
26.29842058423905
30
1.504533338203327e-15
 70
     32
  0
VERTEX
  8
MY3DLAYER
10
124.71502216133591
20
26.09387535052709
30
1.7422868582024096e-15
 70
     32
  0
VERTEX
  8
MY3DLAYER
10
124.27709542043151
20
25.94521925325689
30
2.0440393368950057e-15
 70
     32
  0
VERTEX
  8
MY3DLAYER
10
123.82351168917643
20
25.85499583946833
30
2.404627705708926e-15
 70
     32
  0
VERTEX
  8
MY3DLAYER
10
123.36203191097025
20
25.824748856785416
30
2.817882197679963e-15
 70
     32
  0
VERTEX
  8
MY3DLAYER
10
122.90055213276388
20
25.854995839468355
30
3.2767319138745652e-15
 70
     32
  0
VERTEX
  8
MY3DLAYER
10
122.44696840150917
20
25.945219253257026
30
3.773325808431573e-15
 70
     32
  0
VERTEX
  8
MY3DLAYER
10
122.00904166060477
20
26.093875350527405
30
4.299167022133202e-15
 70
     32
  0
VERTEX
  8
MY3DLAYER
10
121.59426495800403
20
26.298420584239256
30
4.845258266022229e-15
 70
     32
  0
VERTEX
  8
MY3DLAYER
10
121.20973523808613
20
26.555355128733634
30
5.402255767510775e-15
 70
     32
  0
VERTEX
  8
MY3DLAYER
10
120.86203191097027
20
26.860282762718303
30
5.960629144919349e-15
 70
     32
  0
VERTEX
  8
MY3DLAYER
10
98.6856250397773
20
49.0366896339111
30
4.755007203853539e-14
 70
     32
  0
VERTEX
  8
MY3DLAYER
10
98.38069740579284
20
49.38439296102681
30
4.807941368670253e-14
 70
     32
  0
VERTEX
  8
MY3DLAYER
10
98.1237628612984
20
49.76892268094468
30
4.859796668885638e-14
 70
     32
  0
VERTEX
  8
MY3DLAYER
10
97.91921762758612
20
50.183699383545665
30
4.909685845936022e-14
 70
     32
  0
VERTEX
  8
MY3DLAYER
10
97.77056153031606
20
50.62162612444955
30
4.9567552821701736e-14
 70
     32
  0
VERTEX
  8
MY3DLAYER
10
97.68033811652732
20
51.075209855704614
30
5.000199606484014e-14
 70
     32
  0
VERTEX
  8
MY3DLAYER
10
97.6500911338445
20
51.536689633910825
30
5.039275474443485e-14
 70
     32
  0
VERTEX
  8
MY3DLAYER
10
97.68033811652768
20
51.99816941211705
30
5.0733142871139304e-14
 70
     32
  0
VERTEX
  8
MY3DLAYER
10
97.77056153031624
20
52.45175314337208
30
5.101733630973211e-14
 70
     32
  0
VERTEX
  8
MY3DLAYER
10
97.9192176275863
20
52.88967988427635
30
5.124047243168569e-14
 70
     32
  0
VERTEX
  8
MY3DLAYER
10
98.12376286129803
20
53.30445658687731
30
5.139873331608847e-14
 70
     32
  0
VERTEX
  8
MY3DLAYER
10
98.38069740579284
20
53.68898630679527
30
5.1489411075329914e-14
 70
     32
  0
VERTEX
  8
MY3DLAYER
10
98.6856250397773
20
54.03668963391087
30
5.151095418780886e-14
 70
     32
  0
VERTEX
  8
MY3DLAYER
10
104.99933353876185
20
60.35039813289505
30
5.0277143997006126e-14
 70
     32
  0
VERTEX
  8
MY3DLAYER
10
105.3470368658775
20
60.655325766879905
30
5.0108385022867204e-14
 70
     32
  0
VERTEX
  8
MY3DLAYER
10
105.73156658579542
20
60.912260311374034
30
4.987213216865596e-14
 70
     32
  0
VERTEX
  8
MY3DLAYER
10
106.14634328839615
20
61.11680554508611
30
4.957242778620962e-14
 70
     32
  0
VERTEX
  8
MY3DLAYER
10
106.58427002930047
20
61.2654616423564
30
4.921439990060565e-14
 70
     32
  0
VERTEX
  8
MY3DLAYER
10
107.03785376055554
20
61.35568505614514
30
4.880417446823077e-14
 70
     32
  0
VERTEX
  8
MY3DLAYER
10
107.49933353876145
20
61.385932038827605
30
4.834877055996898e-14
 70
     32
  0
VERTEX
  8
MY3DLAYER
10
107.96081331696782
20
61.35568505614489
30
4.7855980262952364e-14
 70
     32
  0
VERTEX
  8
MY3DLAYER
10
108.41439704822271
20
61.26546164235617
30
4.7334235355790234e-14
 70
     32
  0
VERTEX
  8
MY3DLAYER
10
108.85232378912711
20
61.11680554508611
30
4.6792463038499044e-14
 70
     32
  0
VERTEX
  8
MY3DLAYER
10
109.26710049172785
20
60.9122603113741
30
4.623993318563547e-14
 70
     32
  0
VERTEX
  8
MY3DLAYER
10
109.6516302116463
20
60.65532576688004
30
4.568609973617202e-14
 70
     32
  0
VERTEX
  8
MY3DLAYER
10
109.99933353876142
20
60.35039813289519
30
4.514043893398089e-14
 70
     32
  0
VERTEX
  8
MY3DLAYER
10
132.17574040995453
20
38.173991261702206
30
-3.2266649691147562e-15
 70
     32
  0
VERTEX
  8
MY3DLAYER
10
132.48066804393918
20
37.82628793458706
30
-3.747484260193303e-15
 70
     32
  0
VERTEX
  8
MY3DLAYER
10
132.73760258843416
20
37.44175821466872
30
-4.298306425584545e-15
 70
     32
  0
VERTEX
  8
MY3DLAYER
10
132.94214782214536
20
37.0269815120678
30
-4.8697067453217825e-15
 70
     32
  0
VERTEX
  8
MY3DLAYER
10
133.09080391941583
20
36.58905477116344
30
-5.451908401512379e-15
 70
     32
  0
VERTEX
  8
MY3DLAYER
10
133.18102733320455
20
36.135471039908545
30
-6.034949762401919e-15
 70
     32
  0
VERTEX
  8
MY3DLAYER
10
133.21127431588758
20
35.67399126170254
30
-6.608854828656138e-15
 70
     32
  0
VERTEX
  8
MY3DLAYER
10
133.18102733320438
20
35.212511483496044
30
-7.163803925474784e-15
 70
     32
  0
VERTEX
  8
MY3DLAYER
10
133.09080391941583
20
34.7589277522412
30
-7.690301719950348e-15
 70
     32
  0
VERTEX
  8
MY3DLAYER
10
132.9421478221457
20
34.321001011336904
30
-8.179339688846637e-15
 70
     32
  0
VERTEX
  8
MY3DLAYER
10
132.73760258843362
20
33.90622430873583
30
-8.62255025692883e-15
 70
     32
  0
SEQEND
  0
POLYLINE
 8
Layer0
 66
     1
70
    8
 10
0.0
 20
 0.0
 30
0.0
  0
VERTEX
  8
MY3DLAYER
10
62.971411477403755
20
75.28237864823409
30
7.456572029050983e-14
 70
     32
  0
VERTEX
  8
MY3DLAYER
10
62.971411477403755
20
83.74684474230132
30
7.410221103274522e-14
 70
     32
  0
VERTEX
  8
MY3DLAYER
10
63.03164667563963
20
84.20437649703187
30
7.408917796832957e-14
 70
     32
  0
VERTEX
  8
MY3DLAYER
10
63.10597472427466
20
84.42333986748407
30
7.40710102913437e-14
 70
     32
  0
VERTEX
  8
MY3DLAYER
10
63.208247341130715
20
84.6307282187845
30
7.404544569578428e-14
 70
     32
  0
VERTEX
  8
MY3DLAYER
10
63.33671461337784
20
84.82299307874352
30
7.401292159896921e-14
 70
     32
  0
VERTEX
  8
MY3DLAYER
10
63.48917843037017
20
84.99684474230132
30
7.397399449721235e-14
 70
     32
  0
VERTEX
  8
MY3DLAYER
10
63.663030093928
20
85.14930855929364
30
7.39293304440174e-14
 70
     32
  0
VERTEX
  8
MY3DLAYER
10
63.85529495388705
20
85.27777583154081
30
7.387969365371774e-14
 70
     32
  0
VERTEX
  8
MY3DLAYER
10
64.0626833051875
20
85.38004844839679
30
7.382593342555732e-14
 70
     32
  0
VERTEX
  8
MY3DLAYER
10
64.28164667563962
20
85.45437649703186
30
7.37689696119451e-14
 70
     32
  0
VERTEX
  8
MY3DLAYER
10
64.73917843037016
20
85.51461169526767
30
7.364936803236113e-14
 70
     32
  0
VERTEX
  8
MY3DLAYER
10
66.00364452443745
20
85.51461169526765
30
7.291153746499362e-14
 70
     32
  0
VERTEX
  8
MY3DLAYER
10
66.46117627916799
20
85.45437649703183
30
7.279986464125241e-14
 70
     32
  0
VERTEX
  8
MY3DLAYER
10
66.68013964962019
20
85.38004844839675
30
7.274642079255455e-14
 70
     32
  0
VERTEX
  8
MY3DLAYER
10
66.88752800092064
20
85.27777583154077
30
7.269580213590109e-14
 70
     32
  0
VERTEX
  8
MY3DLAYER
10
67.07979286087959
20
85.1493085592936
30
7.264887477054156e-14
 70
     32
  0
VERTEX
  8
MY3DLAYER
10
67.25364452443743
20
84.99684474230128
30
7.260644163670796e-14
 70
     32
  0
VERTEX
  8
MY3DLAYER
10
67.40610834142976
20
84.82299307874348
30
7.256922877708487e-14
 70
     32
  0
VERTEX
  8
MY3DLAYER
10
67.53457561367689
20
84.63072821878447
30
7.253787291401778e-14
 70
     32
  0
VERTEX
  8
MY3DLAYER
10
67.63684823053285
20
84.42333986748403
30
7.251291055501728e-14
 70
     32
  0
VERTEX
  8
MY3DLAYER
10
67.71117627916797
20
84.20437649703184
30
7.249476881296674e-14
 70
     32
  0
VERTEX
  8
MY3DLAYER
10
67.75628798606243
20
83.97758463140443
30
7.248375809810249e-14
 70
     32
  0
VERTEX
  8
MY3DLAYER
10
67.77141147740384
20
75.28237864823407
30
7.211267334778277e-14
 70
     32
  0
VERTEX
  8
MY3DLAYER
10
67.71117627916797
20
74.82484689350353
30
7.213596853796454e-14
 70
     32
  0
VERTEX
  8
MY3DLAYER
10
67.63684823053293
20
74.60588352305132
30
7.217097778930025e-14
 70
     32
  0
VERTEX
  8
MY3DLAYER
10
67.53457561367689
20
74.39849517175088
30
7.222085097929534e-14
 70
     32
  0
VERTEX
  8
MY3DLAYER
10
67.40610834142984
20
74.20623031179187
30
7.228473476384153e-14
 70
     32
  0
VERTEX
  8
MY3DLAYER
10
67.25364452443743
20
74.03237864823407
30
7.236153607367333e-14
 70
     32
  0
VERTEX
  8
MY3DLAYER
10
67.07979286087959
20
73.87991483124173
30
7.244994081708615e-14
 70
     32
  0
VERTEX
  8
MY3DLAYER
10
66.88752800092064
20
73.75144755899457
30
7.254843636440977e-14
 70
     32
  0
VERTEX
  8
MY3DLAYER
10
66.68013964962019
20
73.6491749421386
30
7.265533742952136e-14
 70
     32
  0
VERTEX
  8
MY3DLAYER
10
66.46117627916799
20
73.5748468935035
30
7.276881490555829e-14
 70
     32
  0
VERTEX
  8
MY3DLAYER
10
66.00364452443745
20
73.51461169526769
30
7.30076532637324e-14
 70
     32
  0
VERTEX
  8
MY3DLAYER
10
64.73917843037016
20
73.51461169526769
30
7.363870177498059e-14
 70
     32
  0
VERTEX
  8
MY3DLAYER
10
64.28164667563962
20
73.57484689350352
30
7.387863182196223e-14
 70
     32
  0
VERTEX
  8
MY3DLAYER
10
64.06268330518742
20
73.6491749421386
30
7.399345640236931e-14
 70
     32
  0
VERTEX
  8
MY3DLAYER
10
63.855294953886954
20
73.75144755899457
30
7.410221103274522e-14
 70
     32
  0
VERTEX
  8
MY3DLAYER
10
63.66303009392791
20
73.87991483124173
30
7.420303489121172e-14
 70
     32
  0
VERTEX
  8
MY3DLAYER
10
63.489178430370075
20
74.03237864823407
30
7.42942028535968e-14
 70
     32
  0
VERTEX
  8
MY3DLAYER
10
63.33671461337784
20
74.20623031179187
30
7.437415501078755e-14
 70
     32
  0
VERTEX
  8
MY3DLAYER
10
63.20824734113062
20
74.3984951717509
30
7.444152335920747e-14
 70
     32
  0
VERTEX
  8
MY3DLAYER
10
63.10597472427466
20
74.60588352305132
30
7.449515520773707e-14
 70
     32
  0
VERTEX
  8
MY3DLAYER
10
63.03164667563954
20
74.82484689350353
30
7.453413290057845e-14
 70
     32
  0
VERTEX
  8
MY3DLAYER
10
62.971411477403755
20
75.28237864823409
30
7.456572029050983e-14
 70
     32
  0
SEQEND
  0
POLYLINE
 8
Layer0
 66
     1
70
    8
 10
0.0
 20
 0.0
 30
0.0
  0
VERTEX
  8
MY3DLAYER
10
96.07141147740388
20
75.28237864823406
30
7.249783600332148e-14
 70
     32
  0
VERTEX
  8
MY3DLAYER
10
96.01117627916801
20
74.82484689350352
30
7.250612820307107e-14
 70
     32
  0
VERTEX
  8
MY3DLAYER
10
95.93684823053297
20
74.60588352305132
30
7.251009664457675e-14
 70
     32
  0
VERTEX
  8
MY3DLAYER
10
95.83457561367692
20
74.39849517175087
30
7.251385530311129e-14
 70
     32
  0
VERTEX
  8
MY3DLAYER
10
95.70610834142988
20
74.20623031179186
30
7.251733986698496e-14
 70
     32
  0
VERTEX
  8
MY3DLAYER
10
95.55364452443747
20
74.03237864823406
30
7.252049071434392e-14
 70
     32
  0
VERTEX
  8
MY3DLAYER
10
95.37979286087963
20
73.87991483124172
30
7.252325393331622e-14
 70
     32
  0
VERTEX
  8
MY3DLAYER
10
95.18752800092066
20
73.75144755899457
30
7.252558224445913e-14
 70
     32
  0
VERTEX
  8
MY3DLAYER
10
94.9801396496202
20
73.64917494213859
30
7.252743580972338e-14
 70
     32
  0
VERTEX
  8
MY3DLAYER
10
94.761176279168
20
73.57484689350349
30
7.252878291409352e-14
 70
     32
  0
VERTEX
  8
MY3DLAYER
10
94.30364452443746
20
73.51461169526767
30
7.252987460290109e-14
 70
     32
  0
VERTEX
  8
MY3DLAYER
10
93.03917843037017
20
73.51461169526767
30
7.249783600332148e-14
 70
     32
  0
VERTEX
  8
MY3DLAYER
10
92.58164667563959
20
73.5748468935035
30
7.249565262570639e-14
 70
     32
  0
VERTEX
  8
MY3DLAYER
10
92.3626833051874
20
73.64917494213859
30
7.249295841696614e-14
 70
     32
  0
VERTEX
  8
MY3DLAYER
10
92.15529495388697
20
73.75144755899457
30
7.248925128643746e-14
 70
     32
  0
VERTEX
  8
MY3DLAYER
10
91.9630300939279
20
73.87991483124172
30
7.248459466415173e-14
 70
     32
  0
VERTEX
  8
MY3DLAYER
10
91.78917843037007
20
74.03237864823406
30
7.247906822620712e-14
 70
     32
  0
VERTEX
  8
MY3DLAYER
10
91.63671461337783
20
74.20623031179187
30
7.24727665314893e-14
 70
     32
  0
VERTEX
  8
MY3DLAYER
10
91.50824734113061
20
74.39849517175088
30
7.246579740374185e-14
 70
     32
  0
VERTEX
  8
MY3DLAYER
10
91.40597472427466
20
74.60588352305132
30
7.245828008667286e-14
 70
     32
  0
VERTEX
  8
MY3DLAYER
10
91.33164667563953
20
74.82484689350352
30
7.245034320366142e-14
 70
     32
  0
VERTEX
  8
MY3DLAYER
10
91.27141147740375
20
75.28237864823407
30
7.243375880416224e-14
 70
     32
  0
VERTEX
  8
MY3DLAYER
10
91.27141147740375
20
83.7468447423013
30
7.166343349308487e-14
 70
     32
  0
VERTEX
  8
MY3DLAYER
10
91.33164667563962
20
84.20437649703186
30
7.166540341910141e-14
 70
     32
  0
VERTEX
  8
MY3DLAYER
10
91.40597472427466
20
84.42333986748406
30
7.167827655194555e-14
 70
     32
  0
VERTEX
  8
MY3DLAYER
10
91.5082473411307
20
84.6307282187845
30
7.169882648784669e-14
 70
     32
  0
VERTEX
  8
MY3DLAYER
10
91.63671461337783
20
84.82299307874351
30
7.172670161170408e-14
 70
     32
  0
VERTEX
  8
MY3DLAYER
10
91.78917843037016
20
84.9968447423013
30
7.176142497242009e-14
 70
     32
  0
VERTEX
  8
MY3DLAYER
10
91.963030093928
20
85.14930855929364
30
7.180240244366571e-14
 70
     32
  0
VERTEX
  8
MY3DLAYER
10
92.15529495388706
20
85.2777758315408
30
7.184893288954681e-14
 70
     32
  0
VERTEX
  8
MY3DLAYER
10
92.3626833051875
20
85.38004844839678
30
7.190022016123369e-14
 70
     32
  0
VERTEX
  8
MY3DLAYER
10
92.58164667563959
20
85.45437649703184
30
7.19553867192882e-14
 70
     32
  0
VERTEX
  8
MY3DLAYER
10
93.03917843037017
20
85.51461169526766
30
7.207353180907078e-14
 70
     32
  0
VERTEX
  8
MY3DLAYER
10
94.30364452443746
20
85.51461169526763
30
7.199878835253108e-14
 70
     32
  0
VERTEX
  8
MY3DLAYER
10
94.761176279168
20
85.45437649703182
30
7.212922895338655e-14
 70
     32
  0
VERTEX
  8
MY3DLAYER
10
94.9801396496202
20
85.38004844839674
30
7.219330389383608e-14
 70
     32
  0
VERTEX
  8
MY3DLAYER
10
95.18752800092066
20
85.27777583154075
30
7.225514699808717e-14
 70
     32
  0
VERTEX
  8
MY3DLAYER
10
95.37979286087963
20
85.14930855929359
30
7.231370011347989e-14
 70
     32
  0
VERTEX
  8
MY3DLAYER
10
95.55364452443747
20
84.99684474230126
30
7.236796137997589e-14
 70
     32
  0
VERTEX
  8
MY3DLAYER
10
95.7061083414298
20
84.82299307874347
30
7.241700237226147e-14
 70
     32
  0
VERTEX
  8
MY3DLAYER
10
95.83457561367692
20
84.63072821878445
30
7.245998398536176e-14
 70
     32
  0
VERTEX
  8
MY3DLAYER
10
95.93684823053289
20
84.42333986748402
30
7.249617079195979e-14
 70
     32
  0
VERTEX
  8
MY3DLAYER
10
96.01117627916801
20
84.20437649703183
30
7.252494362576206e-14
 70
     32
  0
VERTEX
  8
MY3DLAYER
10
96.05628798606247
20
83.97758463140443
30
7.254581017560464e-14
 70
     32
  0
VERTEX
  8
MY3DLAYER
10
96.07141147740388
20
75.28237864823406
30
7.249783600332148e-14
 70
     32
  0
SEQEND
  0
POLYLINE
 8
Layer0
 66
     1
70
    8
 10
0.0
 20
 0.0
 30
0.0
  0
VERTEX
  8
MY3DLAYER
10
102.91160218969452
20
119.77291258663978
30
2.0976412284346993e-13
 70
     32
  0
VERTEX
  8
MY3DLAYER
10
102.9573957686674
20
119.75524805396803
30
2.097811563727941e-13
 70
     32
  0
VERTEX
  8
MY3DLAYER
10
103.00226742973258
20
119.73535781458018
30
2.0979536056831017e-13
 70
     32
  0
VERTEX
  8
MY3DLAYER
10
103.0461090731283
20
119.71328978580506
30
2.098067012108666e-13
 70
     32
  0
VERTEX
  8
MY3DLAYER
10
103.08881508049552
20
119.689097131457
30
2.098151509798628e-13
 70
     32
  0
VERTEX
  8
MY3DLAYER
10
103.13028256932185
20
119.66283813375928
30
2.0982068951906435e-13
 70
     32
  0
VERTEX
  8
MY3DLAYER
10
103.17041164079471
20
119.63457605293738
30
2.0982330348564582e-13
 70
     32
  0
VERTEX
  8
MY3DLAYER
10
103.20910562046588
20
119.60437897481945
30
2.0982298658233234e-13
 70
     32
  0
VERTEX
  8
MY3DLAYER
10
103.24627129114926
20
119.57231964681166
30
2.0981973957257207e-13
 70
     32
  0
VERTEX
  8
MY3DLAYER
10
103.28181911748878
20
119.53847530264328
30
2.0981357027869566e-13
 70
     32
  0
VERTEX
  8
MY3DLAYER
10
103.31566346165725
20
119.50292747630373
30
2.0980449356307275e-13
 70
     32
  0
VERTEX
  8
MY3DLAYER
10
103.347722789665
20
119.46576180562037
30
2.0979253129230597e-13
 70
     32
  0
VERTEX
  8
MY3DLAYER
10
103.37791986778286
20
119.42706782594912
30
2.097777122845532e-13
 70
     32
  0
VERTEX
  8
MY3DLAYER
10
103.40618194860477
20
119.38693875447632
30
2.0976007224010282e-13
 70
     32
  0
VERTEX
  8
MY3DLAYER
10
103.43244094630253
20
119.34547126564993
30
2.0973965365536656e-13
 70
     32
  0
VERTEX
  8
MY3DLAYER
10
103.45663360065063
20
119.30276525828272
30
2.097165057205035e-13
 70
     32
  0
VERTEX
  8
MY3DLAYER
10
103.47870162942573
20
119.258923614887
30
2.0969068420091633e-13
 70
     32
  0
VERTEX
  8
MY3DLAYER
10
103.49859186881353
20
119.21405195382181
30
2.096622513029071e-13
 70
     32
  0
VERTEX
  8
MY3DLAYER
10
103.51625640148526
20
119.16825837484897
30
2.09631275523818e-13
 70
     32
  0
VERTEX
  8
MY3DLAYER
10
103.5316526720345
20
119.12165319871121
30
2.0959783148701395e-13
 70
     32
  0
VERTEX
  8
MY3DLAYER
10
103.54474358949683
20
119.07434870136001
30
2.0956199976210862e-13
 70
     32
  0
VERTEX
  8
MY3DLAYER
10
103.55549761670548
20
119.02645884347288
30
2.0952386667086617e-13
 70
     32
  0
VERTEX
  8
MY3DLAYER
10
103.56388884626703
20
118.97809899591213
30
2.0948352407924332e-13
 70
     32
  0
VERTEX
  8
MY3DLAYER
10
103.56989706297448
20
118.92938566178633
30
2.0944106917607678e-13
 70
     32
  0
VERTEX
  8
MY3DLAYER
10
103.57350779250746
20
118.88043619578418
30
2.0939660423894713e-13
 70
     32
  0
VERTEX
  8
MY3DLAYER
10
103.57471233630223
20
118.83136852145678
30
2.0935023638778228e-13
 70
     32
  0
VERTEX
  8
MY3DLAYER
10
103.57350779250746
20
118.78230084712933
30
2.093020773267973e-13
 70
     32
  0
VERTEX
  8
MY3DLAYER
10
103.56989706297439
20
118.73335138112719
30
2.0925224307538814e-13
 70
     32
  0
VERTEX
  8
MY3DLAYER
10
103.56388884626703
20
118.68463804700143
30
2.0920085368863172e-13
 70
     32
  0
VERTEX
  8
MY3DLAYER
10
103.55549761670548
20
118.63627819944064
30
2.0914803296806153e-13
 70
     32
  0
VERTEX
  8
MY3DLAYER
10
103.54474358949673
20
118.58838834155351
30
2.090939081634203e-13
 70
     32
  0
VERTEX
  8
MY3DLAYER
10
103.5316526720344
20
118.5410838442023
30
2.090386096661028e-13
 70
     32
  0
VERTEX
  8
MY3DLAYER
10
103.51625640148526
20
118.49447866806453
30
2.0898227069503307e-13
 70
     32
  0
VERTEX
  8
MY3DLAYER
10
103.49859186881353
20
118.44868508909171
30
2.0892502697572683e-13
 70
     32
  0
VERTEX
  8
MY3DLAYER
10
103.47870162942563
20
118.40381342802651
30
2.0886701641331783e-13
 70
     32
  0
VERTEX
  8
MY3DLAYER
10
103.45663360065055
20
118.3599717846308
30
2.0880837876033244e-13
 70
     32
  0
VERTEX
  8
MY3DLAYER
10
103.43244094630253
20
118.31726577726353
30
2.0874925528001218e-13
 70
     32
  0
VERTEX
  8
MY3DLAYER
10
103.40618194860477
20
118.2757982884372
30
2.0868978840600023e-13
 70
     32
  0
VERTEX
  8
MY3DLAYER
10
103.37791986778286
20
118.23566921696435
30
2.0863012139920448e-13
 70
     32
  0
VERTEX
  8
MY3DLAYER
10
103.347722789665
20
118.19697523729313
30
2.0857039800267075e-13
 70
     32
  0
VERTEX
  8
MY3DLAYER
10
103.31566346165717
20
118.1598095666098
30
2.0851076209529206e-13
 70
     32
  0
VERTEX
  8
MY3DLAYER
10
103.28181911748878
20
118.12426174027023
30
2.0845135734519307e-13
 70
     32
  0
VERTEX
  8
MY3DLAYER
10
101.86760555511567
20
116.71004817789714
30
2.0588228843883776e-13
 70
     32
  0
VERTEX
  8
MY3DLAYER
10
101.83205772877616
20
116.67620383372875
30
2.0582307082300176e-13
 70
     32
  0
VERTEX
  8
MY3DLAYER
10
101.79489205809277
20
116.64414450572096
30
2.0576399586758917e-13
 70
     32
  0
VERTEX
  8
MY3DLAYER
10
101.7561980784216
20
116.61394742760304
30
2.057052058893419e-13
 70
     32
  0
VERTEX
  8
MY3DLAYER
10
101.71606900694876
20
116.58568534678119
30
2.0564684251846702e-13
 70
     32
  0
VERTEX
  8
MY3DLAYER
10
101.67460151812233
20
116.55942634908342
30
2.0558904635743683e-13
 70
     32
  0
VERTEX
  8
MY3DLAYER
10
101.63189551075511
20
116.53523369473537
30
2.0553195664226585e-13
 70
     32
  0
VERTEX
  8
MY3DLAYER
10
101.58805386735939
20
116.51316566596027
30
2.0547571090707809e-13
 70
     32
  0
VERTEX
  8
MY3DLAYER
10
101.5431822062942
20
116.49327542657242
30
2.0542044465277643e-13
 70
     32
  0
VERTEX
  8
MY3DLAYER
10
101.49738862732133
20
116.4756108939007
30
2.0536629102060808e-13
 70
     32
  0
VERTEX
  8
MY3DLAYER
10
101.45078345118361
20
116.4602146233515
30
2.0531338047141642e-13
 70
     32
  0
VERTEX
  8
MY3DLAYER
10
101.40347895383236
20
116.44712370588917
30
2.0526184047134848e-13
 70
     32
  0
VERTEX
  8
MY3DLAYER
10
101.35558909594528
20
116.43636967868048
30
2.0521179518477925e-13
 70
     32
  0
VERTEX
  8
MY3DLAYER
10
101.30722924838453
20
116.42797844911897
30
2.0516336517518735e-13
 70
     32
  0
VERTEX
  8
MY3DLAYER
10
101.25851591425872
20
116.42197023241152
30
2.0511666711470758e-13
 70
     32
  0
VERTEX
  8
MY3DLAYER
10
101.20956644825658
20
116.41835950287854
30
2.0507181350305834e-13
 70
     32
  0
VERTEX
  8
MY3DLAYER
10
101.16049877392918
20
116.41715495908373
30
2.050289123965186e-13
 70
     32
  0
VERTEX
  8
MY3DLAYER
10
101.11143109960179
20
116.41835950287854
30
2.049880671476117e-13
 70
     32
  0
VERTEX
  8
MY3DLAYER
10
101.06248163359956
20
116.42197023241152
30
2.0494937615611983e-13
 70
     32
  0
VERTEX
  8
MY3DLAYER
10
101.01376829947384
20
116.42797844911897
30
2.049129326320306e-13
 70
     32
  0
VERTEX
  8
MY3DLAYER
10
100.965408451913
20
116.43636967868052
30
2.0487882437098542e-13
 70
     32
  0
VERTEX
  8
MY3DLAYER
10
100.91751859402592
20
116.44712370588921
30
2.048471335427729e-13
 70
     32
  0
VERTEX
  8
MY3DLAYER
10
100.87021409667467
20
116.4602146233515
30
2.0481793649337373e-13
 70
     32
  0
VERTEX
  8
MY3DLAYER
10
100.82360892053696
20
116.47561089390074
30
2.047913035610375e-13
 70
     32
  0
VERTEX
  8
MY3DLAYER
10
100.77781534156408
20
116.49327542657247
30
2.047672989068308e-13
 70
     32
  0
VERTEX
  8
MY3DLAYER
10
100.73294368049889
20
116.51316566596027
30
2.0474598036006828e-13
 70
     32
  0
VERTEX
  8
MY3DLAYER
10
100.68910203710317
20
116.53523369473541
30
2.0472739927899632e-13
 70
     32
  0
VERTEX
  8
MY3DLAYER
10
100.64639602973595
20
116.55942634908347
30
2.0471160042706678e-13
 70
     32
  0
VERTEX
  8
MY3DLAYER
10
100.60492854090963
20
116.58568534678119
30
2.046986218650978e-13
 70
     32
  0
VERTEX
  8
MY3DLAYER
10
100.56479946943676
20
116.61394742760308
30
2.0468849485958178e-13
 70
     32
  0
VERTEX
  8
MY3DLAYER
10
100.52610548976551
20
116.644144505721
30
2.046812438073623e-13
 70
     32
  0
VERTEX
  8
MY3DLAYER
10
100.48893981908222
20
116.67620383372879
30
2.0467688617685907e-13
 70
     32
  0
VERTEX
  8
MY3DLAYER
10
100.45339199274261
20
116.71004817789718
30
2.046754324659857e-13
 70
     32
  0
VERTEX
  8
MY3DLAYER
10
100.41954764857422
20
116.74559600423675
30
2.0467688617685907e-13
 70
     32
  0
VERTEX
  8
MY3DLAYER
10
100.38748832056648
20
116.78276167492008
30
2.046812438073623e-13
 70
     32
  0
VERTEX
  8
MY3DLAYER
10
100.3572912424486
20
116.82145565459133
30
2.0468849485958186e-13
 70
     32
  0
VERTEX
  8
MY3DLAYER
10
100.32902916162672
20
116.86158472606415
30
2.046986218650978e-13
 70
     32
  0
VERTEX
  8
MY3DLAYER
10
100.30277016392895
20
116.90305221489052
30
2.0471160042706678e-13
 70
     32
  0
VERTEX
  8
MY3DLAYER
10
100.27857750958086
20
116.94575822225774
30
2.0472739927899632e-13
 70
     32
  0
VERTEX
  8
MY3DLAYER
10
100.25650948080578
20
116.98959986565346
30
2.0474598036006828e-13
 70
     32
  0
VERTEX
  8
MY3DLAYER
10
100.23661924141797
20
117.03447152671865
30
2.047672989068308e-13
 70
     32
  0
VERTEX
  8
MY3DLAYER
10
100.21895470874622
20
117.08026510569152
30
2.047913035610375e-13
 70
     32
  0
VERTEX
  8
MY3DLAYER
10
100.203558438197
20
117.12687028182928
30
2.0481793649337373e-13
 70
     32
  0
VERTEX
  8
MY3DLAYER
10
100.19046752073467
20
117.1741747791805
30
2.048471335427729e-13
 70
     32
  0
VERTEX
  8
MY3DLAYER
10
100.17971349352602
20
117.22206463706763
30
2.0487882437098557e-13
 70
     32
  0
VERTEX
  8
MY3DLAYER
10
100.17132226396446
20
117.27042448462836
30
2.049129326320306e-13
 70
     32
  0
VERTEX
  8
MY3DLAYER
10
100.16531404725701
20
117.31913781875419
30
2.049493761561199e-13
 70
     32
  0
VERTEX
  8
MY3DLAYER
10
100.16170331772405
20
117.36808728475633
30
2.049880671476118e-13
 70
     32
  0
VERTEX
  8
MY3DLAYER
10
100.16049877392926
20
117.41715495908373
30
2.050289123965186e-13
 70
     32
  0
VERTEX
  8
MY3DLAYER
10
100.16170331772405
20
117.46622263341118
30
2.0507181350305834e-13
 70
     32
  0
VERTEX
  8
MY3DLAYER
10
100.16531404725701
20
117.51517209941326
30
2.0511666711470758e-13
 70
     32
  0
VERTEX
  8
MY3DLAYER
10
100.17132226396446
20
117.56388543353908
30
2.0516336517518735e-13
 70
     32
  0
VERTEX
  8
MY3DLAYER
10
100.17971349352602
20
117.61224528109987
30
2.0521179518477932e-13
 70
     32
  0
VERTEX
  8
MY3DLAYER
10
100.19046752073476
20
117.660135138987
30
2.0526184047134863e-13
 70
     32
  0
VERTEX
  8
MY3DLAYER
10
100.203558438197
20
117.70743963633821
30
2.0531338047141642e-13
 70
     32
  0
VERTEX
  8
MY3DLAYER
10
100.21895470874622
20
117.75404481247593
30
2.0536629102060818e-13
 70
     32
  0
VERTEX
  8
MY3DLAYER
10
100.23661924141797
20
117.7998383914488
30
2.0542044465277654e-13
 70
     32
  0
VERTEX
  8
MY3DLAYER
10
100.25650948080578
20
117.84471005251399
30
2.0547571090707809e-13
 70
     32
  0
VERTEX
  8
MY3DLAYER
10
100.27857750958094
20
117.88855169590975
30
2.0553195664226585e-13
 70
     32
  0
VERTEX
  8
MY3DLAYER
10
100.30277016392895
20
117.93125770327693
30
2.0558904635743693e-13
 70
     32
  0
VERTEX
  8
MY3DLAYER
10
100.32902916162672
20
117.97272519210331
30
2.0564684251846702e-13
 70
     32
  0
VERTEX
  8
MY3DLAYER
10
100.3572912424486
20
118.01285426357616
30
2.057052058893419e-13
 70
     32
  0
VERTEX
  8
MY3DLAYER
10
100.38748832056648
20
118.05154824324737
30
2.0576399586758924e-13
 70
     32
  0
VERTEX
  8
MY3DLAYER
10
100.41954764857431
20
118.08871391393072
30
2.0582307082300184e-13
 70
     32
  0
VERTEX
  8
MY3DLAYER
10
100.4533919927427
20
118.12426174027027
30
2.0588228843883786e-13
 70
     32
  0
VERTEX
  8
MY3DLAYER
10
101.86760555511577
20
119.53847530264328
30
2.0876207126649415e-13
 70
     32
  0
VERTEX
  8
MY3DLAYER
10
101.90315338145528
20
119.57231964681172
30
2.0882110174806734e-13
 70
     32
  0
VERTEX
  8
MY3DLAYER
10
101.94031905213868
20
119.6043789748195
30
2.0887961575151387e-13
 70
     32
  0
VERTEX
  8
MY3DLAYER
10
101.97901303180984
20
119.63457605293738
30
2.089374723114745e-13
 70
     32
  0
VERTEX
  8
MY3DLAYER
10
102.01914210328269
20
119.66283813375928
30
2.0899453204642869e-13
 70
     32
  0
VERTEX
  8
MY3DLAYER
10
102.06060959210912
20
119.689097131457
30
2.0905065749447688e-13
 70
     32
  0
VERTEX
  8
MY3DLAYER
10
102.10331559947633
20
119.7132897858051
30
2.0910571344449892e-13
 70
     32
  0
VERTEX
  8
MY3DLAYER
10
102.14715724287205
20
119.73535781458018
30
2.0915956726188874e-13
 70
     32
  0
VERTEX
  8
MY3DLAYER
10
102.19202890393724
20
119.75524805396803
30
2.0921208920808305e-13
 70
     32
  0
VERTEX
  8
MY3DLAYER
10
102.23782248291012
20
119.77291258663978
30
2.092631527531135e-13
 70
     32
  0
VERTEX
  8
MY3DLAYER
10
102.28442765904784
20
119.78830885718895
30
2.0931263488042727e-13
 70
     32
  0
VERTEX
  8
MY3DLAYER
10
102.331732156399
20
119.80139977465129
30
2.0936041638324555e-13
 70
     32
  0
VERTEX
  8
MY3DLAYER
10
102.37962201428617
20
119.81215380185998
30
2.0940638215174276e-13
 70
     32
  0
VERTEX
  8
MY3DLAYER
10
102.42798186184692
20
119.82054503142149
30
2.0945042145035665e-13
 70
     32
  0
VERTEX
  8
MY3DLAYER
10
102.47669519597274
20
119.82655324812893
30
2.0949242818455914e-13
 70
     32
  0
VERTEX
  8
MY3DLAYER
10
102.52564466197487
20
119.83016397766191
30
2.0953230115644876e-13
 70
     32
  0
VERTEX
  8
MY3DLAYER
10
102.57471233630227
20
119.83136852145674
30
2.095699443085434e-13
 70
     32
  0
VERTEX
  8
MY3DLAYER
10
102.62378001062967
20
119.83016397766191
30
2.0960526695519238e-13
 70
     32
  0
VERTEX
  8
MY3DLAYER
10
102.67272947663182
20
119.82655324812893
30
2.0963818400104637e-13
 70
     32
  0
VERTEX
  8
MY3DLAYER
10
102.72144281075764
20
119.82054503142149
30
2.0966861614605837e-13
 70
     32
  0
VERTEX
  8
MY3DLAYER
10
102.76980265831837
20
119.81215380185998
30
2.0969649007652576e-13
 70
     32
  0
VERTEX
  8
MY3DLAYER
10
102.81769251620555
20
119.80139977465129
30
2.097217386417085e-13
 70
     32
  0
VERTEX
  8
MY3DLAYER
10
102.86499701355672
20
119.78830885718895
30
2.097443010156015e-13
 70
     32
  0
VERTEX
  8
MY3DLAYER
10
102.91160218969452
20
119.77291258663978
30
2.0976412284346993e-13
 70
     32
  0
SEQEND
  0
POLYLINE
 8
Layer0
 66
     1
70
    8
 10
0.0
 20
 0.0
 30
0.0
  0
VERTEX
  8
MY3DLAYER
10
130.03769452938317
20
114.37209299174738
30
1.1424416793496568e-13
 70
     32
  0
VERTEX
  8
MY3DLAYER
10
130.08348810835605
20
114.35442845907565
30
1.1428553728208613e-13
 70
     32
  0
VERTEX
  8
MY3DLAYER
10
130.1283597694213
20
114.33453821968779
30
1.1432365307527864e-13
 70
     32
  0
VERTEX
  8
MY3DLAYER
10
130.17220141281695
20
114.31247019091266
30
1.1435842349025844e-13
 70
     32
  0
VERTEX
  8
MY3DLAYER
10
130.21490742018426
20
114.2882775365646
30
1.1438976476205044e-13
 70
     32
  0
VERTEX
  8
MY3DLAYER
10
130.2563749090105
20
114.26201853886688
30
1.144176013867855e-13
 70
     32
  0
VERTEX
  8
MY3DLAYER
10
130.29650398048344
20
114.23375645804498
30
1.1444186630359701e-13
 70
     32
  0
VERTEX
  8
MY3DLAYER
10
130.3351979601546
20
114.20355937992706
30
1.144625010561744e-13
 70
     32
  0
VERTEX
  8
MY3DLAYER
10
130.372363630838
20
114.17150005191928
30
1.1447945593359185e-13
 70
     32
  0
VERTEX
  8
MY3DLAYER
10
130.40791145717742
20
114.13765570775085
30
1.144926900900641e-13
 70
     32
  0
VERTEX
  8
MY3DLAYER
10
130.4417558013459
20
114.10210788141133
30
1.1450217164334955e-13
 70
     32
  0
VERTEX
  8
MY3DLAYER
10
130.47381512935365
20
114.06494221072793
30
1.1450787775155509e-13
 70
     32
  0
VERTEX
  8
MY3DLAYER
10
130.5040122074715
20
114.02624823105673
30
1.1450979466816689e-13
 70
     32
  0
VERTEX
  8
MY3DLAYER
10
130.53227428829342
20
113.98611915958392
30
1.1450791777516504e-13
 70
     32
  0
VERTEX
  8
MY3DLAYER
10
130.55853328599127
20
113.9446516707575
30
1.1450225159414885e-13
 70
     32
  0
VERTEX
  8
MY3DLAYER
10
130.5827259403393
20
113.90194566339032
30
1.1449280977544476e-13
 70
     32
  0
VERTEX
  8
MY3DLAYER
10
130.60479396911447
20
113.85810401999456
30
1.144796150652208e-13
 70
     32
  0
VERTEX
  8
MY3DLAYER
10
130.62468420850226
20
113.81323235892941
30
1.1446269925068997e-13
 70
     32
  0
VERTEX
  8
MY3DLAYER
10
130.642348741174
20
113.76743877995654
30
1.1444210308353098e-13
 70
     32
  0
VERTEX
  8
MY3DLAYER
10
130.65774501172314
20
113.72083360381878
30
1.1441787618171459e-13
 70
     32
  0
VERTEX
  8
MY3DLAYER
10
130.67083592918556
20
113.67352910646757
30
1.1439007690996922e-13
 70
     32
  0
VERTEX
  8
MY3DLAYER
10
130.68158995639422
20
113.62563924858044
30
1.1435877223917546e-13
 70
     32
  0
VERTEX
  8
MY3DLAYER
10
130.68998118595567
20
113.5772794010197
30
1.1432403758502734e-13
 70
     32
  0
VERTEX
  8
MY3DLAYER
10
130.69598940266312
20
113.52856606689389
30
1.1428595662634872e-13
 70
     32
  0
VERTEX
  8
MY3DLAYER
10
130.6996001321962
20
113.4796166008917
30
1.14244621103505e-13
 70
     32
  0
VERTEX
  8
MY3DLAYER
10
130.70080467599095
20
113.43054892656434
30
1.1420013059739093e-13
 70
     32
  0
VERTEX
  8
MY3DLAYER
10
130.6996001321962
20
113.3814812522369
30
1.1415259228953294e-13
 70
     32
  0
VERTEX
  8
MY3DLAYER
10
130.69598940266312
20
113.33253178623475
30
1.141021207038782e-13
 70
     32
  0
VERTEX
  8
MY3DLAYER
10
130.68998118595567
20
113.28381845210895
30
1.140488374308979e-13
 70
     32
  0
VERTEX
  8
MY3DLAYER
10
130.68158995639422
20
113.2354586045482
30
1.139928708346631e-13
 70
     32
  0
VERTEX
  8
MY3DLAYER
10
130.6708359291854
20
113.18756874666107
30
1.139343557436065e-13
 70
     32
  0
VERTEX
  8
MY3DLAYER
10
130.65774501172314
20
113.14026424930987
30
1.138734331257077e-13
 70
     32
  0
VERTEX
  8
MY3DLAYER
10
130.642348741174
20
113.09365907317209
30
1.1381024974888974e-13
 70
     32
  0
VERTEX
  8
MY3DLAYER
10
130.62468420850226
20
113.04786549419927
30
1.1374495782744101e-13
 70
     32
  0
VERTEX
  8
MY3DLAYER
10
130.60479396911427
20
113.00299383313407
30
1.1367771465531941e-13
 70
     32
  0
VERTEX
  8
MY3DLAYER
10
130.5827259403393
20
112.95915218973836
30
1.1360868222721672e-13
 70
     32
  0
VERTEX
  8
MY3DLAYER
10
130.55853328599127
20
112.91644618237109
30
1.1353802684829816e-13
 70
     32
  0
VERTEX
  8
MY3DLAYER
10
130.53227428829342
20
112.87497869354476
30
1.1346591873356082e-13
 70
     32
  0
VERTEX
  8
MY3DLAYER
10
130.5040122074715
20
112.83484962207191
30
1.1339253159776858e-13
 70
     32
  0
VERTEX
  8
MY3DLAYER
10
130.47381512935365
20
112.7961556424007
30
1.1331804223696002e-13
 70
     32
  0
VERTEX
  8
MY3DLAYER
10
130.4417558013459
20
112.75898997171736
30
1.1324263010252907e-13
 70
     32
  0
VERTEX
  8
MY3DLAYER
10
130.40791145717742
20
112.72344214537779
30
1.1316647686891369e-13
 70
     32
  0
VERTEX
  8
MY3DLAYER
10
128.99369789480443
20
111.3092285830047
30
1.0989574693203691e-13
 70
     32
  0
VERTEX
  8
MY3DLAYER
10
128.95815006846482
20
111.27538423883631
30
1.098188489247838e-13
 70
     32
  0
VERTEX
  8
MY3DLAYER
10
128.9209843977814
20
111.24332491082852
30
1.0974120426366476e-13
 70
     32
  0
VERTEX
  8
MY3DLAYER
10
128.88229041811024
20
111.2131278327106
30
1.0966300000146964e-13
 70
     32
  0
VERTEX
  8
MY3DLAYER
10
128.84216134663748
20
111.18486575188871
30
1.0958442453911569e-13
 70
     32
  0
VERTEX
  8
MY3DLAYER
10
128.80069385781107
20
111.15860675419098
30
1.0950566717177427e-13
 70
     32
  0
VERTEX
  8
MY3DLAYER
10
128.75798785044375
20
111.13441409984293
30
1.0942691763284183e-13
 70
     32
  0
VERTEX
  8
MY3DLAYER
10
128.71414620704815
20
111.11234607106785
30
1.0934836563685496e-13
 70
     32
  0
VERTEX
  8
MY3DLAYER
10
128.66927454598286
20
111.09245583167998
30
1.0927020042245247e-13
 70
     32
  0
VERTEX
  8
MY3DLAYER
10
128.62348096700998
20
111.07479129900825
30
1.0919261029648235e-13
 70
     32
  0
VERTEX
  8
MY3DLAYER
10
128.57687579087226
20
111.05939502845906
30
1.091157821803543e-13
 70
     32
  0
VERTEX
  8
MY3DLAYER
10
128.5295712935211
20
111.04630411099673
30
1.090399011597289e-13
 70
     32
  0
VERTEX
  8
MY3DLAYER
10
128.48168143563402
20
111.03555008378804
30
1.0896515003863182e-13
 70
     32
  0
VERTEX
  8
MY3DLAYER
10
128.43332158807317
20
111.02715885422649
30
1.0889170889906118e-13
 70
     32
  0
VERTEX
  8
MY3DLAYER
10
128.38460825394736
20
111.02115063751909
30
1.0881975466715429e-13
 70
     32
  0
VERTEX
  8
MY3DLAYER
10
128.33565878794522
20
111.01753990798612
30
1.0874946068695884e-13
 70
     32
  0
VERTEX
  8
MY3DLAYER
10
128.28659111361782
20
111.01633536419129
30
1.0868099630282996e-13
 70
     32
  0
VERTEX
  8
MY3DLAYER
10
128.2375234392904
20
111.01753990798612
30
1.0861452645146561e-13
 70
     32
  0
VERTEX
  8
MY3DLAYER
10
128.18857397328827
20
111.02115063751909
30
1.0855021126455997e-13
 70
     32
  0
VERTEX
  8
MY3DLAYER
10
128.13986063916246
20
111.02715885422649
30
1.0848820568303195e-13
 70
     32
  0
VERTEX
  8
MY3DLAYER
10
128.09150079160165
20
111.03555008378804
30
1.084286590837579e-13
 70
     32
  0
VERTEX
  8
MY3DLAYER
10
128.04361093371455
20
111.04630411099673
30
1.0837171491971148e-13
 70
     32
  0
VERTEX
  8
MY3DLAYER
10
127.99630643636338
20
111.05939502845906
30
1.0831751037437162e-13
 70
     32
  0
VERTEX
  8
MY3DLAYER
10
127.94970126022567
20
111.0747912990083
30
1.082661760312358e-13
 70
     32
  0
VERTEX
  8
MY3DLAYER
10
127.90390768125279
20
111.09245583168003
30
1.0821783555923281e-13
 70
     32
  0
VERTEX
  8
MY3DLAYER
10
127.85903602018752
20
111.11234607106785
30
1.0817260541479403e-13
 70
     32
  0
VERTEX
  8
MY3DLAYER
10
127.81519437679188
20
111.13441409984293
30
1.0813059456129888e-13
 70
     32
  0
VERTEX
  8
MY3DLAYER
10
127.77248836942458
20
111.15860675419103
30
1.0809190420657336e-13
 70
     32
  0
VERTEX
  8
MY3DLAYER
10
127.73102088059834
20
111.18486575188875
30
1.080566275590707e-13
 70
     32
  0
VERTEX
  8
MY3DLAYER
10
127.69089180912539
20
111.21312783271065
30
1.0802484960332464e-13
 70
     32
  0
VERTEX
  8
MY3DLAYER
10
127.65219782945422
20
111.24332491082856
30
1.0799664689521432e-13
 70
     32
  0
VERTEX
  8
MY3DLAYER
10
127.61503215877084
20
111.27538423883635
30
1.0797208737753348e-13
 70
     32
  0
VERTEX
  8
MY3DLAYER
10
127.57948433243124
20
111.30922858300474
30
1.0795123021631127e-13
 70
     32
  0
VERTEX
  8
MY3DLAYER
10
127.54563998826293
20
111.34477640934426
30
1.0793412565827631e-13
 70
     32
  0
VERTEX
  8
MY3DLAYER
10
127.51358066025519
20
111.38194208002764
30
1.0792081490980708e-13
 70
     32
  0
VERTEX
  8
MY3DLAYER
10
127.48338358213732
20
111.42063605969885
30
1.0791133003766216e-13
 70
     32
  0
VERTEX
  8
MY3DLAYER
10
127.45512150131542
20
111.46076513117171
30
1.0790569389172963e-13
 70
     32
  0
VERTEX
  8
MY3DLAYER
10
127.42886250361757
20
111.50223261999808
30
1.0790392004997854e-13
 70
     32
  0
VERTEX
  8
MY3DLAYER
10
127.40466984926955
20
111.5449386273653
30
1.0790601278574911e-13
 70
     32
  0
VERTEX
  8
MY3DLAYER
10
127.38260182049437
20
111.58878027076102
30
1.0791196705745771e-13
 70
     32
  0
VERTEX
  8
MY3DLAYER
10
127.36271158110657
20
111.63365193182621
30
1.0792176852074197e-13
 70
     32
  0
VERTEX
  8
MY3DLAYER
10
127.34504704843484
20
111.67944551079908
30
1.0793539356301858e-13
 70
     32
  0
VERTEX
  8
MY3DLAYER
10
127.3296507778857
20
111.7260506869368
30
1.0795280936036714e-13
 70
     32
  0
VERTEX
  8
MY3DLAYER
10
127.31655986042327
20
111.77335518428801
30
1.0797397395660627e-13
 70
     32
  0
VERTEX
  8
MY3DLAYER
10
127.30580583321462
20
111.82124504217515
30
1.0799883636437034e-13
 70
     32
  0
VERTEX
  8
MY3DLAYER
10
127.29741460365315
20
111.86960488973594
30
1.0802733668794083e-13
 70
     32
  0
VERTEX
  8
MY3DLAYER
10
127.29140638694571
20
111.91831822386175
30
1.0805940626754193e-13
 70
     32
  0
VERTEX
  8
MY3DLAYER
10
127.28779565741264
20
111.96726768986389
30
1.0809496784474796e-13
 70
     32
  0
VERTEX
  8
MY3DLAYER
10
127.28659111361787
20
112.01633536419129
30
1.0813393574860403e-13
 70
     32
  0
VERTEX
  8
MY3DLAYER
10
127.28779565741264
20
112.0654030385187
30
1.0817621610201677e-13
 70
     32
  0
VERTEX
  8
MY3DLAYER
10
127.29140638694571
20
112.11435250452084
30
1.0822170704791157e-13
 70
     32
  0
VERTEX
  8
MY3DLAYER
10
127.29741460365315
20
112.16306583864665
30
1.0827029899461522e-13
 70
     32
  0
VERTEX
  8
MY3DLAYER
10
127.30580583321462
20
112.21142568620743
30
1.0832187487987178e-13
 70
     32
  0
VERTEX
  8
MY3DLAYER
10
127.31655986042345
20
112.25931554409456
30
1.0837631045285648e-13
 70
     32
  0
VERTEX
  8
MY3DLAYER
10
127.3296507778857
20
112.30662004144577
30
1.0843347457350542e-13
 70
     32
  0
VERTEX
  8
MY3DLAYER
10
127.34504704843484
20
112.35322521758349
30
1.0849322952844563e-13
 70
     32
  0
VERTEX
  8
MY3DLAYER
10
127.36271158110657
20
112.39901879655636
30
1.0855543136275639e-13
 70
     32
  0
VERTEX
  8
MY3DLAYER
10
127.38260182049437
20
112.44389045762155
30
1.0861993022677066e-13
 70
     32
  0
VERTEX
  8
MY3DLAYER
10
127.40466984926955
20
112.48773210101727
30
1.0868657073707578e-13
 70
     32
  0
VERTEX
  8
MY3DLAYER
10
127.42886250361757
20
112.53043810838449
30
1.0875519235084501e-13
 70
     32
  0
VERTEX
  8
MY3DLAYER
10
127.45512150131542
20
112.57190559721087
30
1.0882562975260047e-13
 70
     32
  0
VERTEX
  8
MY3DLAYER
10
127.48338358213732
20
112.61203466868372
30
1.0889771325247185e-13
 70
     32
  0
VERTEX
  8
MY3DLAYER
10
127.51358066025519
20
112.65072864835493
30
1.0897126919499393e-13
 70
     32
  0
VERTEX
  8
MY3DLAYER
10
127.54563998826293
20
112.68789431903828
30
1.0904612037745888e-13
 70
     32
  0
VERTEX
  8
MY3DLAYER
10
127.5794843324314
20
112.72344214537783
30
1.0912208647681145e-13
 70
     32
  0
VERTEX
  8
MY3DLAYER
10
128.99369789480443
20
114.1376557077509
30
1.1270353033498912e-13
 70
     32
  0
VERTEX
  8
MY3DLAYER
10
129.02924572114404
20
114.17150005191928
30
1.127802412079796e-13
 70
     32
  0
VERTEX
  8
MY3DLAYER
10
129.06641139182742
20
114.20355937992706
30
1.1285732491713249e-13
 70
     32
  0
VERTEX
  8
MY3DLAYER
10
129.10510537149858
20
114.23375645804498
30
1.1293459576104095e-13
 70
     32
  0
VERTEX
  8
MY3DLAYER
10
129.14523444297134
20
114.26201853886688
30
1.1301186758747406e-13
 70
     32
  0
VERTEX
  8
MY3DLAYER
10
129.18670193179776
20
114.2882775365646
30
1.1308895424183343e-13
 70
     32
  0
VERTEX
  8
MY3DLAYER
10
129.22940793916507
20
114.3124701909127
30
1.13165670015617e-13
 70
     32
  0
VERTEX
  8
MY3DLAYER
10
129.2732495825607
20
114.33453821968779
30
1.1324183009380599e-13
 70
     32
  0
VERTEX
  8
MY3DLAYER
10
129.318121243626
20
114.35442845907565
30
1.13317251000101e-13
 70
     32
  0
VERTEX
  8
MY3DLAYER
10
129.36391482259887
20
114.37209299174738
30
1.133917510389333e-13
 70
     32
  0
VERTEX
  8
MY3DLAYER
10
129.4105199987366
20
114.38748926229655
30
1.1346515073318345e-13
 70
     32
  0
VERTEX
  8
MY3DLAYER
10
129.45782449608774
20
114.40058017975889
30
1.1353727325655916e-13
 70
     32
  0
VERTEX
  8
MY3DLAYER
10
129.5057143539748
20
114.41133420696758
30
1.1360794485958415e-13
 70
     32
  0
VERTEX
  8
MY3DLAYER
10
129.55407420153566
20
114.4197254365291
30
1.1367699528817673e-13
 70
     32
  0
VERTEX
  8
MY3DLAYER
10
129.60278753566146
20
114.4257336532365
30
1.137442581938068e-13
 70
     32
  0
VERTEX
  8
MY3DLAYER
10
129.6517370016636
20
114.42934438276947
30
1.1380957153424216e-13
 70
     32
  0
VERTEX
  8
MY3DLAYER
10
129.700804675991
20
114.4305489265643
30
1.1387277796392628e-13
 70
     32
  0
VERTEX
  8
MY3DLAYER
10
129.7498723503184
20
114.42934438276947
30
1.1393372521303246e-13
 70
     32
  0
VERTEX
  8
MY3DLAYER
10
129.79882181632055
20
114.4257336532365
30
1.1399226645430026e-13
 70
     32
  0
VERTEX
  8
MY3DLAYER
10
129.84753515044636
20
114.4197254365291
30
1.1404826065675093e-13
 70
     32
  0
VERTEX
  8
MY3DLAYER
10
129.895894998007
20
114.41133420696758
30
1.1410157292544735e-13
 70
     32
  0
VERTEX
  8
MY3DLAYER
10
129.94378485589428
20
114.40058017975889
30
1.141520748264639e-13
 70
     32
  0
VERTEX
  8
MY3DLAYER
10
129.99108935324546
20
114.38748926229655
30
1.1419964469629753e-13
 70
     32
  0
VERTEX
  8
MY3DLAYER
10
130.03769452938317
20
114.37209299174738
30
1.1424416793496568e-13
 70
     32
  0
SEQEND
  0
POLYLINE
 8
Layer0
 66
     1
70
    8
 10
0.0
 20
 0.0
 30
0.0
  0
VERTEX
  8
MY3DLAYER
10
58.85229343426108
20
41.85498661154544
30
8.214768488563431e-15
 70
     32
  0
VERTEX
  8
MY3DLAYER
10
58.86304746146972
20
41.807096753658314
30
8.190292238218355e-15
 70
     32
  0
VERTEX
  8
MY3DLAYER
10
58.87143869103128
20
41.75873690609757
30
8.161165521544946e-15
 70
     32
  0
VERTEX
  8
MY3DLAYER
10
58.87744690773872
20
41.71002357197173
30
8.127458507354286e-15
 70
     32
  0
VERTEX
  8
MY3DLAYER
10
58.881057637271695
20
41.661074105969575
30
8.089252398796516e-15
 70
     32
  0
VERTEX
  8
MY3DLAYER
10
58.88226218106647
20
41.61200643164219
30
8.046639237733174e-15
 70
     32
  0
VERTEX
  8
MY3DLAYER
10
58.881057637271695
20
41.56293875731474
30
7.999721683002208e-15
 70
     32
  0
VERTEX
  8
MY3DLAYER
10
58.87744690773864
20
41.513989291312605
30
7.948612763102062e-15
 70
     32
  0
VERTEX
  8
MY3DLAYER
10
58.87143869103128
20
41.46527595718681
30
7.893435603897708e-15
 70
     32
  0
VERTEX
  8
MY3DLAYER
10
58.86304746146972
20
41.41691610962607
30
7.834323131998323e-15
 70
     32
  0
VERTEX
  8
MY3DLAYER
10
58.852293434260986
20
41.369026251738916
30
7.771417754526484e-15
 70
     32
  0
VERTEX
  8
MY3DLAYER
10
58.83920251679865
20
41.32172175438771
30
7.704871016046395e-15
 70
     32
  0
VERTEX
  8
MY3DLAYER
10
58.82380624624952
20
41.27511657824995
30
7.63484323348003e-15
 70
     32
  0
VERTEX
  8
MY3DLAYER
10
58.80614171357778
20
41.229322999277116
30
7.561503109888818e-15
 70
     32
  0
VERTEX
  8
MY3DLAYER
10
58.78625147418988
20
41.18445133821193
30
7.485027328054605e-15
 70
     32
  0
VERTEX
  8
MY3DLAYER
10
58.764183445414794
20
41.140609694816206
30
7.405600124834632e-15
 70
     32
  0
VERTEX
  8
MY3DLAYER
10
58.73999079106679
20
41.09790368744897
30
7.323412847317914e-15
 70
     32
  0
VERTEX
  8
MY3DLAYER
10
58.71373179336902
20
41.05643619862261
30
7.238663491855037e-15
 70
     32
  0
VERTEX
  8
MY3DLAYER
10
58.68546971254712
20
41.01630712714978
30
7.151556227066471e-15
 70
     32
  0
VERTEX
  8
MY3DLAYER
10
58.655272634429245
20
40.97761314747857
30
7.062300901982924e-15
 70
     32
  0
VERTEX
  8
MY3DLAYER
10
58.62321330642141
20
40.94044747679521
30
6.9711125404998745e-15
 70
     32
  0
VERTEX
  8
MY3DLAYER
10
58.589368962253026
20
40.90489965045567
30
6.878210823367771e-15
 70
     32
  0
VERTEX
  8
MY3DLAYER
10
57.17515539987993
20
39.49068608808257
30
2.905819855969646e-15
 70
     32
  0
VERTEX
  8
MY3DLAYER
10
57.13960757354041
20
39.45684174391416
30
2.81124145729926e-15
 70
     32
  0
VERTEX
  8
MY3DLAYER
10
57.102441902857024
20
39.42478241590639
30
2.715027090473858e-15
 70
     32
  0
VERTEX
  8
MY3DLAYER
10
57.06374792318586
20
39.39458533778848
30
2.6174085443308964e-15
 70
     32
  0
VERTEX
  8
MY3DLAYER
10
57.023618851713
20
39.366323256966574
30
2.518620990498046e-15
 70
     32
  0
VERTEX
  8
MY3DLAYER
10
56.98215136288658
20
39.34006425926885
30
2.4189024168452848e-15
 70
     32
  0
VERTEX
  8
MY3DLAYER
10
56.93944535551936
20
39.31587160492077
30
2.3184930541514746e-15
 70
     32
  0
VERTEX
  8
MY3DLAYER
10
56.895603712123645
20
39.29380357614569
30
2.2176347973654208e-15
 70
     32
  0
VERTEX
  8
MY3DLAYER
10
56.85073205105845
20
39.27391333675786
30
2.1165706228620803e-15
 70
     32
  0
VERTEX
  8
MY3DLAYER
10
56.804938472085574
20
39.25624880408612
30
2.01554400309027e-15
 70
     32
  0
VERTEX
  8
MY3DLAYER
10
56.75833329594786
20
39.240852533536945
30
1.9147983200258366e-15
 70
     32
  0
VERTEX
  8
MY3DLAYER
10
56.71102879859661
20
39.22776161607461
30
1.814576278842998e-15
 70
     32
  0
VERTEX
  8
MY3DLAYER
10
56.66313894070952
20
39.21700758886592
30
1.715119323218142e-15
 70
     32
  0
VERTEX
  8
MY3DLAYER
10
56.614779093148776
20
39.20861635930436
30
1.616667053668515e-15
 70
     32
  0
VERTEX
  8
MY3DLAYER
10
56.56606575902297
20
39.20260814259696
30
1.519456650334499e-15
 70
     32
  0
VERTEX
  8
MY3DLAYER
10
56.51711629302083
20
39.198997413063985
30
1.4237223015928289e-15
 70
     32
  0
VERTEX
  8
MY3DLAYER
10
56.46804861869342
20
39.197792869269165
30
1.329694639874821e-15
 70
     32
  0
VERTEX
  8
MY3DLAYER
10
56.41898094436602
20
39.198997413063985
30
1.2376001860530926e-15
 70
     32
  0
VERTEX
  8
MY3DLAYER
10
56.37003147836379
20
39.20260814259696
30
1.147660803733806e-15
 70
     32
  0
VERTEX
  8
MY3DLAYER
10
56.32131814423807
20
39.20861635930436
30
1.0600931647667834e-15
 70
     32
  0
VERTEX
  8
MY3DLAYER
10
56.27295829667723
20
39.21700758886592
30
9.751082272640431e-16
 70
     32
  0
VERTEX
  8
MY3DLAYER
10
56.225068438790146
20
39.22776161607461
30
8.929107273838004e-16
 70
     32
  0
VERTEX
  8
MY3DLAYER
10
56.1777639414389
20
39.240852533536945
30
8.136986861031548e-16
 70
     32
  0
VERTEX
  8
MY3DLAYER
10
56.13115876530118
20
39.25624880408614
30
7.376629321677458e-16
 70
     32
  0
VERTEX
  8
MY3DLAYER
10
56.0853651863283
20
39.27391333675788
30
6.649866423683399e-16
 70
     32
  0
VERTEX
  8
MY3DLAYER
10
56.040493525263116
20
39.29380357614571
30
5.95844900253284e-16
 70
     32
  0
VERTEX
  8
MY3DLAYER
10
55.99665188186739
20
39.3158716049208
30
5.304042743349405e-16
 70
     32
  0
VERTEX
  8
MY3DLAYER
10
55.95394587450018
20
39.3400642592689
30
4.688224168134376e-16
 70
     32
  0
VERTEX
  8
MY3DLAYER
10
55.91247838567384
20
39.366323256966616
30
4.1124768377727097e-16
 70
     32
  0
VERTEX
  8
MY3DLAYER
10
55.87234931420099
20
39.39458533778852
30
3.5781877780117727e-16
 70
     32
  0
VERTEX
  8
MY3DLAYER
10
55.83365533452974
20
39.42478241590644
30
3.086644137998306e-16
 70
     32
  0
VERTEX
  8
MY3DLAYER
10
55.79648966384644
20
39.456841743914204
30
2.6390300894140656e-16
 70
     32
  0
VERTEX
  8
MY3DLAYER
10
55.76094183750683
20
39.49068608808261
30
2.2364239737040227e-16
 70
     32
  0
VERTEX
  8
MY3DLAYER
10
55.72709749333844
20
39.52623391442213
30
1.879795704272229e-16
 70
     32
  0
VERTEX
  8
MY3DLAYER
10
55.6950381653307
20
39.56339958510552
30
1.5700044298536403e-16
 70
     32
  0
VERTEX
  8
MY3DLAYER
10
55.66484108721283
20
39.60209356477673
30
1.3077964647604355e-16
 70
     32
  0
VERTEX
  8
MY3DLAYER
10
55.636579006390924
20
39.642222636249585
30
1.0938034909511851e-16
 70
     32
  0
VERTEX
  8
MY3DLAYER
10
55.61032000869316
20
39.68369012507596
30
9.285410362396594e-17
 70
     32
  0
VERTEX
  8
MY3DLAYER
10
55.58612735434506
20
39.72639613244318
30
8.124072323557384e-17
 70
     32
  0
VERTEX
  8
MY3DLAYER
10
55.56405932556998
20
39.77023777583889
30
7.456818558062797e-17
 70
     32
  0
VERTEX
  8
MY3DLAYER
10
55.544169086182166
20
39.81510943690409
30
7.285256538682595e-17
 70
     32
  0
VERTEX
  8
MY3DLAYER
10
55.52650455351043
20
39.860903015876964
30
7.609799573331803e-17
 70
     32
  0
VERTEX
  8
MY3DLAYER
10
55.51110828296121
20
39.90750819201468
30
8.429665809404805e-17
 70
     32
  0
VERTEX
  8
MY3DLAYER
10
55.49801736549887
20
39.95481268936589
30
9.742880117339788e-17
 70
     32
  0
VERTEX
  8
MY3DLAYER
10
55.48726333829023
20
40.002702547253016
30
1.1546278848877147e-16
 70
     32
  0
VERTEX
  8
MY3DLAYER
10
55.478872108728666
20
40.051062394813805
30
1.383551745845446e-16
 70
     32
  0
VERTEX
  8
MY3DLAYER
10
55.47286389202122
20
40.09977572893962
30
1.6605080969768812e-16
 70
     32
  0
VERTEX
  8
MY3DLAYER
10
55.46925316248825
20
40.148725194941754
30
1.9848297261778835e-16
 70
     32
  0
VERTEX
  8
MY3DLAYER
10
55.46804861869347
20
40.19779286926916
30
2.355735314231163e-16
 70
     32
  0
VERTEX
  8
MY3DLAYER
10
55.46925316248825
20
40.24686054359656
30
2.7723313170883483e-16
 70
     32
  0
VERTEX
  8
MY3DLAYER
10
55.47286389202122
20
40.2958100095987
30
3.2336141184905657e-16
 70
     32
  0
VERTEX
  8
MY3DLAYER
10
55.478872108728666
20
40.34452334372452
30
3.7384724477675764e-16
 70
     32
  0
VERTEX
  8
MY3DLAYER
10
55.48726333829023
20
40.392883191285286
30
4.2856900569790777e-16
 70
     32
  0
VERTEX
  8
MY3DLAYER
10
55.49801736549896
20
40.440773049172414
30
4.873948650978286e-16
 70
     32
  0
VERTEX
  8
MY3DLAYER
10
55.51110828296121
20
40.48807754652362
30
5.50183106328065e-16
 70
     32
  0
VERTEX
  8
MY3DLAYER
10
55.52650455351043
20
40.53468272266136
30
6.167824670166864e-16
 70
     32
  0
VERTEX
  8
MY3DLAYER
10
55.544169086182166
20
40.580476301634235
30
6.870325034699214e-16
 70
     32
  0
VERTEX
  8
MY3DLAYER
10
55.56405932556998
20
40.62534796269943
30
7.607639771967982e-16
 70
     32
  0
VERTEX
  8
MY3DLAYER
10
55.58612735434515
20
40.669189606095145
30
8.377992626192153e-16
 70
     32
  0
VERTEX
  8
MY3DLAYER
10
55.61032000869316
20
40.71189561346236
30
9.179527749865905e-16
 70
     32
  0
VERTEX
  8
MY3DLAYER
10
55.636579006390924
20
40.75336310228874
30
1.001031417467585e-15
 70
     32
  0
VERTEX
  8
MY3DLAYER
10
55.66484108721283
20
40.79349217376157
30
1.0868350463352994e-15
 70
     32
  0
VERTEX
  8
MY3DLAYER
10
55.6950381653307
20
40.83218615343278
30
1.1751569531323609e-15
 70
     32
  0
VERTEX
  8
MY3DLAYER
10
55.72709749333853
20
40.869351824116144
30
1.2657843626495848e-15
 70
     32
  0
VERTEX
  8
MY3DLAYER
10
55.76094183750692
20
40.90489965045569
30
1.3584989455187102e-15
 70
     32
  0
VERTEX
  8
MY3DLAYER
10
57.17515539988002
20
42.31911321282876
30
5.64160383421774e-15
 70
     32
  0
VERTEX
  8
MY3DLAYER
10
57.210703226219536
20
42.35295755699715
30
5.735995098625469e-15
 70
     32
  0
VERTEX
  8
MY3DLAYER
10
57.24786889690292
20
42.38501688500494
30
5.831648513484724e-15
 70
     32
  0
VERTEX
  8
MY3DLAYER
10
57.28656287657409
20
42.41521396312285
30
5.928333641341041e-15
 70
     32
  0
VERTEX
  8
MY3DLAYER
10
57.32669194804694
20
42.443476043944756
30
6.0258175592530404e-15
 70
     32
  0
VERTEX
  8
MY3DLAYER
10
57.36815943687336
20
42.46973504164248
30
6.123865419923757e-15
 70
     32
  0
VERTEX
  8
MY3DLAYER
10
57.410865444240585
20
42.49392769599056
30
6.222241017468867e-15
 70
     32
  0
VERTEX
  8
MY3DLAYER
10
57.4547070876363
20
42.51599572476566
30
6.320707356456885e-15
 70
     32
  0
VERTEX
  8
MY3DLAYER
10
57.499578748701495
20
42.53588596415349
30
6.419027222852726e-15
 70
     32
  0
VERTEX
  8
MY3DLAYER
10
57.54537232767437
20
42.55355049682523
30
6.516963755486721e-15
 70
     32
  0
VERTEX
  8
MY3DLAYER
10
57.59197750381209
20
42.56894676737443
30
6.614281016673251e-15
 70
     32
  0
VERTEX
  8
MY3DLAYER
10
57.639282001163245
20
42.58203768483675
30
6.710744560606397e-15
 70
     32
  0
VERTEX
  8
MY3DLAYER
10
57.68717185905042
20
42.59279171204544
30
6.8061219981591756e-15
 70
     32
  0
VERTEX
  8
MY3DLAYER
10
57.73553170661117
20
42.60118294160697
30
6.900183556730727e-15
 70
     32
  0
VERTEX
  8
MY3DLAYER
10
57.78424504073698
20
42.60719115831437
30
6.99270263378793e-15
 70
     32
  0
VERTEX
  8
MY3DLAYER
10
57.83319450673912
20
42.610801887847344
30
7.0834563427695155e-15
 70
     32
  0
VERTEX
  8
MY3DLAYER
10
57.88226218106652
20
42.612006431642165
30
7.172226050042757e-15
 70
     32
  0
VERTEX
  8
MY3DLAYER
10
57.931329855393926
20
42.610801887847344
30
7.258797901606311e-15
 70
     32
  0
VERTEX
  8
MY3DLAYER
10
57.98027932139607
20
42.60719115831437
30
7.342963338287766e-15
 70
     32
  0
VERTEX
  8
MY3DLAYER
10
58.028992655521876
20
42.60118294160697
30
7.424519598177433e-15
 70
     32
  0
VERTEX
  8
MY3DLAYER
10
58.07735250308262
20
42.59279171204544
30
7.503270205102538e-15
 70
     32
  0
VERTEX
  8
MY3DLAYER
10
58.1252423609698
20
42.58203768483675
30
7.579025441952918e-15
 70
     32
  0
VERTEX
  8
MY3DLAYER
10
58.172546858320956
20
42.568946767374406
30
7.651602807727324e-15
 70
     32
  0
VERTEX
  8
MY3DLAYER
10
58.219152034458766
20
42.55355049682523
30
7.720827457195079e-15
 70
     32
  0
VERTEX
  8
MY3DLAYER
10
58.26494561343164
20
42.53588596415349
30
7.786532622111932e-15
 70
     32
  0
VERTEX
  8
MY3DLAYER
10
58.30981727449683
20
42.51599572476564
30
7.848560012980727e-15
 70
     32
  0
VERTEX
  8
MY3DLAYER
10
58.35365891789255
20
42.493927695990536
30
7.906760200383712e-15
 70
     32
  0
VERTEX
  8
MY3DLAYER
10
58.39636492525977
20
42.46973504164246
30
7.960992974971696e-15
 70
     32
  0
VERTEX
  8
MY3DLAYER
10
58.4378324140861
20
42.443476043944734
30
8.011127685240268e-15
 70
     32
  0
VERTEX
  8
MY3DLAYER
10
58.47796148555896
20
42.41521396312283
30
8.057043552281821e-15
 70
     32
  0
VERTEX
  8
MY3DLAYER
10
58.51665546523012
20
42.38501688500494
30
8.098629960750213e-15
 70
     32
  0
VERTEX
  8
MY3DLAYER
10
58.55382113591351
20
42.35295755699715
30
8.135786725345268e-15
 70
     32
  0
VERTEX
  8
MY3DLAYER
10
58.589368962253026
20
42.31911321282872
30
8.168424332166131e-15
 70
     32
  0
VERTEX
  8
MY3DLAYER
10
58.623213306421505
20
42.2835653864892
30
8.196464154359971e-15
 70
     32
  0
VERTEX
  8
MY3DLAYER
10
58.655272634429245
20
42.246399715805815
30
8.21983864153814e-15
 70
     32
  0
VERTEX
  8
MY3DLAYER
10
58.68546971254712
20
42.2077057361346
30
8.238491482514344e-15
 70
     32
  0
VERTEX
  8
MY3DLAYER
10
58.71373179336902
20
42.167576664661794
30
8.25237774096089e-15
 70
     32
  0
VERTEX
  8
MY3DLAYER
10
58.73999079106679
20
42.12610917583537
30
8.261463963664929e-15
 70
     32
  0
VERTEX
  8
MY3DLAYER
10
58.764183445414886
20
42.0834031684682
30
8.265728261119641e-15
 70
     32
  0
VERTEX
  8
MY3DLAYER
10
58.78625147418997
20
42.039561525072436
30
8.265160360259229e-15
 70
     32
  0
VERTEX
  8
MY3DLAYER
10
58.80614171357778
20
41.99468986400726
30
8.259761629206609e-15
 70
     32
  0
VERTEX
  8
MY3DLAYER
10
58.82380624624952
20
41.948896285034415
30
8.249545073977725e-15
 70
     32
  0
VERTEX
  8
MY3DLAYER
10
58.839202516798736
20
41.90229110889665
30
8.23453530714902e-15
 70
     32
  0
VERTEX
  8
MY3DLAYER
10
58.85229343426108
20
41.85498661154544
30
8.214768488563431e-15
 70
     32
  0
SEQEND
  0
POLYLINE
 8
Layer0
 66
     1
70
    8
 10
0.0
 20
 0.0
 30
0.0
  0
VERTEX
  8
MY3DLAYER
10
31.713110177110124
20
47.30311070378904
30
8.912790624075823e-14
 70
     32
  0
VERTEX
  8
MY3DLAYER
10
31.726201094572463
20
47.25580620643785
30
8.910010696901269e-14
 70
     32
  0
VERTEX
  8
MY3DLAYER
10
31.736955121781108
20
47.207916348550704
30
8.906880229821893e-14
 70
     32
  0
VERTEX
  8
MY3DLAYER
10
31.74534635134267
20
47.15955650098996
30
8.90340676440708e-14
 70
     32
  0
VERTEX
  8
MY3DLAYER
10
31.75135456805011
20
47.11084316686414
30
8.89959866853922e-14
 70
     32
  0
VERTEX
  8
MY3DLAYER
10
31.754965297583084
20
47.06189370086201
30
8.895465116254849e-14
 70
     32
  0
VERTEX
  8
MY3DLAYER
10
31.75616984137786
20
47.012826026534604
30
8.89101606564344e-14
 70
     32
  0
VERTEX
  8
MY3DLAYER
10
31.754965297583084
20
46.96375835220717
30
8.886262234857642e-14
 70
     32
  0
VERTEX
  8
MY3DLAYER
10
31.751354568050022
20
46.91480888620504
30
8.881215076292169e-14
 70
     32
  0
VERTEX
  8
MY3DLAYER
10
31.74534635134267
20
46.866095552079244
30
8.875886748994139e-14
 70
     32
  0
VERTEX
  8
MY3DLAYER
10
31.736955121781108
20
46.81773570451848
30
8.870290089370659e-14
 70
     32
  0
VERTEX
  8
MY3DLAYER
10
31.72620109457237
20
46.76984584663135
30
8.864438580265013e-14
 70
     32
  0
VERTEX
  8
MY3DLAYER
10
31.713110177110035
20
46.72254134928014
30
8.858346318475135e-14
 70
     32
  0
VERTEX
  8
MY3DLAYER
10
31.697713906560903
20
46.67593617314238
30
8.852027980793322e-14
 70
     32
  0
VERTEX
  8
MY3DLAYER
10
31.680049373889165
20
46.63014259416955
30
8.845498788648448e-14
 70
     32
  0
VERTEX
  8
MY3DLAYER
10
31.660159134501264
20
46.58527093310436
30
8.838774471436288e-14
 70
     32
  0
VERTEX
  8
MY3DLAYER
10
31.63809110572618
20
46.54142928970862
30
8.83187122862602e-14
 70
     32
  0
VERTEX
  8
MY3DLAYER
10
31.613898451378173
20
46.49872328234137
30
8.82480569073418e-14
 70
     32
  0
VERTEX
  8
MY3DLAYER
10
31.587639453680403
20
46.45725579351502
30
8.81759487926043e-14
 70
     32
  0
VERTEX
  8
MY3DLAYER
10
31.559377372858503
20
46.417126722042184
30
8.810256165681223e-14
 70
     32
  0
VERTEX
  8
MY3DLAYER
10
31.52918029474063
20
46.378432742370975
30
8.80280722960035e-14
 70
     32
  0
VERTEX
  8
MY3DLAYER
10
31.497120966732798
20
46.34126707168763
30
8.795266016157255e-14
 70
     32
  0
VERTEX
  8
MY3DLAYER
10
31.46327662256441
20
46.30571924534807
30
8.787650692795701e-14
 70
     32
  0
VERTEX
  8
MY3DLAYER
10
30.049063060191312
20
44.891505682975
30
8.460577699108016e-14
 70
     32
  0
VERTEX
  8
MY3DLAYER
10
30.013515233851795
20
44.85766133880662
30
8.452887898382688e-14
 70
     32
  0
VERTEX
  8
MY3DLAYER
10
29.976349563168405
20
44.82560201079883
30
8.4451234322708e-14
 70
     32
  0
VERTEX
  8
MY3DLAYER
10
29.937655583497243
20
44.79540493268091
30
8.437303006051288e-14
 70
     32
  0
VERTEX
  8
MY3DLAYER
10
29.89752651202439
20
44.76714285185902
30
8.429445459815894e-14
 70
     32
  0
VERTEX
  8
MY3DLAYER
10
29.856059023197965
20
44.74088385416128
30
8.421569723081768e-14
 70
     32
  0
VERTEX
  8
MY3DLAYER
10
29.81335301583075
20
44.716691199813226
30
8.413694769188523e-14
 70
     32
  0
VERTEX
  8
MY3DLAYER
10
29.76951137243503
20
44.69462317103813
30
8.40583956958982e-14
 70
     32
  0
VERTEX
  8
MY3DLAYER
10
29.72463971136984
20
44.674732931650276
30
8.398023048149588e-14
 70
     32
  0
VERTEX
  8
MY3DLAYER
10
29.678846132396963
20
44.65706839897854
30
8.390264035552576e-14
 70
     32
  0
VERTEX
  8
MY3DLAYER
10
29.632240956259245
20
44.64167212842936
30
8.382581223939754e-14
 70
     32
  0
VERTEX
  8
MY3DLAYER
10
29.584936458907993
20
44.62858121096702
30
8.374993121877215e-14
 70
     32
  0
VERTEX
  8
MY3DLAYER
10
29.537046601020908
20
44.61782718375833
30
8.367518009767522e-14
 70
     32
  0
VERTEX
  8
MY3DLAYER
10
29.488686753460165
20
44.60943595419679
30
8.360173895810442e-14
 70
     32
  0
VERTEX
  8
MY3DLAYER
10
29.43997341933435
20
44.603427737489376
30
8.352978472619753e-14
 70
     32
  0
VERTEX
  8
MY3DLAYER
10
29.391023953332212
20
44.5998170079564
30
8.345949074600208e-14
 70
     32
  0
VERTEX
  8
MY3DLAYER
10
29.34195627900481
20
44.598612464161576
30
8.339102636187321e-14
 70
     32
  0
VERTEX
  8
MY3DLAYER
10
29.292888604677405
20
44.5998170079564
30
8.3324556510509e-14
 70
     32
  0
VERTEX
  8
MY3DLAYER
10
29.243939138675177
20
44.603427737489376
30
8.326024132360338e-14
 70
     32
  0
VERTEX
  8
MY3DLAYER
10
29.19522580454945
20
44.60943595419679
30
8.319823574207519e-14
 70
     32
  0
VERTEX
  8
MY3DLAYER
10
29.14686595698862
20
44.61782718375836
30
8.313868914280114e-14
 70
     32
  0
VERTEX
  8
MY3DLAYER
10
29.098976099101534
20
44.62858121096704
30
8.308174497875488e-14
 70
     32
  0
VERTEX
  8
MY3DLAYER
10
29.051671601750282
20
44.64167212842936
30
8.302754043341501e-14
 70
     32
  0
VERTEX
  8
MY3DLAYER
10
29.005066425612565
20
44.65706839897858
30
8.297620609027919e-14
 70
     32
  0
VERTEX
  8
MY3DLAYER
10
28.95927284663969
20
44.67473293165032
30
8.292786561827605e-14
 70
     32
  0
VERTEX
  8
MY3DLAYER
10
28.914401185574498
20
44.69462317103813
30
8.288263547383727e-14
 70
     32
  0
VERTEX
  8
MY3DLAYER
10
28.87055954217878
20
44.71669119981325
30
8.284062462034212e-14
 70
     32
  0
VERTEX
  8
MY3DLAYER
10
28.827853534811563
20
44.740883854161325
30
8.28019342656166e-14
 70
     32
  0
VERTEX
  8
MY3DLAYER
10
28.78638604598523
20
44.76714285185905
30
8.276665761811394e-14
 70
     32
  0
VERTEX
  8
MY3DLAYER
10
28.746256974512377
20
44.79540493268096
30
8.273487966236805e-14
 70
     32
  0
VERTEX
  8
MY3DLAYER
10
28.707562994841123
20
44.825602010798875
30
8.270667695425756e-14
 70
     32
  0
VERTEX
  8
MY3DLAYER
10
28.670397324157825
20
44.857661338806665
30
8.268211743657673e-14
 70
     32
  0
VERTEX
  8
MY3DLAYER
10
28.634849497818216
20
44.89150568297505
30
8.266126027535466e-14
 70
     32
  0
VERTEX
  8
MY3DLAYER
10
28.60100515364983
20
44.92705350931459
30
8.264415571731971e-14
 70
     32
  0
VERTEX
  8
MY3DLAYER
10
28.568945825642086
20
44.964219179997954
30
8.263084496885032e-14
 70
     32
  0
VERTEX
  8
MY3DLAYER
10
28.538748747524213
20
45.002913159669184
30
8.262136009670556e-14
 70
     32
  0
VERTEX
  8
MY3DLAYER
10
28.510486666702313
20
45.04304223114202
30
8.261572395077286e-14
 70
     32
  0
VERTEX
  8
MY3DLAYER
10
28.484227669004547
20
45.08450971996839
30
8.261395010902179e-14
 70
     32
  0
VERTEX
  8
MY3DLAYER
10
28.460035014656444
20
45.127215727335596
30
8.261604284479235e-14
 70
     32
  0
VERTEX
  8
MY3DLAYER
10
28.43796698588136
20
45.17105737073132
30
8.262199711650095e-14
 70
     32
  0
VERTEX
  8
MY3DLAYER
10
28.418076746493554
20
45.215929031796506
30
8.263179857978521e-14
 70
     32
  0
VERTEX
  8
MY3DLAYER
10
28.400412213821816
20
45.26172261076938
30
8.264542362206182e-14
 70
     32
  0
VERTEX
  8
MY3DLAYER
10
28.38501594327259
20
45.30832778690712
30
8.266283941941038e-14
 70
     32
  0
VERTEX
  8
MY3DLAYER
10
28.371925025810256
20
45.35563228425831
30
8.268400401564968e-14
 70
     32
  0
VERTEX
  8
MY3DLAYER
10
28.361170998601608
20
45.40352214214544
30
8.270886642341374e-14
 70
     32
  0
VERTEX
  8
MY3DLAYER
10
28.352779769040048
20
45.45188198970621
30
8.273736674698407e-14
 70
     32
  0
VERTEX
  8
MY3DLAYER
10
28.346771552332605
20
45.500595323832016
30
8.276943632658532e-14
 70
     32
  0
VERTEX
  8
MY3DLAYER
10
28.343160822799632
20
45.549544789834165
30
8.280499790379136e-14
 70
     32
  0
VERTEX
  8
MY3DLAYER
10
28.341956279004854
20
45.59861246416157
30
8.284396580764727e-14
 70
     32
  0
VERTEX
  8
MY3DLAYER
10
28.343160822799632
20
45.647680138488994
30
8.288624616106016e-14
 70
     32
  0
VERTEX
  8
MY3DLAYER
10
28.346771552332605
20
45.69662960449111
30
8.293173710695481e-14
 70
     32
  0
VERTEX
  8
MY3DLAYER
10
28.352779769040048
20
45.74534293861692
30
8.298032905365846e-14
 70
     32
  0
VERTEX
  8
MY3DLAYER
10
28.361170998601608
20
45.79370278617769
30
8.303190493891519e-14
 70
     32
  0
VERTEX
  8
MY3DLAYER
10
28.371925025810345
20
45.84159264406481
30
8.308634051189972e-14
 70
     32
  0
VERTEX
  8
MY3DLAYER
10
28.38501594327259
20
45.88889714141602
30
8.314350463254881e-14
 70
     32
  0
VERTEX
  8
MY3DLAYER
10
28.400412213821816
20
45.935502317553755
30
8.320325958748888e-14
 70
     32
  0
VERTEX
  8
MY3DLAYER
10
28.418076746493554
20
45.98129589652664
30
8.326546142179963e-14
 70
     32
  0
VERTEX
  8
MY3DLAYER
10
28.43796698588136
20
46.026167557591826
30
8.33299602858139e-14
 70
     32
  0
VERTEX
  8
MY3DLAYER
10
28.460035014656537
20
46.07000920098757
30
8.339660079611903e-14
 70
     32
  0
VERTEX
  8
MY3DLAYER
10
28.484227669004547
20
46.112715208354764
30
8.346522240988825e-14
 70
     32
  0
VERTEX
  8
MY3DLAYER
10
28.510486666702313
20
46.15418269718114
30
8.353565981164371e-14
 70
     32
  0
VERTEX
  8
MY3DLAYER
10
28.538748747524213
20
46.194311768653996
30
8.360774331151509e-14
 70
     32
  0
VERTEX
  8
MY3DLAYER
10
28.568945825642086
20
46.233005748325205
30
8.368129925403733e-14
 70
     32
  0
VERTEX
  8
MY3DLAYER
10
28.60100515364992
20
46.27017141900855
30
8.375615043650212e-14
 70
     32
  0
VERTEX
  8
MY3DLAYER
10
28.634849497818305
20
46.305719245348115
30
8.383211653585485e-14
 70
     32
  0
VERTEX
  8
MY3DLAYER
10
30.049063060191404
20
47.71993280772113
30
8.741356039403261e-14
 70
     32
  0
VERTEX
  8
MY3DLAYER
10
30.08461088653092
20
47.75377715188954
30
8.749027126702308e-14
 70
     32
  0
VERTEX
  8
MY3DLAYER
10
30.12177655721431
20
47.78583647989733
30
8.756735497617597e-14
 70
     32
  0
VERTEX
  8
MY3DLAYER
10
30.160470536885473
20
47.81603355801522
30
8.764462582008444e-14
 70
     32
  0
VERTEX
  8
MY3DLAYER
10
30.200599608358328
20
47.844295638837124
30
8.772189764651753e-14
 70
     32
  0
VERTEX
  8
MY3DLAYER
10
30.24206709718475
20
47.87055463653484
30
8.779898430087691e-14
 70
     32
  0
VERTEX
  8
MY3DLAYER
10
30.284773104551967
20
47.89474729088292
30
8.787570007466049e-14
 70
     32
  0
VERTEX
  8
MY3DLAYER
10
30.32861474794769
20
47.91681531965803
30
8.795186015284947e-14
 70
     32
  0
VERTEX
  8
MY3DLAYER
10
30.37348640901288
20
47.936705559045855
30
8.802728105914447e-14
 70
     32
  0
VERTEX
  8
MY3DLAYER
10
30.419279987985753
20
47.95437009171759
30
8.810178109797678e-14
 70
     32
  0
VERTEX
  8
MY3DLAYER
10
30.46588516412347
20
47.969766362266796
30
8.817518079222694e-14
 70
     32
  0
VERTEX
  8
MY3DLAYER
10
30.513189661474634
20
47.98285727972911
30
8.824730331560264e-14
 70
     32
  0
VERTEX
  8
MY3DLAYER
10
30.561079519361808
20
47.9936113069378
30
8.831797491862764e-14
 70
     32
  0
VERTEX
  8
MY3DLAYER
10
30.60943936692255
20
48.00200253649934
30
8.838702534722052e-14
 70
     32
  0
VERTEX
  8
MY3DLAYER
10
30.658152701048365
20
48.00801075320676
30
8.845428825285012e-14
 70
     32
  0
VERTEX
  8
MY3DLAYER
10
30.707102167050504
20
48.011621482739734
30
8.851960159328597e-14
 70
     32
  0
VERTEX
  8
MY3DLAYER
10
30.756169841377908
20
48.012826026534555
30
8.858280802296976e-14
 70
     32
  0
VERTEX
  8
MY3DLAYER
10
30.80523751570531
20
48.011621482739734
30
8.864375527207593e-14
 70
     32
  0
VERTEX
  8
MY3DLAYER
10
30.85418698170745
20
48.00801075320676
30
8.870229651334373e-14
 70
     32
  0
VERTEX
  8
MY3DLAYER
10
30.902900315833264
20
48.00200253649934
30
8.875829071579474e-14
 70
     32
  0
VERTEX
  8
MY3DLAYER
10
30.951260163394007
20
47.9936113069378
30
8.881160298449083e-14
 70
     32
  0
VERTEX
  8
MY3DLAYER
10
30.99915002128118
20
47.98285727972911
30
8.886210488550738e-14
 70
     32
  0
VERTEX
  8
MY3DLAYER
10
31.046454518632345
20
47.969766362266775
30
8.890967475534116e-14
 70
     32
  0
VERTEX
  8
MY3DLAYER
10
31.09305969477015
20
47.95437009171759
30
8.895419799400918e-14
 70
     32
  0
VERTEX
  8
MY3DLAYER
10
31.138853273743027
20
47.936705559045855
30
8.89955673411296e-14
 70
     32
  0
VERTEX
  8
MY3DLAYER
10
31.183724934808218
20
47.916815319658006
30
8.903368313432212e-14
 70
     32
  0
VERTEX
  8
MY3DLAYER
10
31.227566578203938
20
47.8947472908829
30
8.906845354930176e-14
 70
     32
  0
VERTEX
  8
MY3DLAYER
10
31.270272585571153
20
47.87055463653482
30
8.909979482109392e-14
 70
     32
  0
VERTEX
  8
MY3DLAYER
10
31.311740074397488
20
47.844295638837096
30
8.912763144582898e-14
 70
     32
  0
VERTEX
  8
MY3DLAYER
10
31.351869145870342
20
47.8160335580152
30
8.91518963626405e-14
 70
     32
  0
VERTEX
  8
MY3DLAYER
10
31.390563125541505
20
47.7858364798973
30
8.917253111521787e-14
 70
     32
  0
VERTEX
  8
MY3DLAYER
10
31.427728796224894
20
47.753777151889516
30
8.918948599263533e-14
 70
     32
  0
VERTEX
  8
MY3DLAYER
10
31.46327662256441
20
47.71993280772111
30
8.920272014910758e-14
 70
     32
  0
VERTEX
  8
MY3DLAYER
10
31.497120966732886
20
47.68438498138156
30
8.921220170239302e-14
 70
     32
  0
VERTEX
  8
MY3DLAYER
10
31.52918029474063
20
47.6472193106982
30
8.921790781059888e-14
 70
     32
  0
VERTEX
  8
MY3DLAYER
10
31.559377372858503
20
47.60852533102697
30
8.921982472721053e-14
 70
     32
  0
VERTEX
  8
MY3DLAYER
10
31.587639453680403
20
47.568396259554156
30
8.921794783420852e-14
 70
     32
  0
VERTEX
  8
MY3DLAYER
10
31.613898451378173
20
47.52692877072776
30
8.921228165319233e-14
 70
     32
  0
VERTEX
  8
MY3DLAYER
10
31.63809110572627
20
47.48422276336056
30
8.920283983448824e-14
 70
     32
  0
VERTEX
  8
MY3DLAYER
10
31.660159134501356
20
47.44038111996485
30
8.918964512426462e-14
 70
     32
  0
VERTEX
  8
MY3DLAYER
10
31.680049373889165
20
47.39550945889965
30
8.917272930973344e-14
 70
     32
  0
VERTEX
  8
MY3DLAYER
10
31.697713906560903
20
47.3497158799268
30
8.915213314257445e-14
 70
     32
  0
VERTEX
  8
MY3DLAYER
10
31.713110177110124
20
47.30311070378904
30
8.912790624075823e-14
 70
     32
  0
SEQEND
  0
POLYLINE
 8
Layer0
 66
     1
70
    8
 10
0.0
 20
 0.0
 30
0.0
  0
VERTEX
  8
MY3DLAYER
10
45.86087845785881
20
130.74516364698067
30
-1.6454673082819575e-14
 70
     32
  0
VERTEX
  8
MY3DLAYER
10
45.905750118924004
20
130.725273407593
30
-1.6531148864653792e-14
 70
     32
  0
VERTEX
  8
MY3DLAYER
10
45.949591762319635
20
130.70320537881804
30
-1.6610576067873764e-14
 70
     32
  0
VERTEX
  8
MY3DLAYER
10
45.99229776968703
20
130.67901272447003
30
-1.669276334539048e-14
 70
     32
  0
VERTEX
  8
MY3DLAYER
10
46.03376525851327
20
130.6527537267718
30
-1.677751270085336e-14
 70
     32
  0
VERTEX
  8
MY3DLAYER
10
46.073894329985855
20
130.62449164594997
30
-1.6864619965641925e-14
 70
     32
  0
VERTEX
  8
MY3DLAYER
10
46.11258830965702
20
130.59429456783235
30
-1.6953875290725472e-14
 70
     32
  0
VERTEX
  8
MY3DLAYER
10
46.149753980340584
20
130.56223523982453
30
-1.704506365220852e-14
 70
     32
  0
VERTEX
  8
MY3DLAYER
10
46.18530180667984
20
130.52839089565592
30
-1.7137965369340625e-14
 70
     32
  0
VERTEX
  8
MY3DLAYER
10
47.599515369052845
20
129.1141773332829
30
-2.111035633673819e-14
 70
     32
  0
VERTEX
  8
MY3DLAYER
10
47.6333597132215
20
129.07862950694357
30
-2.1204934735408576e-14
 70
     32
  0
VERTEX
  8
MY3DLAYER
10
47.66541904122924
20
129.04146383626008
30
-2.1301149102233978e-14
 70
     32
  0
VERTEX
  8
MY3DLAYER
10
47.695616119347115
20
129.0027698565889
30
-2.139876764837694e-14
 70
     32
  0
VERTEX
  8
MY3DLAYER
10
47.72387820016902
20
128.96264078511598
30
-2.149755520220979e-14
 70
     32
  0
VERTEX
  8
MY3DLAYER
10
47.75013719786669
20
128.9211732962895
30
-2.1597273775862553e-14
 70
     32
  0
VERTEX
  8
MY3DLAYER
10
47.77432985221479
20
128.87846728892248
30
-2.169768313855636e-14
 70
     32
  0
VERTEX
  8
MY3DLAYER
10
47.79639788098988
20
128.8346256455267
30
-2.1798541395342417e-14
 70
     32
  0
VERTEX
  8
MY3DLAYER
10
47.81628812037778
20
128.78975398446153
30
-2.1899605569845756e-14
 70
     32
  0
VERTEX
  8
MY3DLAYER
10
47.83395265304969
20
128.7439604054885
30
-2.2000632189617566e-14
 70
     32
  0
VERTEX
  8
MY3DLAYER
10
47.849348923598825
20
128.69735522935088
30
-2.2101377872682e-14
 70
     32
  0
VERTEX
  8
MY3DLAYER
10
47.8624398410609
20
128.65005073199964
30
-2.2201599913864838e-14
 70
     32
  0
VERTEX
  8
MY3DLAYER
10
47.87319386826963
20
128.60216087411249
30
-2.2301056869489696e-14
 70
     32
  0
VERTEX
  8
MY3DLAYER
10
47.88158509783146
20
128.55380102655175
30
-2.239950913903932e-14
 70
     32
  0
VERTEX
  8
MY3DLAYER
10
47.88759331453854
20
128.50508769242586
30
-2.2496719542373335e-14
 70
     32
  0
VERTEX
  8
MY3DLAYER
10
47.891204044071785
20
128.45613822642397
30
-2.2592453891115004e-14
 70
     32
  0
VERTEX
  8
MY3DLAYER
10
47.89240858786629
20
128.40707055209603
30
-2.2686481552833014e-14
 70
     32
  0
VERTEX
  8
MY3DLAYER
10
47.8912040440717
20
128.35800287776917
30
-2.2778576006654742e-14
 70
     32
  0
VERTEX
  8
MY3DLAYER
10
47.887593314538634
20
128.30905341176694
30
-2.2868515388974028e-14
 70
     32
  0
VERTEX
  8
MY3DLAYER
10
47.881585097831284
20
128.26034007764105
30
-2.2956083027941052e-14
 70
     32
  0
VERTEX
  8
MY3DLAYER
10
47.87319386827008
20
128.21198023008012
30
-2.3041067965443793e-14
 70
     32
  0
VERTEX
  8
MY3DLAYER
10
47.862439841060805
20
128.16409037219307
30
-2.3123265465324034e-14
 70
     32
  0
VERTEX
  8
MY3DLAYER
10
47.849348923599095
20
128.11678587484187
30
-2.3202477506604678e-14
 70
     32
  0
VERTEX
  8
MY3DLAYER
10
47.83395265304969
20
128.07018069870415
30
-2.3278513260540088e-14
 70
     32
  0
VERTEX
  8
MY3DLAYER
10
47.8162881203776
20
128.0243871197311
30
-2.3351189550339496e-14
 70
     32
  0
VERTEX
  8
MY3DLAYER
10
47.79639788099006
20
127.97951545866636
30
-2.3420331292454552e-14
 70
     32
  0
VERTEX
  8
MY3DLAYER
10
47.77432985221479
20
127.93567381527019
30
-2.3485771918372893e-14
 70
     32
  0
VERTEX
  8
MY3DLAYER
10
47.750137197866515
20
127.89296780790298
30
-2.3547353775894397e-14
 70
     32
  0
VERTEX
  8
MY3DLAYER
10
47.72387820016902
20
127.85150031907682
30
-2.3604928508930563e-14
 70
     32
  0
VERTEX
  8
MY3DLAYER
10
47.69561611934721
20
127.81137124760397
30
-2.3658357414906656e-14
 70
     32
  0
VERTEX
  8
MY3DLAYER
10
47.66541904122897
20
127.77267726793289
30
-2.3707511778908003e-14
 70
     32
  0
VERTEX
  8
MY3DLAYER
10
47.6333597132215
20
127.73551159724941
30
-2.3752273183766427e-14
 70
     32
  0
VERTEX
  8
MY3DLAYER
10
47.59951536905294
20
127.69996377090972
30
-2.379253379533743e-14
 70
     32
  0
VERTEX
  8
MY3DLAYER
10
47.563967542713506
20
127.66611942674133
30
-2.382819662228061e-14
 70
     32
  0
VERTEX
  8
MY3DLAYER
10
47.5268018720303
20
127.63406009873368
30
-2.385917574972247e-14
 70
     32
  0
VERTEX
  8
MY3DLAYER
10
47.488107892359224
20
127.60386302061562
30
-2.388539654623179e-14
 70
     32
  0
VERTEX
  8
MY3DLAYER
10
47.44797882088619
20
127.5756009397939
30
-2.3906795843612717e-14
 70
     32
  0
VERTEX
  8
MY3DLAYER
10
47.40651133205941
20
127.54934194209622
30
-2.3923322089083868e-14
 70
     32
  0
VERTEX
  8
MY3DLAYER
10
47.36380532469264
20
127.52514928774785
30
-2.393493546947226e-14
 70
     32
  0
VERTEX
  8
MY3DLAYER
10
47.31996368129665
20
127.50308125897304
30
-2.3941608007127208e-14
 70
     32
  0
VERTEX
  8
MY3DLAYER
10
47.27509202023137
20
127.48319101958505
30
-2.394332362732101e-14
 70
     32
  0
VERTEX
  8
MY3DLAYER
10
47.22929844125876
20
127.46552648691332
30
-2.3940078196974515e-14
 70
     32
  0
VERTEX
  8
MY3DLAYER
10
47.18269326512114
20
127.450130216364
30
-2.3931879534613785e-14
 70
     32
  0
VERTEX
  8
MY3DLAYER
10
47.13538876777007
20
127.43703929890175
30
-2.3918747391534436e-14
 70
     32
  0
VERTEX
  8
MY3DLAYER
10
47.08749890988289
20
127.4262852716932
30
-2.3900713404219064e-14
 70
     32
  0
VERTEX
  8
MY3DLAYER
10
47.039139062322235
20
127.41789404213155
30
-2.387782101812329e-14
 70
     32
  0
VERTEX
  8
MY3DLAYER
10
46.99042572819588
20
127.41188582542411
30
-2.3850125383010145e-14
 70
     32
  0
VERTEX
  8
MY3DLAYER
10
46.94147626219392
20
127.40827509589096
30
-2.3817693220090045e-14
 70
     32
  0
VERTEX
  8
MY3DLAYER
10
46.89240858786679
20
127.40707055209644
30
-2.378060266128472e-14
 70
     32
  0
VERTEX
  8
MY3DLAYER
10
46.843340913539386
20
127.40827509589123
30
-2.3738943060999e-14
 70
     32
  0
VERTEX
  8
MY3DLAYER
10
46.79439144753716
20
127.41188582542419
30
-2.369281478085878e-14
 70
     32
  0
VERTEX
  8
MY3DLAYER
10
46.745678113411344
20
127.41789404213137
30
-2.3642328947931076e-14
 70
     32
  0
VERTEX
  8
MY3DLAYER
10
46.69731826585042
20
127.4262852716932
30
-2.3587607187009927e-14
 70
     32
  0
VERTEX
  8
MY3DLAYER
10
46.649428407963065
20
127.43703929890167
30
-2.3528781327610006e-14
 70
     32
  0
VERTEX
  8
MY3DLAYER
10
46.60212391061217
20
127.45013021636409
30
-2.346599308637977e-14
 70
     32
  0
VERTEX
  8
MY3DLAYER
10
46.55551873447437
20
127.46552648691332
30
-2.3399393725691147e-14
 70
     32
  0
VERTEX
  8
MY3DLAYER
10
46.50972515550149
20
127.48319101958515
30
-2.3329143689237914e-14
 70
     32
  0
VERTEX
  8
MY3DLAYER
10
46.46485349443648
20
127.50308125897277
30
-2.3255412215511037e-14
 70
     32
  0
VERTEX
  8
MY3DLAYER
10
46.42101185104076
20
127.52514928774804
30
-2.317837693008862e-14
 70
     32
  0
VERTEX
  8
MY3DLAYER
10
46.3783058436731
20
127.54934194209632
30
-2.3098223417721245e-14
 70
     32
  0
VERTEX
  8
MY3DLAYER
10
46.33683835484721
20
127.575600939794
30
-2.301514477524025e-14
 70
     32
  0
VERTEX
  8
MY3DLAYER
10
46.29670928337427
20
127.6038630206158
30
-2.2929341146372534e-14
 70
     32
  0
VERTEX
  8
MY3DLAYER
10
46.258015303702926
20
127.6340600987335
30
-2.2841019239575473e-14
 70
     32
  0
VERTEX
  8
MY3DLAYER
10
46.2208496330198
20
127.66611942674152
30
-2.275039183005825e-14
 70
     32
  0
VERTEX
  8
MY3DLAYER
10
46.18530180668011
20
127.6999637709098
30
-2.2657677247189123e-14
 70
     32
  0
VERTEX
  8
MY3DLAYER
10
44.77108824430692
20
129.1141773332829
30
-1.8374572358490655e-14
 70
     32
  0
VERTEX
  8
MY3DLAYER
10
44.737243900138715
20
129.14972515962242
30
-1.8280181094082926e-14
 70
     32
  0
VERTEX
  8
MY3DLAYER
10
44.70518457213079
20
129.1868908303057
30
-1.8184527679223673e-14
 70
     32
  0
VERTEX
  8
MY3DLAYER
10
44.674987494013095
20
129.22558480997697
30
-1.8087842551367355e-14
 70
     32
  0
VERTEX
  8
MY3DLAYER
10
44.646725413191284
20
129.26571388145007
30
-1.7990358633455354e-14
 70
     32
  0
VERTEX
  8
MY3DLAYER
10
44.62046641549325
20
129.30718137027634
30
-1.7892310772784637e-14
 70
     32
  0
VERTEX
  8
MY3DLAYER
10
44.59627376114515
20
129.3498873776435
30
-1.7793935175239528e-14
 70
     32
  0
VERTEX
  8
MY3DLAYER
10
44.57420573237007
20
129.39372902103938
30
-1.769546883625151e-14
 70
     32
  0
VERTEX
  8
MY3DLAYER
10
44.55431549298235
20
129.43860068210446
30
-1.759714896985567e-14
 70
     32
  0
VERTEX
  8
MY3DLAYER
10
44.536650960310425
20
129.48439426107734
30
-1.7499212437221674e-14
 70
     32
  0
VERTEX
  8
MY3DLAYER
10
44.521254689761385
20
129.53099943721503
30
-1.7401895176035144e-14
 70
     32
  0
VERTEX
  8
MY3DLAYER
10
44.50816377229914
20
129.57830393456595
30
-1.7305431632101997e-14
 70
     32
  0
VERTEX
  8
MY3DLAYER
10
44.49740974509022
20
129.6261937924536
30
-1.721005419454922e-14
 70
     32
  0
VERTEX
  8
MY3DLAYER
10
44.48901851552866
20
129.67455364001415
30
-1.7115992635977667e-14
 70
     32
  0
VERTEX
  8
MY3DLAYER
10
44.4830102988214
20
129.72326697414022
30
-1.7023473558920465e-14
 70
     32
  0
VERTEX
  8
MY3DLAYER
10
44.47939956928852
20
129.77221644014213
30
-1.693271984993888e-14
 70
     32
  0
VERTEX
  8
MY3DLAYER
10
44.47819502549338
20
129.8212841144695
30
-1.684395014266564e-14
 70
     32
  0
VERTEX
  8
MY3DLAYER
10
44.47939956928825
20
129.87035178879694
30
-1.6757378291102086e-14
 70
     32
  0
VERTEX
  8
MY3DLAYER
10
44.483010298821306
20
129.91930125479905
30
-1.667321285442063e-14
 70
     32
  0
VERTEX
  8
MY3DLAYER
10
44.48901851552893
20
129.96801458892477
30
-1.6591656594530963e-14
 70
     32
  0
VERTEX
  8
MY3DLAYER
10
44.49740974509022
20
130.01637443648545
30
-1.6512905987605857e-14
 70
     32
  0
VERTEX
  8
MY3DLAYER
10
44.50816377229896
20
130.06426429437272
30
-1.6437150750755477e-14
 70
     32
  0
VERTEX
  8
MY3DLAYER
10
44.52125468976121
20
130.11156879172404
30
-1.6364573384981072e-14
 70
     32
  0
VERTEX
  8
MY3DLAYER
10
44.53665096031052
20
130.15817396786184
30
-1.6295348735513314e-14
 70
     32
  0
VERTEX
  8
MY3DLAYER
10
44.55431549298235
20
130.20396754683472
30
-1.622964357059646e-14
 70
     32
  0
VERTEX
  8
MY3DLAYER
10
44.574205732370245
20
130.24883920790018
30
-1.6167616179727668e-14
 70
     32
  0
VERTEX
  8
MY3DLAYER
10
44.5962737611456
20
130.2926808512957
30
-1.6109415992324684e-14
 70
     32
  0
VERTEX
  8
MY3DLAYER
10
44.62046641549298
20
130.33538685866256
30
-1.60551832177367e-14
 70
     32
  0
VERTEX
  8
MY3DLAYER
10
44.646725413191106
20
130.37685434748903
30
-1.6005048507468128e-14
 70
     32
  0
VERTEX
  8
MY3DLAYER
10
44.67498749401301
20
130.41698341896208
30
-1.5959132640426576e-14
 70
     32
  0
VERTEX
  8
MY3DLAYER
10
44.7051845721307
20
130.45567739863318
30
-1.591754623195818e-14
 70
     32
  0
VERTEX
  8
MY3DLAYER
10
44.73724390013853
20
130.49284306931668
30
-1.5880389467363127e-14
 70
     32
  0
VERTEX
  8
MY3DLAYER
10
44.77108824430674
20
130.528390895656
30
-1.5847751860542264e-14
 70
     32
  0
VERTEX
  8
MY3DLAYER
10
44.80663607064635
20
130.56223523982447
30
-1.5819712038348425e-14
 70
     32
  0
VERTEX
  8
MY3DLAYER
10
44.843801741330005
20
130.59429456783235
30
-1.5796337551170257e-14
 70
     32
  0
VERTEX
  8
MY3DLAYER
10
44.8824957210009
20
130.62449164595006
30
-1.577768471019405e-14
 70
     32
  0
VERTEX
  8
MY3DLAYER
10
44.92262479247366
20
130.6527537267721
30
-1.5763798451747507e-14
 70
     32
  0
VERTEX
  8
MY3DLAYER
10
44.964092281300715
20
130.67901272446977
30
-1.5754712229043466e-14
 70
     32
  0
VERTEX
  8
MY3DLAYER
10
45.006798288667845
20
130.7032053788178
30
-1.5750447931588752e-14
 70
     32
  0
VERTEX
  8
MY3DLAYER
10
45.05063993206356
20
130.72527340759308
30
-1.5751015832449168e-14
 70
     32
  0
VERTEX
  8
MY3DLAYER
10
45.095511593128485
20
130.74516364698093
30
-1.5756414563501787e-14
 70
     32
  0
VERTEX
  8
MY3DLAYER
10
45.14130517210145
20
130.76282817965262
30
-1.5766631118730672e-14
 70
     32
  0
VERTEX
  8
MY3DLAYER
10
45.187910348239164
20
130.77822445020172
30
-1.5781640885559375e-14
 70
     32
  0
VERTEX
  8
MY3DLAYER
10
45.23521484559033
20
130.79131536766405
30
-1.5801407704144964e-14
 70
     32
  0
VERTEX
  8
MY3DLAYER
10
45.28310470347741
20
130.8020693948728
30
-1.582588395449004e-14
 70
     32
  0
VERTEX
  8
MY3DLAYER
10
45.331464551037975
20
130.81046062443423
30
-1.585501067116345e-14
 70
     32
  0
VERTEX
  8
MY3DLAYER
10
45.38017788516379
20
130.81646884114215
30
-1.588871768535411e-14
 70
     32
  0
VERTEX
  8
MY3DLAYER
10
45.4291273511662
20
130.82007957067458
30
-1.592692379391188e-14
 70
     32
  0
VERTEX
  8
MY3DLAYER
10
45.47819502549351
20
130.8212841144696
30
-1.5969536954975223e-14
 70
     32
  0
VERTEX
  8
MY3DLAYER
10
45.527262699821186
20
130.8200795706748
30
-1.6016454509706187e-14
 70
     32
  0
VERTEX
  8
MY3DLAYER
10
45.576212165823144
20
130.8164688411417
30
-1.6067563429606333e-14
 70
     32
  0
VERTEX
  8
MY3DLAYER
10
45.624925499948866
20
130.81046062443426
30
-1.6122740588810687e-14
 70
     32
  0
VERTEX
  8
MY3DLAYER
10
45.67328534750943
20
130.8020693948727
30
-1.6181853060710074e-14
 70
     32
  0
VERTEX
  8
MY3DLAYER
10
45.72117520539679
20
130.79131536766383
30
-1.6244758438181913e-14
 70
     32
  0
VERTEX
  8
MY3DLAYER
10
45.76847970274786
20
130.77822445020144
30
-1.6311305176662002e-14
 70
     32
  0
VERTEX
  8
MY3DLAYER
10
45.81508487888566
20
130.7628281796526
30
-1.6381332959228366e-14
 70
     32
  0
VERTEX
  8
MY3DLAYER
10
45.86087845785881
20
130.74516364698067
30
-1.6454673082819575e-14
 70
     32
  0
SEQEND
  0
POLYLINE
 8
Layer0
 66
     1
70
    8
 10
0.0
 20
 0.0
 30
0.0
  0
VERTEX
  8
MY3DLAYER
10
119.22505382698188
20
55.73079944717134
30
-1.6736710566613428e-13
 70
     32
  0
VERTEX
  8
MY3DLAYER
10
119.18234781961493
20
55.70660679282365
30
-1.6739242516268164e-13
 70
     32
  0
VERTEX
  8
MY3DLAYER
10
119.13850617621875
20
55.684538764048156
30
-1.6741172450970005e-13
 70
     32
  0
VERTEX
  8
MY3DLAYER
10
119.09363451515348
20
55.66464852466062
30
-1.67424957213372e-13
 70
     32
  0
VERTEX
  8
MY3DLAYER
10
119.04784093618079
20
55.64698399198888
30
-1.6743209139495563e-13
 70
     32
  0
VERTEX
  8
MY3DLAYER
10
119.00123576004324
20
55.631587721439885
30
-1.6743310986758265e-13
 70
     32
  0
VERTEX
  8
MY3DLAYER
10
118.95393126269245
20
55.61849680397723
30
-1.6742801017766316e-13
 70
     32
  0
VERTEX
  8
MY3DLAYER
10
118.90604140480464
20
55.60774277676863
30
-1.6741680461079647e-13
 70
     32
  0
VERTEX
  8
MY3DLAYER
10
118.85768155724381
20
55.599351547207114
30
-1.6739952016217532e-13
 70
     32
  0
VERTEX
  8
MY3DLAYER
10
118.80896822311836
20
55.593343330499536
30
-1.6737619847155013e-13
 70
     32
  0
VERTEX
  8
MY3DLAYER
10
118.76001875711603
20
55.58973260096661
30
-1.6734689572291604e-13
 70
     32
  0
VERTEX
  8
MY3DLAYER
10
118.71095108278845
20
55.58852805717201
30
-1.6731168250916148e-13
 70
     32
  0
VERTEX
  8
MY3DLAYER
10
118.6618834084614
20
55.58973260096675
30
-1.6727064366200278e-13
 70
     32
  0
VERTEX
  8
MY3DLAYER
10
118.6129339424591
20
55.59334333049949
30
-1.6722387804761697e-13
 70
     32
  0
VERTEX
  8
MY3DLAYER
10
118.56422060833327
20
55.599351547207114
30
-1.6717149832846538e-13
 70
     32
  0
VERTEX
  8
MY3DLAYER
10
118.51586076077244
20
55.60774277676877
30
-1.6711363069187963e-13
 70
     32
  0
VERTEX
  8
MY3DLAYER
10
118.46797090288536
20
55.61849680397719
30
-1.670504145460644e-13
 70
     32
  0
VERTEX
  8
MY3DLAYER
10
118.42066640553419
20
55.631587721439296
30
-1.6698200218425288e-13
 70
     32
  0
VERTEX
  8
MY3DLAYER
10
118.37406122939647
20
55.646983991988975
30
-1.6690855841781586e-13
 70
     32
  0
VERTEX
  8
MY3DLAYER
10
118.3282676504236
20
55.66464852466053
30
-1.6683026017922022e-13
 70
     32
  0
VERTEX
  8
MY3DLAYER
10
118.28339598935814
20
55.68453876404825
30
-1.6674729609578074e-13
 70
     32
  0
VERTEX
  8
MY3DLAYER
10
118.23955434596269
20
55.70660679282356
30
-1.6665986603524096e-13
 70
     32
  0
VERTEX
  8
MY3DLAYER
10
118.1968483385952
20
55.73079944717148
30
-1.6656818062427543e-13
 70
     32
  0
VERTEX
  8
MY3DLAYER
10
118.15538084976896
20
55.75705844486929
30
-1.6647246074106897e-13
 70
     32
  0
VERTEX
  8
MY3DLAYER
10
118.1152517782962
20
55.78532052569142
30
-1.6637293698320483e-13
 70
     32
  0
VERTEX
  8
MY3DLAYER
10
118.07655779862503
20
55.81551760380902
30
-1.662698491121328e-13
 70
     32
  0
VERTEX
  8
MY3DLAYER
10
118.03939212794164
20
55.847576931816896
30
-1.661634454755634e-13
 70
     32
  0
VERTEX
  8
MY3DLAYER
10
118.0038443016024
20
55.881421275985325
30
-1.660539824091777e-13
 70
     32
  0
VERTEX
  8
MY3DLAYER
10
116.58963073922902
20
57.295634838358474
30
-1.610692164899571e-13
 70
     32
  0
VERTEX
  8
MY3DLAYER
10
116.55578639506074
20
57.33118266469817
30
-1.6095714483413217e-13
 70
     32
  0
VERTEX
  8
MY3DLAYER
10
116.52372706705263
20
57.36834833538115
30
-1.6084292171356656e-13
 70
     32
  0
VERTEX
  8
MY3DLAYER
10
116.49352998893475
20
57.40704231505227
30
-1.607268223017623e-13
 70
     32
  0
VERTEX
  8
MY3DLAYER
10
116.46526790811303
20
57.44717138652513
30
-1.6060912629237142e-13
 70
     32
  0
VERTEX
  8
MY3DLAYER
10
116.43900891041518
20
57.48863887535159
30
-1.6049011722538943e-13
 70
     32
  0
VERTEX
  8
MY3DLAYER
10
116.41481625606717
20
57.53134488271872
30
-1.6037008180408287e-13
 70
     32
  0
VERTEX
  8
MY3DLAYER
10
116.39274822729236
20
57.57518652611471
30
-1.6024930920429565e-13
 70
     32
  0
VERTEX
  8
MY3DLAYER
10
116.37285798790418
20
57.62005818717986
30
-1.6012809037779907e-13
 70
     32
  0
VERTEX
  8
MY3DLAYER
10
116.35519345523245
20
57.66585176615264
30
-1.600067173513633e-13
 70
     32
  0
VERTEX
  8
MY3DLAYER
10
116.33979718468349
20
57.712456942290494
30
-1.598854825232404e-13
 70
     32
  0
VERTEX
  8
MY3DLAYER
10
116.32670626722107
20
57.75976143964161
30
-1.5976467795874987e-13
 70
     32
  0
VERTEX
  8
MY3DLAYER
10
116.31595224001242
20
57.80765129752874
30
-1.5964459468666925e-13
 70
     32
  0
VERTEX
  8
MY3DLAYER
10
116.3075610104506
20
57.85601114508948
30
-1.595255219981188e-13
 70
     32
  0
VERTEX
  8
MY3DLAYER
10
116.30155279374333
20
57.904724479215474
30
-1.5940774674963446e-13
 70
     32
  0
VERTEX
  8
MY3DLAYER
10
116.29794206421045
20
57.95367394521766
30
-1.5929155267210666e-13
 70
     32
  0
VERTEX
  8
MY3DLAYER
10
116.29673752041549
20
58.00274161954471
30
-1.5917721968724427e-13
 70
     32
  0
VERTEX
  8
MY3DLAYER
10
116.29794206421009
20
58.05180929387229
30
-1.5906502323322335e-13
 70
     32
  0
VERTEX
  8
MY3DLAYER
10
116.30155279374351
20
58.10075875987434
30
-1.5895523360112815e-13
 70
     32
  0
VERTEX
  8
MY3DLAYER
10
116.30756101045095
20
58.14947209400024
30
-1.5884811528379958e-13
 70
     32
  0
VERTEX
  8
MY3DLAYER
10
116.31595224001242
20
58.197831941560985
30
-1.587439263386457e-13
 70
     32
  0
VERTEX
  8
MY3DLAYER
10
116.32670626722089
20
58.24572179944825
30
-1.586429177659615e-13
 70
     32
  0
VERTEX
  8
MY3DLAYER
10
116.33979718468332
20
58.293026296799546
30
-1.585453329042464e-13
 70
     32
  0
VERTEX
  8
MY3DLAYER
10
116.35519345523262
20
58.33963147293686
30
-1.5845140684397897e-13
 70
     32
  0
VERTEX
  8
MY3DLAYER
10
116.37285798790418
20
58.38542505190991
30
-1.5836136586126576e-13
 70
     32
  0
VERTEX
  8
MY3DLAYER
10
116.39274822729236
20
58.43029671297515
30
-1.5827542687272062e-13
 70
     32
  0
VERTEX
  8
MY3DLAYER
10
116.41481625606735
20
58.47413835637128
30
-1.5819379691289453e-13
 70
     32
  0
VERTEX
  8
MY3DLAYER
10
116.43900891041535
20
58.51684436373795
30
-1.581166726355105e-13
 70
     32
  0
VERTEX
  8
MY3DLAYER
10
116.46526790811303
20
58.558311852564465
30
-1.5804423983970838e-13
 70
     32
  0
VERTEX
  8
MY3DLAYER
10
116.49352998893475
20
58.598440924037455
30
-1.579766730224368e-13
 70
     32
  0
VERTEX
  8
MY3DLAYER
10
116.52372706705282
20
58.63713490370853
30
-1.5791413495807756e-13
 70
     32
  0
VERTEX
  8
MY3DLAYER
10
116.55578639506074
20
58.674300574392184
30
-1.5785677630630484e-13
 70
     32
  0
VERTEX
  8
MY3DLAYER
10
116.58963073922885
20
58.709848400731346
30
-1.5780473524913526e-13
 70
     32
  0
VERTEX
  8
MY3DLAYER
10
116.62517856556863
20
58.74369274489995
30
-1.5775813715803313e-13
 70
     32
  0
VERTEX
  8
MY3DLAYER
10
116.66234423625184
20
58.7757520729077
30
-1.577170942918823e-13
 70
     32
  0
VERTEX
  8
MY3DLAYER
10
116.70103821592338
20
58.80594915102552
30
-1.5768170552654171e-13
 70
     32
  0
VERTEX
  8
MY3DLAYER
10
116.74116728739577
20
58.83421123184729
30
-1.576520561166467e-13
 70
     32
  0
VERTEX
  8
MY3DLAYER
10
116.78263477622255
20
58.860470229545285
30
-1.5762821749022252e-13
 70
     32
  0
VERTEX
  8
MY3DLAYER
10
116.8253407835895
20
58.88466288389325
30
-1.576102470766089e-13
 70
     32
  0
VERTEX
  8
MY3DLAYER
10
116.86918242698513
20
58.906730912668245
30
-1.5759818816810586e-13
 70
     32
  0
VERTEX
  8
MY3DLAYER
10
116.91405408805042
20
58.92662115205636
30
-1.5759206981568027e-13
 70
     32
  0
VERTEX
  8
MY3DLAYER
10
116.95984766702365
20
58.94428568472815
30
-1.5759190675897912e-13
 70
     32
  0
VERTEX
  8
MY3DLAYER
10
117.006452843161
20
58.95968195527701
30
-1.5759769939082007e-13
 70
     32
  0
VERTEX
  8
MY3DLAYER
10
117.05375734051253
20
58.972772872739576
30
-1.5760943375624578e-13
 70
     32
  0
VERTEX
  8
MY3DLAYER
10
117.10164719839943
20
58.983526899948174
30
-1.5762708158614218e-13
 70
     32
  0
VERTEX
  8
MY3DLAYER
10
117.15000704596008
20
58.99191812950937
30
-1.5765060036534096e-13
 70
     32
  0
VERTEX
  8
MY3DLAYER
10
117.19872038008626
20
58.99792634621718
30
-1.5767993343504358e-13
 70
     32
  0
VERTEX
  8
MY3DLAYER
10
117.24766984608821
20
59.00153707574988
30
-1.5771501012931542e-13
 70
     32
  0
VERTEX
  8
MY3DLAYER
10
117.2967375204158
20
59.00274161954475
30
-1.57755745945328e-13
 70
     32
  0
VERTEX
  8
MY3DLAYER
10
117.34580519474302
20
59.00153707575015
30
-1.5780204274693197e-13
 70
     32
  0
VERTEX
  8
MY3DLAYER
10
117.39475466074498
20
58.997926346216815
30
-1.578537890010776e-13
 70
     32
  0
VERTEX
  8
MY3DLAYER
10
117.4434679948708
20
58.9919181295096
30
-1.5791086004650591e-13
 70
     32
  0
VERTEX
  8
MY3DLAYER
10
117.49182784243182
20
58.98352689994795
30
-1.579731183940699e-13
 70
     32
  0
VERTEX
  8
MY3DLAYER
10
117.53971770031907
20
58.97277287273948
30
-1.5804041405795703e-13
 70
     32
  0
VERTEX
  8
MY3DLAYER
10
117.58702219766988
20
58.959681955277055
30
-1.5811258491701842e-13
 70
     32
  0
VERTEX
  8
MY3DLAYER
10
117.6336273738076
20
58.944285684728015
30
-1.581894571053332e-13
 70
     32
  0
VERTEX
  8
MY3DLAYER
10
117.67942095278102
20
58.92662115205614
30
-1.582708454310668e-13
 70
     32
  0
VERTEX
  8
MY3DLAYER
10
117.72429261384593
20
58.906730912668195
30
-1.5835655382261363e-13
 70
     32
  0
VERTEX
  8
MY3DLAYER
10
117.76813425724156
20
58.88466288389316
30
-1.584463758009509e-13
 70
     32
  0
VERTEX
  8
MY3DLAYER
10
117.81084026460869
20
58.86047022954515
30
-1.5854009497706585e-13
 70
     32
  0
VERTEX
  8
MY3DLAYER
10
117.85230775343547
20
58.8342112318472
30
-1.5863748557325417e-13
 70
     32
  0
VERTEX
  8
MY3DLAYER
10
117.89243682490806
20
58.80594915102548
30
-1.5873831296703915e-13
 70
     32
  0
VERTEX
  8
MY3DLAYER
10
117.9311308045794
20
58.77575207290765
30
-1.588423342563976e-13
 70
     32
  0
VERTEX
  8
MY3DLAYER
10
117.9682964752626
20
58.743692744899775
30
-1.5894929884493292e-13
 70
     32
  0
VERTEX
  8
MY3DLAYER
10
118.00384430160221
20
58.70984840073116
30
-1.5905894904558158e-13
 70
     32
  0
VERTEX
  8
MY3DLAYER
10
119.41805786397522
20
57.29563483835806
30
-1.6373300104350123e-13
 70
     32
  0
VERTEX
  8
MY3DLAYER
10
119.45190220814352
20
57.26008701201895
30
-1.6384525983358887e-13
 70
     32
  0
VERTEX
  8
MY3DLAYER
10
119.48396153615126
20
57.22292134133543
30
-1.6396004390612064e-13
 70
     32
  0
VERTEX
  8
MY3DLAYER
10
119.51415861426932
20
57.18422736166431
30
-1.6407707673621143e-13
 70
     32
  0
VERTEX
  8
MY3DLAYER
10
119.54242069509104
20
57.14409829019141
30
-1.6419607638152327e-13
 70
     32
  0
VERTEX
  8
MY3DLAYER
10
119.56867969278908
20
57.10263080136499
30
-1.643167561614873e-13
 70
     32
  0
VERTEX
  8
MY3DLAYER
10
119.59287234713672
20
57.05992479399777
30
-1.6443882534794255e-13
 70
     32
  0
VERTEX
  8
MY3DLAYER
10
119.6149403759124
20
57.01608315060201
30
-1.6456198986552773e-13
 70
     32
  0
VERTEX
  8
MY3DLAYER
10
119.63483061529966
20
56.971211489536635
30
-1.6468595300013192e-13
 70
     32
  0
VERTEX
  8
MY3DLAYER
10
119.65249514797158
20
56.925417910564164
30
-1.648104161137054e-13
 70
     32
  0
VERTEX
  8
MY3DLAYER
10
119.66789141852053
20
56.878812734426496
30
-1.649350793637063e-13
 70
     32
  0
VERTEX
  8
MY3DLAYER
10
119.68098233598332
20
56.83150823707501
30
-1.6505964242544658e-13
 70
     32
  0
VERTEX
  8
MY3DLAYER
10
119.69173636319178
20
56.78361837918802
30
-1.6518380521559922e-13
 70
     32
  0
VERTEX
  8
MY3DLAYER
10
119.70012759275362
20
56.73525853162732
30
-1.6530726861512775e-13
 70
     32
  0
VERTEX
  8
MY3DLAYER
10
119.70613580946087
20
56.68654519750128
30
-1.6542973518988888e-13
 70
     32
  0
VERTEX
  8
MY3DLAYER
10
119.70974653899376
20
56.63759573149919
30
-1.6555090990717678e-13
 70
     32
  0
VERTEX
  8
MY3DLAYER
10
119.71095108278872
20
56.58852805717215
30
-1.6567050084648393e-13
 70
     32
  0
VERTEX
  8
MY3DLAYER
10
119.70974653899376
20
56.53946038284479
30
-1.6578821990276302e-13
 70
     32
  0
VERTEX
  8
MY3DLAYER
10
119.70613580946087
20
56.4905109168422
30
-1.6590378348049605e-13
 70
     32
  0
VERTEX
  8
MY3DLAYER
10
119.70012759275362
20
56.44179758271652
30
-1.6601691317690197e-13
 70
     32
  0
VERTEX
  8
MY3DLAYER
10
119.69173636319178
20
56.39343773515573
30
-1.661273364526335e-13
 70
     32
  0
VERTEX
  8
MY3DLAYER
10
119.68098233598296
20
56.3455478772686
30
-1.6623478728834746e-13
 70
     32
  0
VERTEX
  8
MY3DLAYER
10
119.6678914185209
20
56.29824337991722
30
-1.663390068255689e-13
 70
     32
  0
VERTEX
  8
MY3DLAYER
10
119.6524951479714
20
56.2516382037795
30
-1.6643974399030397e-13
 70
     32
  0
VERTEX
  8
MY3DLAYER
10
119.63483061530002
20
56.20584462480653
30
-1.6653675609789973e-13
 70
     32
  0
VERTEX
  8
MY3DLAYER
10
119.61494037591221
20
56.160972963741564
30
-1.6662980943769105e-13
 70
     32
  0
VERTEX
  8
MY3DLAYER
10
119.59287234713709
20
56.1171313203458
30
-1.667186798360326e-13
 70
     32
  0
VERTEX
  8
MY3DLAYER
10
119.56867969278908
20
56.07442531297863
30
-1.6680315319635014e-13
 70
     32
  0
VERTEX
  8
MY3DLAYER
10
119.54242069509104
20
56.032957824152206
30
-1.6688302601491984e-13
 70
     32
  0
VERTEX
  8
MY3DLAYER
10
119.51415861426932
20
55.9928287526794
30
-1.6695810587112588e-13
 70
     32
  0
VERTEX
  8
MY3DLAYER
10
119.48396153615126
20
55.954134773008235
30
-1.6702821189101824e-13
 70
     32
  0
VERTEX
  8
MY3DLAYER
10
119.45190220814406
20
55.91696910232476
30
-1.6709317518305426e-13
 70
     32
  0
VERTEX
  8
MY3DLAYER
10
119.41805786397559
20
55.88142127598551
30
-1.6715283924497398e-13
 70
     32
  0
VERTEX
  8
MY3DLAYER
10
119.38251003763561
20
55.84757693181694
30
-1.6720706034082545e-13
 70
     32
  0
VERTEX
  8
MY3DLAYER
10
119.34534436695259
20
55.81551760380925
30
-1.6725570784723995e-13
 70
     32
  0
VERTEX
  8
MY3DLAYER
10
119.30665038728088
20
55.785320525691326
30
-1.6729866456811366e-13
 70
     32
  0
VERTEX
  8
MY3DLAYER
10
119.26652131580812
20
55.75705844486942
30
-1.6733582701694306e-13
 70
     32
  0
VERTEX
  8
MY3DLAYER
10
119.22505382698188
20
55.73079944717134
30
-1.6736710566613428e-13
 70
     32
  0
SEQEND
  0
POLYLINE
 8
Layer0
 66
     1
70
    8
 10
0.0
 20
 0.0
 30
0.0
  0
VERTEX
  8
MY3DLAYER
10
114.19205275224478
20
29.933832454308874
30
-9.690695508189891e-14
 70
     32
  0
VERTEX
  8
MY3DLAYER
10
114.2141207810196
20
29.889990810913424
30
-9.700781333868513e-14
 70
     32
  0
VERTEX
  8
MY3DLAYER
10
114.23401102040795
20
29.845119149847964
30
-9.710887751318822e-14
 70
     32
  0
VERTEX
  8
MY3DLAYER
10
114.25167555307932
20
29.799325570875357
30
-9.720990413296011e-14
 70
     32
  0
VERTEX
  8
MY3DLAYER
10
114.26707182362846
20
29.75272039473728
30
-9.731064981602479e-14
 70
     32
  0
VERTEX
  8
MY3DLAYER
10
114.2801627410907
20
29.705415897386253
30
-9.741087185720755e-14
 70
     32
  0
VERTEX
  8
MY3DLAYER
10
114.2909167682999
20
29.657526039499167
30
-9.751032881283233e-14
 70
     32
  0
VERTEX
  8
MY3DLAYER
10
114.29930799786136
20
29.60916619193865
30
-9.760878108238195e-14
 70
     32
  0
VERTEX
  8
MY3DLAYER
10
114.30531621456862
20
29.560452857812702
30
-9.770599148571596e-14
 70
     32
  0
VERTEX
  8
MY3DLAYER
10
114.30892694410169
20
29.511503391810383
30
-9.780172583445764e-14
 70
     32
  0
VERTEX
  8
MY3DLAYER
10
114.31013148789629
20
29.462435717482755
30
-9.789575349617572e-14
 70
     32
  0
VERTEX
  8
MY3DLAYER
10
114.3089269441015
20
29.413368043155575
30
-9.798784794999722e-14
 70
     32
  0
VERTEX
  8
MY3DLAYER
10
114.30531621456826
20
29.364418577153256
30
-9.807778733231658e-14
 70
     32
  0
VERTEX
  8
MY3DLAYER
10
114.29930799786118
20
29.315705243027306
30
-9.816535497128368e-14
 70
     32
  0
VERTEX
  8
MY3DLAYER
10
114.29091676829971
20
29.2673453954667
30
-9.825033990878659e-14
 70
     32
  0
VERTEX
  8
MY3DLAYER
10
114.28016274109088
20
29.21945553757975
30
-9.833253740866659e-14
 70
     32
  0
VERTEX
  8
MY3DLAYER
10
114.26707182362881
20
29.172151040228318
30
-9.841174944994723e-14
 70
     32
  0
VERTEX
  8
MY3DLAYER
10
114.25167555307932
20
29.125545864090466
30
-9.848778520388263e-14
 70
     32
  0
VERTEX
  8
MY3DLAYER
10
114.23401102040758
20
29.079752285117905
30
-9.856046149368213e-14
 70
     32
  0
VERTEX
  8
MY3DLAYER
10
114.21412078101977
20
29.03488062405267
30
-9.862960323579726e-14
 70
     32
  0
VERTEX
  8
MY3DLAYER
10
114.1920527522446
20
28.991038980656995
30
-9.869504386171553e-14
 70
     32
  0
VERTEX
  8
MY3DLAYER
10
114.1678600978966
20
28.948332973289734
30
-9.875662571923711e-14
 70
     32
  0
VERTEX
  8
MY3DLAYER
10
114.14160110019874
20
28.906865484463445
30
-9.881420045227336e-14
 70
     32
  0
VERTEX
  8
MY3DLAYER
10
114.11333901937684
20
28.86673641299059
30
-9.88676293582492e-14
 70
     32
  0
VERTEX
  8
MY3DLAYER
10
114.08314194125896
20
28.828042433319336
30
-9.891678372225064e-14
 70
     32
  0
VERTEX
  8
MY3DLAYER
10
114.0510826132514
20
28.790876762635904
30
-9.896154512710914e-14
 70
     32
  0
VERTEX
  8
MY3DLAYER
10
114.01723826908274
20
28.755328936296387
30
-9.90018057386799e-14
 70
     32
  0
VERTEX
  8
MY3DLAYER
10
113.98169044274331
20
28.721484592128043
30
-9.903746856562317e-14
 70
     32
  0
VERTEX
  8
MY3DLAYER
10
113.94452477205992
20
28.689425264120302
30
-9.90684476930651e-14
 70
     32
  0
VERTEX
  8
MY3DLAYER
10
113.9058307923884
20
28.659228186002608
30
-9.909466848957426e-14
 70
     32
  0
VERTEX
  8
MY3DLAYER
10
113.86570172091618
20
28.630966105180484
30
-9.91160677869555e-14
 70
     32
  0
VERTEX
  8
MY3DLAYER
10
113.8242342320894
20
28.60470710748267
30
-9.913259403242665e-14
 70
     32
  0
VERTEX
  8
MY3DLAYER
10
113.78152822472227
20
28.58051445313439
30
-9.914420741281505e-14
 70
     32
  0
VERTEX
  8
MY3DLAYER
10
113.73768658132664
20
28.558446424359488
30
-9.915087995046984e-14
 70
     32
  0
VERTEX
  8
MY3DLAYER
10
113.69281492026136
20
28.53855618497195
30
-9.91525955706638e-14
 70
     32
  0
VERTEX
  8
MY3DLAYER
10
113.64702134128848
20
28.520891652299895
30
-9.91493501403173e-14
 70
     32
  0
VERTEX
  8
MY3DLAYER
10
113.60041616515059
20
28.505495381750716
30
-9.914115147795649e-14
 70
     32
  0
VERTEX
  8
MY3DLAYER
10
113.55311166779924
20
28.492404464288427
30
-9.912801933487698e-14
 70
     32
  0
VERTEX
  8
MY3DLAYER
10
113.50522180991216
20
28.481650437079644
30
-9.910998534756162e-14
 70
     32
  0
VERTEX
  8
MY3DLAYER
10
113.45686196235205
20
28.473259207518353
30
-9.9087092961466e-14
 70
     32
  0
VERTEX
  8
MY3DLAYER
10
113.40814862822587
20
28.467250990810776
30
-9.90593973263527e-14
 70
     32
  0
VERTEX
  8
MY3DLAYER
10
113.35919916222373
20
28.46364026127758
30
-9.90269651634326e-14
 70
     32
  0
VERTEX
  8
MY3DLAYER
10
113.31013148789633
20
28.46243571748334
30
-9.898987460462751e-14
 70
     32
  0
VERTEX
  8
MY3DLAYER
10
113.26106381356892
20
28.463640261277895
30
-9.894821500434155e-14
 70
     32
  0
VERTEX
  8
MY3DLAYER
10
113.21211434756697
20
28.467250990810776
30
-9.890208672420141e-14
 70
     32
  0
VERTEX
  8
MY3DLAYER
10
113.16340101344116
20
28.473259207517994
30
-9.885160089127386e-14
 70
     32
  0
VERTEX
  8
MY3DLAYER
10
113.11504116588014
20
28.481650437079736
30
-9.879687913035248e-14
 70
     32
  0
VERTEX
  8
MY3DLAYER
10
113.06715130799323
20
28.492404464288562
30
-9.873805327095271e-14
 70
     32
  0
VERTEX
  8
MY3DLAYER
10
113.01984681064208
20
28.505495381750944
30
-9.867526502972233e-14
 70
     32
  0
VERTEX
  8
MY3DLAYER
10
112.97324163450436
20
28.520891652299714
30
-9.860866566903386e-14
 70
     32
  0
VERTEX
  8
MY3DLAYER
10
112.92744805553112
20
28.538556184971725
30
-9.853841563258062e-14
 70
     32
  0
VERTEX
  8
MY3DLAYER
10
112.88257639446601
20
28.558446424359758
30
-9.846468415885382e-14
 70
     32
  0
VERTEX
  8
MY3DLAYER
10
112.8387347510702
20
28.58051445313489
30
-9.838764887343133e-14
 70
     32
  0
VERTEX
  8
MY3DLAYER
10
112.79602874370308
20
28.604707107482717
30
-9.830749536106387e-14
 70
     32
  0
VERTEX
  8
MY3DLAYER
10
112.75456125487702
20
28.630966105180665
30
-9.822441671858304e-14
 70
     32
  0
VERTEX
  8
MY3DLAYER
10
112.71443218340372
20
28.659228186002608
30
-9.813861308971517e-14
 70
     32
  0
VERTEX
  8
MY3DLAYER
10
112.67573820373255
20
28.689425264120256
30
-9.805029118291803e-14
 70
     32
  0
VERTEX
  8
MY3DLAYER
10
112.63857253304916
20
28.72148459212818
30
-9.795966377340105e-14
 70
     32
  0
VERTEX
  8
MY3DLAYER
10
112.60302470670992
20
28.75532893629634
30
-9.786694919053167e-14
 70
     32
  0
VERTEX
  8
MY3DLAYER
10
111.18881114433673
20
30.169542498669845
30
-9.358384430183244e-14
 70
     32
  0
VERTEX
  8
MY3DLAYER
10
111.15496680016842
20
30.205090325009138
30
-9.348945303742471e-14
 70
     32
  0
VERTEX
  8
MY3DLAYER
10
111.12290747216015
20
30.24225599569239
30
-9.339379962256546e-14
 70
     32
  0
VERTEX
  8
MY3DLAYER
10
111.09271039404281
20
30.2809499753636
30
-9.329711449470907e-14
 70
     32
  0
VERTEX
  8
MY3DLAYER
10
111.06444831322055
20
30.321079046836363
30
-9.319963057679706e-14
 70
     32
  0
VERTEX
  8
MY3DLAYER
10
111.03818931552287
20
30.36254653566274
30
-9.310158271612651e-14
 70
     32
  0
VERTEX
  8
MY3DLAYER
10
111.01399666117487
20
30.40525254303032
30
-9.30032071185814e-14
 70
     32
  0
VERTEX
  8
MY3DLAYER
10
110.99192863239969
20
30.449094186425995
30
-9.290474077959322e-14
 70
     32
  0
VERTEX
  8
MY3DLAYER
10
110.97203839301152
20
30.49396584749096
30
-9.280642091319754e-14
 70
     32
  0
VERTEX
  8
MY3DLAYER
10
110.95437386034033
20
30.539759426464286
30
-9.270848438056339e-14
 70
     32
  0
VERTEX
  8
MY3DLAYER
10
110.93897758979084
20
30.586364602601822
30
-9.261116711937685e-14
 70
     32
  0
VERTEX
  8
MY3DLAYER
10
110.92588667232859
20
30.633669099952847
30
-9.251470357544378e-14
 70
     32
  0
VERTEX
  8
MY3DLAYER
10
110.91513264511994
20
30.681558957840114
30
-9.241932613789092e-14
 70
     32
  0
VERTEX
  8
MY3DLAYER
10
110.90674141555847
20
30.729918805400768
30
-9.232526457931913e-14
 70
     32
  0
VERTEX
  8
MY3DLAYER
10
110.90073319885121
20
30.77863213952667
30
-9.223274550226242e-14
 70
     32
  0
VERTEX
  8
MY3DLAYER
10
110.89712246931815
20
30.82758160552881
30
-9.214199179328034e-14
 70
     32
  0
VERTEX
  8
MY3DLAYER
10
110.89591792552355
20
30.876649279856213
30
-9.205322208600743e-14
 70
     32
  0
VERTEX
  8
MY3DLAYER
10
110.89712246931832
20
30.925716954183436
30
-9.196665023444395e-14
 70
     32
  0
VERTEX
  8
MY3DLAYER
10
110.90073319885103
20
30.974666420185713
30
-9.188248479776241e-14
 70
     32
  0
VERTEX
  8
MY3DLAYER
10
110.90674141555866
20
31.023379754311165
30
-9.180092853787243e-14
 70
     32
  0
VERTEX
  8
MY3DLAYER
10
110.91513264512012
20
31.071739601871997
30
-9.172217793094757e-14
 70
     32
  0
VERTEX
  8
MY3DLAYER
10
110.92588667232859
20
31.119629459759533
30
-9.164642269409718e-14
 70
     32
  0
VERTEX
  8
MY3DLAYER
10
110.93897758979101
20
31.16693395711065
30
-9.15738453283227e-14
 70
     32
  0
VERTEX
  8
MY3DLAYER
10
110.95437386033997
20
31.213539133248233
30
-9.150462067885502e-14
 70
     32
  0
VERTEX
  8
MY3DLAYER
10
110.97203839301207
20
31.259332712221287
30
-9.143891551393834e-14
 70
     32
  0
VERTEX
  8
MY3DLAYER
10
110.99192863239969
20
31.304204373286254
30
-9.137688812306946e-14
 70
     32
  0
VERTEX
  8
MY3DLAYER
10
111.01399666117487
20
31.348046016681703
30
-9.131868793566663e-14
 70
     32
  0
VERTEX
  8
MY3DLAYER
10
111.0381893155227
20
31.390752024049323
30
-9.126445516107849e-14
 70
     32
  0
VERTEX
  8
MY3DLAYER
10
111.06444831322074
20
31.43221951287543
30
-9.121432045080984e-14
 70
     32
  0
VERTEX
  8
MY3DLAYER
10
111.09271039404264
20
31.472348584348513
30
-9.116840458376828e-14
 70
     32
  0
VERTEX
  8
MY3DLAYER
10
111.12290747216015
20
31.511042564019405
30
-9.112681817530006e-14
 70
     32
  0
VERTEX
  8
MY3DLAYER
10
111.15496680016807
20
31.548208234702926
30
-9.108966141070492e-14
 70
     32
  0
VERTEX
  8
MY3DLAYER
10
111.18881114433637
20
31.583756061042447
30
-9.105702380388398e-14
 70
     32
  0
VERTEX
  8
MY3DLAYER
10
111.22435897067615
20
31.617600405211014
30
-9.102898398169021e-14
 70
     32
  0
VERTEX
  8
MY3DLAYER
10
111.26152464135973
20
31.64965973321871
30
-9.100560949451173e-14
 70
     32
  0
VERTEX
  8
MY3DLAYER
10
111.30021862103071
20
31.679856811336673
30
-9.098695665353568e-14
 70
     32
  0
VERTEX
  8
MY3DLAYER
10
111.34034769250366
20
31.708118892158666
30
-9.097307039508921e-14
 70
     32
  0
VERTEX
  8
MY3DLAYER
10
111.3818151813299
20
31.734377889856614
30
-9.096398417238533e-14
 70
     32
  0
VERTEX
  8
MY3DLAYER
10
111.42452118869701
20
31.758570544204442
30
-9.095971987493046e-14
 70
     32
  0
VERTEX
  8
MY3DLAYER
10
111.468362832093
20
31.780638572979527
30
-9.096028777579063e-14
 70
     32
  0
VERTEX
  8
MY3DLAYER
10
111.51323449315811
20
31.800528812367244
30
-9.096568650684366e-14
 70
     32
  0
VERTEX
  8
MY3DLAYER
10
111.55902807213063
20
31.818193345038846
30
-9.097590306207254e-14
 70
     32
  0
VERTEX
  8
MY3DLAYER
10
111.60563324826889
20
31.833589615588114
30
-9.099091282890101e-14
 70
     32
  0
VERTEX
  8
MY3DLAYER
10
111.65293774562022
20
31.846680533050677
30
-9.101067964748667e-14
 70
     32
  0
VERTEX
  8
MY3DLAYER
10
111.7008276035073
20
31.85743456025932
30
-9.103515589783174e-14
 70
     32
  0
VERTEX
  8
MY3DLAYER
10
111.74918745106814
20
31.86582578982084
30
-9.106428261450524e-14
 70
     32
  0
VERTEX
  8
MY3DLAYER
10
111.79790078519378
20
31.871834006528506
30
-9.109798962869581e-14
 70
     32
  0
VERTEX
  8
MY3DLAYER
10
111.84685025119573
20
31.87544473606148
30
-9.113619573725359e-14
 70
     32
  0
VERTEX
  8
MY3DLAYER
10
111.89591792552332
20
31.876649279856167
30
-9.117880889831693e-14
 70
     32
  0
VERTEX
  8
MY3DLAYER
10
111.94498559985072
20
31.87544473606112
30
-9.12257264530479e-14
 70
     32
  0
VERTEX
  8
MY3DLAYER
10
111.99393506585268
20
31.871834006528236
30
-9.12768353729482e-14
 70
     32
  0
VERTEX
  8
MY3DLAYER
10
112.04264839997867
20
31.865825789820974
30
-9.13320125321524e-14
 70
     32
  0
VERTEX
  8
MY3DLAYER
10
112.0910082475395
20
31.857434560259232
30
-9.139112500405179e-14
 70
     32
  0
VERTEX
  8
MY3DLAYER
10
112.13889810542659
20
31.846680533050407
30
-9.145403038152354e-14
 70
     32
  0
VERTEX
  8
MY3DLAYER
10
112.18620260277775
20
31.833589615588025
30
-9.152057712000363e-14
 70
     32
  0
VERTEX
  8
MY3DLAYER
10
112.23280777891547
20
31.818193345039074
30
-9.159060490257015e-14
 70
     32
  0
VERTEX
  8
MY3DLAYER
10
112.27860135788816
20
31.80052881236729
30
-9.166394502616128e-14
 70
     32
  0
VERTEX
  8
MY3DLAYER
10
112.32347301895364
20
31.780638572979527
30
-9.17404208079955e-14
 70
     32
  0
VERTEX
  8
MY3DLAYER
10
112.36731466234944
20
31.758570544204442
30
-9.181984801121548e-14
 70
     32
  0
VERTEX
  8
MY3DLAYER
10
112.41002066971657
20
31.734377889856344
30
-9.190203528873211e-14
 70
     32
  0
VERTEX
  8
MY3DLAYER
10
112.45148815854263
20
31.708118892158573
30
-9.198678464419507e-14
 70
     32
  0
VERTEX
  8
MY3DLAYER
10
112.49161723001558
20
31.67985681133672
30
-9.207389190898355e-14
 70
     32
  0
VERTEX
  8
MY3DLAYER
10
112.5303112096871
20
31.649659733219117
30
-9.216314723406726e-14
 70
     32
  0
VERTEX
  8
MY3DLAYER
10
112.56747688037049
20
31.617600405211103
30
-9.22543355955504e-14
 70
     32
  0
VERTEX
  8
MY3DLAYER
10
112.60302470670955
20
31.583756061042717
30
-9.234723731268249e-14
 70
     32
  0
VERTEX
  8
MY3DLAYER
10
114.01723826908292
20
30.169542498669482
30
-9.63196282800809e-14
 70
     32
  0
VERTEX
  8
MY3DLAYER
10
114.05108261325176
20
30.133994672329873
30
-9.641420667875145e-14
 70
     32
  0
VERTEX
  8
MY3DLAYER
10
114.08314194125933
20
30.09682900164685
30
-9.651042104557669e-14
 70
     32
  0
VERTEX
  8
MY3DLAYER
10
114.11333901937684
20
30.058135021975595
30
-9.660803959171965e-14
 70
     32
  0
VERTEX
  8
MY3DLAYER
10
114.14160110019874
20
30.01800595050247
30
-9.670682714555258e-14
 70
     32
  0
VERTEX
  8
MY3DLAYER
10
114.16786009789695
20
29.976538461676
30
-9.680654571920502e-14
 70
     32
  0
VERTEX
  8
MY3DLAYER
10
114.19205275224478
20
29.933832454308874
30
-9.690695508189891e-14
 70
     32
  0
SEQEND
  0
POLYLINE
 8
Layer0
 66
     1
70
    8
 10
0.0
 20
 0.0
 30
0.0
  0
VERTEX
  8
MY3DLAYER
10
39.3043649772384
20
103.32958505894455
30
6.51563549225095e-14
 70
     32
  0
VERTEX
  8
MY3DLAYER
10
39.33642430524605
20
103.36675072962784
30
6.517330979992696e-14
 70
     32
  0
VERTEX
  8
MY3DLAYER
10
39.37026864941453
20
103.40229855596708
30
6.51865439563992e-14
 70
     32
  0
VERTEX
  8
MY3DLAYER
10
39.40581647575422
20
103.43614290013583
30
6.519602550968465e-14
 70
     32
  0
VERTEX
  8
MY3DLAYER
10
39.442982146437345
20
103.4682022281434
30
6.520173161789051e-14
 70
     32
  0
VERTEX
  8
MY3DLAYER
10
39.4816761261085
20
103.49839930626136
30
6.520364853450216e-14
 70
     32
  0
VERTEX
  8
MY3DLAYER
10
39.52180519758154
20
103.52666138708335
30
6.520177164150015e-14
 70
     32
  0
VERTEX
  8
MY3DLAYER
10
39.56327268640769
20
103.55292038478085
30
6.519610546048396e-14
 70
     32
  0
VERTEX
  8
MY3DLAYER
10
39.605978693775086
20
103.57711303912922
30
6.518666364177987e-14
 70
     32
  0
VERTEX
  8
MY3DLAYER
10
39.64982033717081
20
103.59918106790411
30
6.517346893155625e-14
 70
     32
  0
VERTEX
  8
MY3DLAYER
10
39.69469199823609
20
103.61907130729183
30
6.515655311702507e-14
 70
     32
  0
VERTEX
  8
MY3DLAYER
10
39.74048557720879
20
103.63673583996375
30
6.513595694986607e-14
 70
     32
  0
VERTEX
  8
MY3DLAYER
10
39.78709075334687
20
103.65213211051288
30
6.511173004804986e-14
 70
     32
  0
VERTEX
  8
MY3DLAYER
10
39.83439525069775
20
103.66522302797532
30
6.508393077630432e-14
 70
     32
  0
VERTEX
  8
MY3DLAYER
10
39.88228510858493
20
103.67597705518405
30
6.505262610551055e-14
 70
     32
  0
VERTEX
  8
MY3DLAYER
10
39.93064495614567
20
103.68436828474543
30
6.501789145136244e-14
 70
     32
  0
VERTEX
  8
MY3DLAYER
10
39.9793582902714
20
103.69037650145296
30
6.497981049268382e-14
 70
     32
  0
VERTEX
  8
MY3DLAYER
10
40.0283077562739
20
103.69398723098594
30
6.493847496984012e-14
 70
     32
  0
VERTEX
  8
MY3DLAYER
10
40.077375430600846
20
103.69519177478062
30
6.489398446372603e-14
 70
     32
  0
VERTEX
  8
MY3DLAYER
10
40.126443104928526
20
103.69398723098602
30
6.484644615586805e-14
 70
     32
  0
VERTEX
  8
MY3DLAYER
10
40.17539257093066
20
103.69037650145287
30
6.479597457021332e-14
 70
     32
  0
VERTEX
  8
MY3DLAYER
10
40.224105905056746
20
103.68436828474562
30
6.474269129723302e-14
 70
     32
  0
VERTEX
  8
MY3DLAYER
10
40.272465752616945
20
103.6759770551837
30
6.468672470099822e-14
 70
     32
  0
VERTEX
  8
MY3DLAYER
10
40.3203556105043
20
103.6652230279754
30
6.462820960994177e-14
 70
     32
  0
VERTEX
  8
MY3DLAYER
10
40.367660107855556
20
103.65213211051288
30
6.456728699204298e-14
 70
     32
  0
VERTEX
  8
MY3DLAYER
10
40.41426528399318
20
103.63673583996393
30
6.450410361522485e-14
 70
     32
  0
VERTEX
  8
MY3DLAYER
10
40.46005886296588
20
103.6190713072921
30
6.443881169377612e-14
 70
     32
  0
VERTEX
  8
MY3DLAYER
10
40.50493052403125
20
103.59918106790394
30
6.437156852165452e-14
 70
     32
  0
VERTEX
  8
MY3DLAYER
10
40.54877216742733
20
103.57711303912912
30
6.430253609355183e-14
 70
     32
  0
VERTEX
  8
MY3DLAYER
10
40.591478174794275
20
103.5529203847812
30
6.423188071463343e-14
 70
     32
  0
VERTEX
  8
MY3DLAYER
10
40.632945663620696
20
103.52666138708335
30
6.415977259989593e-14
 70
     32
  0
VERTEX
  8
MY3DLAYER
10
40.67307473509364
20
103.49839930626136
30
6.408638546410386e-14
 70
     32
  0
VERTEX
  8
MY3DLAYER
10
40.71176871476481
20
103.4682022281434
30
6.401189610329513e-14
 70
     32
  0
VERTEX
  8
MY3DLAYER
10
40.7489343854481
20
103.43614290013556
30
6.393648396886418e-14
 70
     32
  0
VERTEX
  8
MY3DLAYER
10
40.78448221178771
20
103.40229855596745
30
6.386033073524864e-14
 70
     32
  0
VERTEX
  8
MY3DLAYER
10
42.19869577416036
20
101.98808499359394
30
6.058960079837178e-14
 70
     32
  0
VERTEX
  8
MY3DLAYER
10
42.23254011832893
20
101.95253716725442
30
6.051270279111852e-14
 70
     32
  0
VERTEX
  8
MY3DLAYER
10
42.26459944633712
20
101.91537149657125
30
6.043505812999963e-14
 70
     32
  0
VERTEX
  8
MY3DLAYER
10
42.2947965244549
20
101.87667751690019
30
6.035685386780451e-14
 70
     32
  0
VERTEX
  8
MY3DLAYER
10
42.323058605276444
20
101.83654844542747
30
6.027827840545057e-14
 70
     32
  0
VERTEX
  8
MY3DLAYER
10
42.3493176029743
20
101.79508095660077
30
6.01995210381093e-14
 70
     32
  0
VERTEX
  8
MY3DLAYER
10
42.37351025732231
20
101.75237494923391
30
6.012077149917686e-14
 70
     32
  0
VERTEX
  8
MY3DLAYER
10
42.39557828609767
20
101.70853330583783
30
6.004221950318983e-14
 70
     32
  0
VERTEX
  8
MY3DLAYER
10
42.415468525485565
20
101.66366164477246
30
5.996405428878751e-14
 70
     32
  0
VERTEX
  8
MY3DLAYER
10
42.43313305815703
20
101.61786806579977
30
5.988646416281739e-14
 70
     32
  0
VERTEX
  8
MY3DLAYER
10
42.44852932870626
20
101.57126288966187
30
5.980963604668917e-14
 70
     32
  0
VERTEX
  8
MY3DLAYER
10
42.46162024616877
20
101.52395839231089
30
5.973375502606378e-14
 70
     32
  0
VERTEX
  8
MY3DLAYER
10
42.47237427337751
20
101.47606853442376
30
5.965900390496685e-14
 70
     32
  0
VERTEX
  8
MY3DLAYER
10
42.48076550293889
20
101.4277086868632
30
5.958556276539605e-14
 70
     32
  0
VERTEX
  8
MY3DLAYER
10
42.48677371964642
20
101.37899535273716
30
5.951360853348916e-14
 70
     32
  0
VERTEX
  8
MY3DLAYER
10
42.490384449179395
20
101.33004588673502
30
5.944331455329372e-14
 70
     32
  0
VERTEX
  8
MY3DLAYER
10
42.49158899297417
20
101.28097821240743
30
5.937485016916484e-14
 70
     32
  0
VERTEX
  8
MY3DLAYER
10
42.49038444917949
20
101.23191053808026
30
5.930838031780065e-14
 70
     32
  0
VERTEX
  8
MY3DLAYER
10
42.486773719646244
20
101.18296107207776
30
5.924406513089501e-14
 70
     32
  0
VERTEX
  8
MY3DLAYER
10
42.4807655029388
20
101.13424773795244
30
5.918205954936682e-14
 70
     32
  0
VERTEX
  8
MY3DLAYER
10
42.472374273377326
20
101.08588789039148
30
5.912251295009277e-14
 70
     32
  0
VERTEX
  8
MY3DLAYER
10
42.46162024616904
20
101.03799803250448
30
5.906556878604651e-14
 70
     32
  0
VERTEX
  8
MY3DLAYER
10
42.44852932870607
20
100.990693535153
30
5.901136424070664e-14
 70
     32
  0
VERTEX
  8
MY3DLAYER
10
42.43313305815721
20
100.94408835901537
30
5.896002989757082e-14
 70
     32
  0
VERTEX
  8
MY3DLAYER
10
42.4154685254852
20
100.89829478004222
30
5.891168942556768e-14
 70
     32
  0
VERTEX
  8
MY3DLAYER
10
42.3955782860974
20
100.8534231189774
30
5.88664592811289e-14
 70
     32
  0
VERTEX
  8
MY3DLAYER
10
42.37351025732213
20
100.80958147558164
30
5.882444842763375e-14
 70
     32
  0
VERTEX
  8
MY3DLAYER
10
42.34931760297448
20
100.76687546821464
30
5.878575807290823e-14
 70
     32
  0
VERTEX
  8
MY3DLAYER
10
42.32305860527662
20
100.72540797938795
30
5.875048142540557e-14
 70
     32
  0
VERTEX
  8
MY3DLAYER
10
42.2947965244549
20
100.68527890791513
30
5.871870346965968e-14
 70
     32
  0
VERTEX
  8
MY3DLAYER
10
42.26459944633667
20
100.64658492824375
30
5.869050076154919e-14
 70
     32
  0
VERTEX
  8
MY3DLAYER
10
42.23254011832947
20
100.60941925756055
30
5.866594124386836e-14
 70
     32
  0
VERTEX
  8
MY3DLAYER
10
42.1986957741609
20
100.57387143122098
30
5.864508408264629e-14
 70
     32
  0
VERTEX
  8
MY3DLAYER
10
42.163147947821024
20
100.54002708705286
30
5.862797952461134e-14
 70
     32
  0
VERTEX
  8
MY3DLAYER
10
42.125982277137815
20
100.5079677590448
30
5.861466877614195e-14
 70
     32
  0
VERTEX
  8
MY3DLAYER
10
42.08728829746665
20
100.47777068092715
30
5.860518390399719e-14
 70
     32
  0
VERTEX
  8
MY3DLAYER
10
42.047159225993795
20
100.44950860010535
30
5.85995477580645e-14
 70
     32
  0
VERTEX
  8
MY3DLAYER
10
42.00569173716728
20
100.42324960240713
30
5.859777391631341e-14
 70
     32
  0
VERTEX
  8
MY3DLAYER
10
41.96298572980016
20
100.39905694805925
30
5.859986665208398e-14
 70
     32
  0
VERTEX
  8
MY3DLAYER
10
41.91914408640453
20
100.37698891928399
30
5.860582092379258e-14
 70
     32
  0
VERTEX
  8
MY3DLAYER
10
41.874272425339335
20
100.35709867989627
30
5.861562238707684e-14
 70
     32
  0
VERTEX
  8
MY3DLAYER
10
41.82847884636619
20
100.33943414722454
30
5.862924742935345e-14
 70
     32
  0
VERTEX
  8
MY3DLAYER
10
41.781873670228386
20
100.32403787667535
30
5.864666322670201e-14
 70
     32
  0
VERTEX
  8
MY3DLAYER
10
41.73456917287749
20
100.31094695921311
30
5.866782782294131e-14
 70
     32
  0
VERTEX
  8
MY3DLAYER
10
41.686679314990045
20
100.3001929320045
30
5.869269023070537e-14
 70
     32
  0
VERTEX
  8
MY3DLAYER
10
41.63831946742921
20
100.29180170244267
30
5.87211905542757e-14
 70
     32
  0
VERTEX
  8
MY3DLAYER
10
41.58960613330376
20
100.28579348573551
30
5.875326013387695e-14
 70
     32
  0
VERTEX
  8
MY3DLAYER
10
41.54065666730171
20
100.28218275620245
30
5.878882171108299e-14
 70
     32
  0
VERTEX
  8
MY3DLAYER
10
41.49158899297413
20
100.28097821240776
30
5.88277896149389e-14
 70
     32
  0
VERTEX
  8
MY3DLAYER
10
41.442521318646456
20
100.28218275620235
30
5.887006996835179e-14
 70
     32
  0
VERTEX
  8
MY3DLAYER
10
41.393571852644406
20
100.28579348573551
30
5.891556091424644e-14
 70
     32
  0
VERTEX
  8
MY3DLAYER
10
41.34485851851904
20
100.29180170244285
30
5.896415286095009e-14
 70
     32
  0
VERTEX
  8
MY3DLAYER
10
41.296498670957845
20
100.3001929320042
30
5.901572874620681e-14
 70
     32
  0
VERTEX
  8
MY3DLAYER
10
41.24860881307085
20
100.31094695921307
30
5.907016431919135e-14
 70
     32
  0
VERTEX
  8
MY3DLAYER
10
41.20130431571969
20
100.3240378766753
30
5.912732843984044e-14
 70
     32
  0
VERTEX
  8
MY3DLAYER
10
41.154699139581794
20
100.33943414722471
30
5.91870833947805e-14
 70
     32
  0
VERTEX
  8
MY3DLAYER
10
41.10890556060901
20
100.35709867989627
30
5.924928522909126e-14
 70
     32
  0
VERTEX
  8
MY3DLAYER
10
41.06403389954373
20
100.37698891928403
30
5.931378409310553e-14
 70
     32
  0
VERTEX
  8
MY3DLAYER
10
41.020192256148185
20
100.39905694805925
30
5.938042460341066e-14
 70
     32
  0
VERTEX
  8
MY3DLAYER
10
40.97748624878106
20
100.42324960240735
30
5.944904621717988e-14
 70
     32
  0
VERTEX
  8
MY3DLAYER
10
40.93601875995446
20
100.4495086001052
30
5.951948361893534e-14
 70
     32
  0
VERTEX
  8
MY3DLAYER
10
40.895889688481425
20
100.47777068092702
30
5.959156711880672e-14
 70
     32
  0
VERTEX
  8
MY3DLAYER
10
40.85719570881044
20
100.50796775904453
30
5.966512306132896e-14
 70
     32
  0
VERTEX
  8
MY3DLAYER
10
40.820030038127236
20
100.54002708705282
30
5.973997424379375e-14
 70
     32
  0
VERTEX
  8
MY3DLAYER
10
40.784482211787804
20
100.57387143122094
30
5.981594034314648e-14
 70
     32
  0
VERTEX
  8
MY3DLAYER
10
39.370268649414434
20
101.98808499359421
30
6.339738420132424e-14
 70
     32
  0
VERTEX
  8
MY3DLAYER
10
39.336424305245956
20
102.02363281993382
30
6.34740950743147e-14
 70
     32
  0
VERTEX
  8
MY3DLAYER
10
39.30436497723858
20
102.06079849061726
30
6.35511787834676e-14
 70
     32
  0
VERTEX
  8
MY3DLAYER
10
39.27416789912052
20
102.09949247028824
30
6.362844962737606e-14
 70
     32
  0
VERTEX
  8
MY3DLAYER
10
39.24590581829853
20
102.13962154176109
30
6.370572145380917e-14
 70
     32
  0
VERTEX
  8
MY3DLAYER
10
39.21964682060094
20
102.18108903058743
30
6.378280810816854e-14
 70
     32
  0
VERTEX
  8
MY3DLAYER
10
39.19545416625276
20
102.22379503795473
30
6.385952388195212e-14
 70
     32
  0
VERTEX
  8
MY3DLAYER
10
39.17338613747776
20
102.26763668135045
30
6.39356839601411e-14
 70
     32
  0
VERTEX
  8
MY3DLAYER
10
39.15349589808968
20
102.31250834241595
30
6.401110486643611e-14
 70
     32
  0
VERTEX
  8
MY3DLAYER
10
39.135831365418035
20
102.35830192138856
30
6.408560490526842e-14
 70
     32
  0
VERTEX
  8
MY3DLAYER
10
39.12043509486908
20
102.40490709752623
30
6.415900459951857e-14
 70
     32
  0
VERTEX
  8
MY3DLAYER
10
39.10734417740657
20
102.45221159487758
30
6.423112712289427e-14
 70
     32
  0
VERTEX
  8
MY3DLAYER
10
39.09659015019792
20
102.50010145276461
30
6.430179872591926e-14
 70
     32
  0
VERTEX
  8
MY3DLAYER
10
39.08819892063618
20
102.54846130032563
30
6.437084915451215e-14
 70
     32
  0
VERTEX
  8
MY3DLAYER
10
39.08219070392874
20
102.59717463445139
30
6.443811206014175e-14
 70
     32
  0
VERTEX
  8
MY3DLAYER
10
39.07857997439585
20
102.64612410045336
30
6.45034254005776e-14
 70
     32
  0
VERTEX
  8
MY3DLAYER
10
39.07737543060099
20
102.69519177478044
30
6.456663183026139e-14
 70
     32
  0
VERTEX
  8
MY3DLAYER
10
39.07857997439613
20
102.74425944910811
30
6.462757907936757e-14
 70
     32
  0
VERTEX
  8
MY3DLAYER
10
39.082190703929186
20
102.79320891511026
30
6.468612032063536e-14
 70
     32
  0
VERTEX
  8
MY3DLAYER
10
39.088198920636266
20
102.84192224923616
30
6.474211452308637e-14
 70
     32
  0
VERTEX
  8
MY3DLAYER
10
39.09659015019765
20
102.89028209679681
30
6.479542679178246e-14
 70
     32
  0
VERTEX
  8
MY3DLAYER
10
39.107344177406745
20
102.93817195468408
30
6.484592869279901e-14
 70
     32
  0
VERTEX
  8
MY3DLAYER
10
39.120435094868995
20
102.98547645203533
30
6.489349856263279e-14
 70
     32
  0
VERTEX
  8
MY3DLAYER
10
39.13583136541821
20
103.03208162817296
30
6.493802180130081e-14
 70
     32
  0
VERTEX
  8
MY3DLAYER
10
39.153495898089595
20
103.07787520714584
30
6.497939114842123e-14
 70
     32
  0
VERTEX
  8
MY3DLAYER
10
39.17338613747749
20
103.12274686821125
30
6.501750694161375e-14
 70
     32
  0
VERTEX
  8
MY3DLAYER
10
39.195454166252574
20
103.16658851160679
30
6.505227735659339e-14
 70
     32
  0
VERTEX
  8
MY3DLAYER
10
39.219646820600765
20
103.20929451897388
30
6.508361862838555e-14
 70
     32
  0
VERTEX
  8
MY3DLAYER
10
39.245905818298716
20
103.25076200780043
30
6.511145525312061e-14
 70
     32
  0
VERTEX
  8
MY3DLAYER
10
39.274167899120435
20
103.29089107927328
30
6.513572016993213e-14
 70
     32
  0
VERTEX
  8
MY3DLAYER
10
39.3043649772384
20
103.32958505894455
30
6.51563549225095e-14
 70
     32
  0
SEQEND
 0
ENDSEC
 0
EOF
