  0
SECTION
  2
HEADER
  9
$ACADVER
  1
AC1009
  9
$INSBASE
 10
0.0
 20
0.0
 30
0.0
  9
$EXTMIN
 10
-38.999975877264362
 20
-38.999999085726202
 30
0.0
  9
$EXTMAX
 10
124.9999999999999
 20
112.9999990857261
 30
0.0
  9
$LIMMIN
 10
0.0
 20
0.0
  9
$LIMMAX
 10
420.0
 20
297.0
  9
$ORTHOMODE
 70
     0
  9
$REGENMODE
 70
     1
  9
$FILLMODE
 70
     1
  9
$QTEXTMODE
 70
     0
  9
$MIRRTEXT
 70
     0
  9
$DRAGMODE
 70
     2
  9
$LTSCALE
 40
1.0
  9
$OSMODE
 70
    37
  9
$ATTMODE
 70
     1
  9
$TEXTSIZE
 40
2.5
  9
$TRACEWID
 40
1.0
  9
$TEXTSTYLE
  7
STANDARD
  9
$CLAYER
  8
0
  9
$CELTYPE
  6
BYLAYER
  9
$CECOLOR
 62
   256
  9
$DIMSCALE
 40
1.0
  9
$DIMASZ
 40
2.5
  9
$DIMEXO
 40
0.625
  9
$DIMDLI
 40
3.75
  9
$DIMRND
 40
0.0
  9
$DIMDLE
 40
0.0
  9
$DIMEXE
 40
1.25
  9
$DIMTP
 40
0.0
  9
$DIMTM
 40
0.0
  9
$DIMTXT
 40
2.5
  9
$DIMCEN
 40
2.5
  9
$DIMTSZ
 40
0.0
  9
$DIMTOL
 70
     0
  9
$DIMLIM
 70
     0
  9
$DIMTIH
 70
     0
  9
$DIMTOH
 70
     0
  9
$DIMSE1
 70
     0
  9
$DIMSE2
 70
     0
  9
$DIMTAD
 70
     1
  9
$DIMZIN
 70
     8
  9
$DIMBLK
  1

  9
$DIMASO
 70
     1
  9
$DIMSHO
 70
     1
  9
$DIMPOST
  1

  9
$DIMAPOST
  1

  9
$DIMALT
 70
     0
  9
$DIMALTD
 70
     3
  9
$DIMALTF
 40
0.03937007874016
  9
$DIMLFAC
 40
1.0
  9
$DIMTOFL
 70
     1
  9
$DIMTVP
 40
0.0
  9
$DIMTIX
 70
     0
  9
$DIMSOXD
 70
     0
  9
$DIMSAH
 70
     0
  9
$DIMBLK1
  1

  9
$DIMBLK2
  1

  9
$DIMSTYLE
  2
ISO-25
  9
$DIMCLRD
 70
     0
  9
$DIMCLRE
 70
     0
  9
$DIMCLRT
 70
     0
  9
$DIMTFAC
 40
1.0
  9
$DIMGAP
 40
0.625
  9
$LUNITS
 70
     2
  9
$LUPREC
 70
     4
  9
$SKETCHINC
 40
1.0
  9
$FILLETRAD
 40
0.0
  9
$AUNITS
 70
     0
  9
$AUPREC
 70
     0
  9
$MENU
  1
.
  9
$ELEVATION
 40
0.0
  9
$PELEVATION
 40
0.0
  9
$THICKNESS
 40
0.0
  9
$LIMCHECK
 70
     0
  9
$BLIPMODE
 70
     0
  9
$CHAMFERA
 40
0.0
  9
$CHAMFERB
 40
0.0
  9
$SKPOLY
 70
     0
  9
$TDCREATE
 40
2457200.9642029628
  9
$TDUPDATE
 40
2457474.6875203592
  9
$TDINDWG
 40
0.3619940046
  9
$TDUSRTIMER
 40
0.3619939005
  9
$USRTIMER
 70
     1
  9
$ANGBASE
 50
0.0
  9
$ANGDIR
 70
     0
  9
$PDMODE
 70
     0
  9
$PDSIZE
 40
0.0
  9
$PLINEWID
 40
0.0
  9
$COORDS
 70
     1
  9
$SPLFRAME
 70
     0
  9
$SPLINETYPE
 70
     6
  9
$SPLINESEGS
 70
     8
  9
$ATTDIA
 70
     1
  9
$ATTREQ
 70
     1
  9
$HANDLING
 70
     1
  9
$HANDSEED
  5
1016
  9
$SURFTAB1
 70
     6
  9
$SURFTAB2
 70
     6
  9
$SURFTYPE
 70
     6
  9
$SURFU
 70
     6
  9
$SURFV
 70
     6
  9
$UCSNAME
  2

  9
$UCSORG
 10
0.0
 20
0.0
 30
0.0
  9
$UCSXDIR
 10
1.0
 20
0.0
 30
0.0
  9
$UCSYDIR
 10
0.0
 20
1.0
 30
0.0
  9
$PUCSNAME
  2

  9
$PUCSORG
 10
0.0
 20
0.0
 30
0.0
  9
$PUCSXDIR
 10
1.0
 20
0.0
 30
0.0
  9
$PUCSYDIR
 10
0.0
 20
1.0
 30
0.0
  9
$USERI1
 70
     0
  9
$USERI2
 70
     0
  9
$USERI3
 70
     0
  9
$USERI4
 70
     0
  9
$USERI5
 70
     0
  9
$USERR1
 40
0.0
  9
$USERR2
 40
0.0
  9
$USERR3
 40
0.0
  9
$USERR4
 40
0.0
  9
$USERR5
 40
0.0
  9
$WORLDVIEW
 70
     1
  9
$SHADEDGE
 70
     3
  9
$SHADEDIF
 70
    70
  9
$TILEMODE
 70
     1
  9
$MAXACTVP
 70
    64
  9
$PLIMCHECK
 70
     0
  9
$PEXTMIN
 10
0.0
 20
0.0
 30
0.0
  9
$PEXTMAX
 10
0.0
 20
0.0
 30
0.0
  9
$PLIMMIN
 10
0.0
 20
0.0
  9
$PLIMMAX
 10
12.0
 20
9.0
  9
$UNITMODE
 70
     0
  9
$VISRETAIN
 70
     1
  9
$PLINEGEN
 70
     0
  9
$PSLTSCALE
 70
     1
  0
ENDSEC
  0
SECTION
  2
TABLES
  0
TABLE
  2
VPORT
 70
     1
  0
VPORT
  2
*ACTIVE
 70
     0
 10
0.0
 20
0.0
 11
1.0
 21
1.0
 12
17.963667298024799
 22
28.62368657626692
 13
0.0
 23
0.0
 14
10.0
 24
10.0
 15
10.0
 25
10.0
 16
0.0
 26
0.0
 36
1.0
 17
0.0
 27
0.0
 37
0.0
 40
205.61088214476101
 41
2.1259541984732819
 42
50.0
 43
0.0
 44
0.0
 50
0.0
 51
0.0
 71
     0
 72
  1000
 73
     1
 74
     3
 75
     0
 76
     1
 77
     0
 78
     0
  0
ENDTAB
  0
TABLE
  2
LTYPE
 70
     1
  0
LTYPE
  2
CONTINUOUS
 70
     0
  3
Solid line
 72
    65
 73
     0
 40
0.0
  0
ENDTAB
  0
TABLE
  2
LAYER
 70
     1
  0
LAYER
  2
0
 70
     0
 62
     7
  6
CONTINUOUS
  0
ENDTAB
  0
TABLE
  2
STYLE
 70
     3
  0
STYLE
  2
STANDARD
 70
     0
 40
0.0
 41
1.0
 50
0.0
 71
     0
 42
2.5
  3
txt
  4

  0
STYLE
  2
ANNOTATIVE
 70
     0
 40
0.0
 41
1.0
 50
0.0
 71
     0
 42
2.5
  3
txt
  4

  0
STYLE
  2
2_5MM_TEXT
 70
     0
 40
2.5
 41
0.7
 50
0.0
 71
     0
 42
2.5
  3
romans.shx
  4

  0
ENDTAB
  0
TABLE
  2
VIEW
 70
     0
  0
ENDTAB
  0
TABLE
  2
UCS
 70
     0
  0
ENDTAB
  0
TABLE
  2
APPID
 70
    11
  0
APPID
  2
ACAD
 70
     0
  0
APPID
  2
ACADANNOTATIVE
 70
     0
  0
APPID
  2
ACAD_PSEXT
 70
     0
  0
APPID
  2
ACADANNOPO
 70
     0
  0
APPID
  2
ACAD_DSTYLE_DIMJAG
 70
     0
  0
APPID
  2
ACAD_DSTYLE_DIMTALN
 70
     0
  0
APPID
  2
ACAD_MLEADERVER
 70
     0
  0
APPID
  2
ACAD_NAV_VCDISPLAY
 70
     0
  0
APPID
  2
ACAD_DSTYLE_DIMBREAK
 70
     0
  0
APPID
  2
ACAECLAYERSTANDARD
 70
     0
  0
APPID
  2
ACAD_EXEMPT_FROM_CAD_STANDARDS
 70
     0
  0
ENDTAB
  0
TABLE
  2
DIMSTYLE
 70
     4
  0
DIMSTYLE
  2
STANDARD
 70
     0
  3

  4

  5

  6

  7

 40
1.0
 41
0.18
 42
0.0625
 43
0.38
 44
0.18
 45
0.0
 46
0.0
 47
0.0
 48
0.0
140
0.18
141
0.09
142
0.0
143
25.399999999999999
144
1.0
145
0.0
146
1.0
147
0.09
 71
     0
 72
     0
 73
     1
 74
     1
 75
     0
 76
     0
 77
     0
 78
     0
170
     0
171
     2
172
     0
173
     0
174
     0
175
     0
176
     0
177
     0
178
     0
  0
DIMSTYLE
  2
ANNOTATIVE
 70
     0
  3

  4

  5

  6

  7

 40
0.0
 41
2.5
 42
0.625
 43
3.75
 44
1.25
 45
0.0
 46
0.0
 47
0.0
 48
0.0
140
2.5
141
2.5
142
0.0
143
0.03937007874016
144
1.0
145
0.0
146
1.0
147
0.625
 71
     0
 72
     0
 73
     0
 74
     0
 75
     0
 76
     0
 77
     1
 78
     8
170
     0
171
     3
172
     1
173
     0
174
     0
175
     0
176
     0
177
     0
178
     0
  0
DIMSTYLE
  2
ISO-25
 70
     0
  3

  4

  5

  6

  7

 40
1.0
 41
2.5
 42
0.625
 43
3.75
 44
1.25
 45
0.0
 46
0.0
 47
0.0
 48
0.0
140
2.5
141
2.5
142
0.0
143
0.03937007874016
144
1.0
145
0.0
146
1.0
147
0.625
 71
     0
 72
     0
 73
     0
 74
     0
 75
     0
 76
     0
 77
     1
 78
     8
170
     0
171
     3
172
     1
173
     0
174
     0
175
     0
176
     0
177
     0
178
     0
  0
DIMSTYLE
  2
2_5MM_DIM
 70
     0
  3

  4

  5

  6

  7

 40
1.0
 41
2.5
 42
2.5
 43
5.0
 44
1.0
 45
0.0
 46
0.0
 47
0.0
 48
0.0
140
2.5
141
2.5
142
0.0
143
0.03937007874016
144
1.0
145
0.0
146
1.0
147
1.25
 71
     0
 72
     0
 73
     0
 74
     0
 75
     0
 76
     0
 77
     1
 78
     8
170
     0
171
     3
172
     1
173
     0
174
     0
175
     0
176
   142
177
   142
178
   142
  0
ENDTAB
  0
ENDSEC
  0
SECTION
  2
BLOCKS
  0
BLOCK
  8
0
  2
$MODEL_SPACE
 70
     0
 10
0.0
 20
0.0
 30
0.0
  3
$MODEL_SPACE
  1

  0
ENDBLK
  5
EE8
  8
0
  0
BLOCK
 67
     1
  8
0
  2
$PAPER_SPACE
 70
     0
 10
0.0
 20
0.0
 30
0.0
  3
$PAPER_SPACE
  1

  0
ENDBLK
  5
EE4
 67
     1
  8
0
  0
ENDSEC
  0
SECTION
  2
ENTITIES
  0
CIRCLE
  5
C7C
  8
0
 10
0.0
 20
74.0
 30
0.0
 40
2.5
  0
CIRCLE
  5
C7D
  8
0
 10
0.0
 20
78.5
 30
0.0
 40
1.0
  0
CIRCLE
  5
C7E
  8
0
 10
4.5
 20
74.0
 30
0.0
 40
1.0
  0
CIRCLE
  5
C7F
  8
0
 10
-4.5
 20
74.000000000000014
 30
0.0
 40
1.0
  0
CIRCLE
  5
C80
  8
0
 10
0.0
 20
69.5
 30
0.0
 40
1.0
  0
CIRCLE
  5
CB3
  8
0
 10
-26.600659095274391
 20
100.6006590952742
 30
0.0
 40
1.1000000000000001
  0
CIRCLE
  5
CC4
  8
0
 10
86.000000000000014
 20
73.999999999999986
 30
0.0
 40
2.5
  0
CIRCLE
  5
CC5
  8
0
 10
86.000000000000014
 20
78.499999999999986
 30
0.0
 40
1.0
  0
CIRCLE
  5
CC6
  8
0
 10
81.500000000000014
 20
73.999999999999986
 30
0.0
 40
1.0
  0
CIRCLE
  5
CC7
  8
0
 10
90.5
 20
74.0
 30
0.0
 40
1.0
  0
CIRCLE
  5
CC8
  8
0
 10
86.000000000000014
 20
69.499999999999986
 30
0.0
 40
1.0
  0
CIRCLE
  5
CCF
  8
0
 10
112.60065909527439
 20
100.6006590952742
 30
0.0
 40
1.1000000000000001
  0
CIRCLE
  5
CDA
  8
0
 10
-0.0000000000000094
 20
0.0
 30
0.0
 40
2.5
  0
CIRCLE
  5
CDB
  8
0
 10
-0.0000000000000109
 20
-4.5
 30
0.0
 40
1.0
  0
CIRCLE
  5
CDC
  8
0
 10
4.4999999999999902
 20
0.0
 30
0.0
 40
1.0
  0
CIRCLE
  5
CDD
  8
0
 10
-4.500000000000008
 20
-0.0000000000000142
 30
0.0
 40
1.0
  0
CIRCLE
  5
CDE
  8
0
 10
-0.000000000000008
 20
4.5
 30
0.0
 40
1.0
  0
CIRCLE
  5
CE5
  8
0
 10
-26.600659095274398
 20
-26.600659095274231
 30
0.0
 40
1.1000000000000001
  0
CIRCLE
  5
CF0
  8
0
 10
86.0
 20
-0.0000000000000142
 30
0.0
 40
2.5
  0
CIRCLE
  5
CF1
  8
0
 10
86.0
 20
-4.5000000000000142
 30
0.0
 40
1.0
  0
CIRCLE
  5
CF2
  8
0
 10
81.5
 20
-0.0000000000000142
 30
0.0
 40
1.0
  0
CIRCLE
  5
CF3
  8
0
 10
90.5
 20
-0.0000000000000284
 30
0.0
 40
1.0
  0
CIRCLE
  5
CF4
  8
0
 10
86.0
 20
4.499999999999984
 30
0.0
 40
1.0
  0
CIRCLE
  5
CFB
  8
0
 10
112.60065909527439
 20
-26.600659095274271
 30
0.0
 40
1.1000000000000001
  0
CIRCLE
  5
D0C
  8
0
 10
-19.205978566607669
 20
37.000000000000007
 30
0.0
 40
1.1000000000000001
  0
CIRCLE
  5
D0E
  8
0
 10
105.2059785666077
 20
36.999999999999972
 30
0.0
 40
1.1000000000000001
  0
CIRCLE
  5
D48
  8
0
 10
43.000000000000021
 20
-23.460194986223311
 30
0.0
 40
1.1000000000000001
  0
CIRCLE
  5
D4A
  8
0
 10
43.000000000000021
 20
-0.4601949862232857
 30
0.0
 40
1.1000000000000001
  0
CIRCLE
  5
D4B
  8
0
 10
43.000000000000021
 20
36.999999999999972
 30
0.0
 40
1.1000000000000001
  0
CIRCLE
  5
D4D
  8
0
 10
43.000000000000021
 20
17.999999999999961
 30
0.0
 40
1.1000000000000001
  0
CIRCLE
  5
D4E
  8
0
 10
43.000000000000021
 20
97.460194986223243
 30
0.0
 40
1.1000000000000001
  0
CIRCLE
  5
D4F
  8
0
 10
43.000000000000021
 20
74.460194986223229
 30
0.0
 40
1.1000000000000001
  0
CIRCLE
  5
D50
  8
0
 10
43.000000000000021
 20
36.999999999999972
 30
0.0
 40
1.1000000000000001
  0
CIRCLE
  5
D51
  8
0
 10
43.000000000000021
 20
55.999999999999972
 30
0.0
 40
1.1000000000000001
  0
LINE
  5
D6C
  8
0
 10
-0.0000000000000023
 20
0.0
 30
0.0
 11
32.999999999999993
 21
0.0
 31
0.0
  0
CIRCLE
  5
D8A
  8
0
 10
43.000000000000021
 20
-12.4601949862233
 30
0.0
 40
4.0
  0
CIRCLE
  5
D8C
  8
0
 10
43.000000000000021
 20
86.460194986223215
 30
0.0
 40
4.0
  0
POLYLINE
  5
DAF
  8
0
 66
     1
 10
0.0
 20
0.0
 30
0.0
  0
VERTEX
  5
F8A
  8
0
 10
85.928567709205012
 20
-6.9996355210705046
 30
0.0
 42
-0.4082482904638595
  0
VERTEX
  5
F8B
  8
0
 10
79.00036447892947
 20
-0.0714322907950376
 30
0.0
 42
0.0787017068246202
  0
VERTEX
  5
F8C
  8
0
 10
59.399340904724973
 20
19.529591283409101
 30
0.0
 42
0.8583950752789533
  0
VERTEX
  5
F8D
  8
0
 10
105.5295912834091
 20
-26.60065909527415
 30
0.0
 42
0.0787017068246164
  0
VERTEX
  5
F8E
  8
0
 10
86.000000000000483
 20
-7.0710678118658734
 30
0.0
  0
SEQEND
  5
F8F
  8
0
  0
POLYLINE
  5
DB0
  8
0
 66
     1
 10
0.0
 20
0.0
 30
0.0
  0
VERTEX
  5
F90
  8
0
 10
86.071432290794675
 20
6.9996355210704788
 30
0.0
 42
-0.4082482904638763
  0
VERTEX
  5
F91
  8
0
 10
92.999635521070559
 20
0.0714322907948031
 30
0.0
 42
0.0787017068246172
  0
VERTEX
  5
F92
  8
0
 10
112.60065909527449
 20
-19.529591283408632
 30
0.0
 42
0.8583950752789572
  0
VERTEX
  5
F93
  8
0
 10
66.470408716590725
 20
26.600659095273809
 30
0.0
 42
0.0787017068246175
  0
VERTEX
  5
F94
  8
0
 10
85.999999999999844
 20
7.0710678118653458
 30
0.0
  0
SEQEND
  5
F95
  8
0
  0
POLYLINE
  5
DB3
  8
0
 66
     1
 10
0.0
 20
0.0
 30
0.0
  0
VERTEX
  5
F96
  8
0
 10
-0.0000000000003268
 20
-7.0710678118657579
 30
0.0
 42
0.0787017068246172
  0
VERTEX
  5
F97
  8
0
 10
-19.529591283409051
 20
-26.600659095274182
 30
0.0
 42
0.8583950752789524
  0
VERTEX
  5
F98
  8
0
 10
26.600659095274722
 20
19.529591283408891
 30
0.0
 42
0.0787017068246194
  0
VERTEX
  5
F99
  8
0
 10
6.999635521070501
 20
-0.0714322907950731
 30
0.0
 42
-0.4082482904638577
  0
VERTEX
  5
F9A
  8
0
 10
0.071432290795018
 20
-6.9996355210704921
 30
0.0
  0
SEQEND
  5
F9B
  8
0
  0
POLYLINE
  5
DB4
  8
0
 66
     1
 10
0.0
 20
0.0
 30
0.0
  0
VERTEX
  5
F9C
  8
0
 10
-0.0000000000000213
 20
7.0710678118652321
 30
0.0
 42
0.0787017068246176
  0
VERTEX
  5
F9D
  8
0
 10
19.529591283409189
 20
26.60065909527367
 30
0.0
 42
0.8583950752789554
  0
VERTEX
  5
F9E
  8
0
 10
-26.600659095274541
 20
-19.529591283408571
 30
0.0
 42
0.0787017068246176
  0
VERTEX
  5
F9F
  8
0
 10
-6.9996355210706724
 20
0.0714322907947391
 30
0.0
 42
-0.4082482904638744
  0
VERTEX
  5
FA0
  8
0
 10
-0.0714322907947251
 20
6.999635521070493
 30
0.0
  0
SEQEND
  5
FA1
  8
0
  0
POLYLINE
  5
DB7
  8
0
 66
     1
 10
0.0
 20
0.0
 30
0.0
  0
VERTEX
  5
FA2
  8
0
 10
86.000000000000355
 20
81.071067811865774
 30
0.0
 42
0.0787017068246169
  0
VERTEX
  5
FA3
  8
0
 10
105.5295912834091
 20
100.6006590952741
 30
0.0
 42
0.8583950752789524
  0
VERTEX
  5
FA4
  8
0
 10
59.399340904725172
 20
54.470408716590981
 30
0.0
 42
0.0787017068246194
  0
VERTEX
  5
FA5
  8
0
 10
79.000364478929427
 20
74.071432290794931
 30
0.0
 42
-0.4082482904638595
  0
VERTEX
  5
FA6
  8
0
 10
85.928567709205012
 20
80.999635521070445
 30
0.0
  0
SEQEND
  5
FA7
  8
0
  0
POLYLINE
  5
DB8
  8
0
 66
     1
 10
0.0
 20
0.0
 30
0.0
  0
VERTEX
  5
FA8
  8
0
 10
85.999999999999815
 20
66.92893218813461
 30
0.0
 42
0.0787017068246186
  0
VERTEX
  5
FA9
  8
0
 10
66.470408716590455
 20
47.39934090472579
 30
0.0
 42
0.8583950752789574
  0
VERTEX
  5
FAA
  8
0
 10
112.60065909527459
 20
93.529591283408507
 30
0.0
 42
0.0787017068246186
  0
VERTEX
  5
FAB
  8
0
 10
92.999635521070303
 20
73.928567709204785
 30
0.0
 42
-0.4082482904638764
  0
VERTEX
  5
FAC
  8
0
 10
86.071432290794675
 20
67.000364478929498
 30
0.0
  0
SEQEND
  5
FAD
  8
0
  0
POLYLINE
  5
DBA
  8
0
 66
     1
 10
0.0
 20
0.0
 30
0.0
  0
VERTEX
  5
FAE
  8
0
 10
-0.0714322907947174
 20
67.000364478929498
 30
0.0
 42
-0.4082482904638744
  0
VERTEX
  5
FAF
  8
0
 10
-6.9996355210704717
 20
73.928567709205012
 30
0.0
 42
0.0787017068246184
  0
VERTEX
  5
FB0
  8
0
 10
-26.600659095274601
 20
93.52959128340845
 30
0.0
 42
0.8583950752789542
  0
VERTEX
  5
FB1
  8
0
 10
19.52959128340936
 20
47.399340904726039
 30
0.0
 42
0.0787017068246184
  0
VERTEX
  5
FB2
  8
0
 10
-0.0000000000000142
 20
66.92893218813478
 30
0.0
  0
SEQEND
  5
FB3
  8
0
  0
POLYLINE
  5
DBB
  8
0
 66
     1
 10
0.0
 20
0.0
 30
0.0
  0
VERTEX
  5
FB4
  8
0
 10
0.0714322907950308
 20
80.999635521070445
 30
0.0
 42
-0.4082482904638577
  0
VERTEX
  5
FB5
  8
0
 10
6.999635521070501
 20
74.071432290795059
 30
0.0
 42
0.0787017068246183
  0
VERTEX
  5
FB6
  8
0
 10
26.600659095274452
 20
54.470408716591301
 30
0.0
 42
0.858395075278951
  0
VERTEX
  5
FB7
  8
0
 10
-19.52959128340893
 20
100.6006590952742
 30
0.0
 42
0.0787017068246184
  0
VERTEX
  5
FB8
  8
0
 10
-0.0000000000000568
 20
81.071067811865575
 30
0.0
  0
SEQEND
  5
FB9
  8
0
  0
POLYLINE
  5
DC2
  8
0
 66
     1
 10
0.0
 20
0.0
 30
0.0
 70
     1
  0
VERTEX
  5
FBA
  8
0
 10
114.1424945589406
 20
26.999999999999929
 30
0.0
 42
-0.2118684315921428
  0
VERTEX
  5
FBB
  8
0
 10
109.7059785666077
 20
36.999999999999993
 30
0.0
 42
-0.2118684315921412
  0
VERTEX
  5
FBC
  8
0
 10
114.1424945589406
 20
46.999999999999993
 30
0.0
 42
0.3880172886689079
  0
VERTEX
  5
FBD
  8
0
 10
115.42679775964309
 20
99.594209767309863
 30
0.0
 42
0.6321971877910805
  0
VERTEX
  5
FBE
  8
0
 10
111.59420976731001
 20
103.42679775964299
 30
0.0
 42
0.330813365970597
  0
VERTEX
  5
FBF
  8
0
 10
65.215390309173316
 20
106.9999999999999
 30
0.0
 42
-0.1011319918162307
  0
VERTEX
  5
FC0
  8
0
 10
43.000000000000021
 20
102.4601949862232
 30
0.0
 42
-0.1011319918162307
  0
VERTEX
  5
FC1
  8
0
 10
20.784609690826532
 20
107.0
 30
0.0
 42
0.3308133659705966
  0
VERTEX
  5
FC2
  8
0
 10
-25.594209767310041
 20
103.42679775964299
 30
0.0
 42
0.6321971877910813
  0
VERTEX
  5
FC3
  8
0
 10
-29.426797759643151
 20
99.594209767309891
 30
0.0
 42
0.3984648638821287
  0
VERTEX
  5
FC4
  8
0
 10
-27.147058865985901
 20
45.999335812757991
 30
0.0
 42
-0.1846655587117521
  0
VERTEX
  5
FC5
  8
0
 10
-23.705978566607669
 20
37.000000000000007
 30
0.0
 42
-0.2118684315921403
  0
VERTEX
  5
FC6
  8
0
 10
-28.14249455894053
 20
27.00000000000005
 30
0.0
 42
0.3880172886689095
  0
VERTEX
  5
FC7
  8
0
 10
-29.426797759643168
 20
-25.594209767309849
 30
0.0
 42
0.6321971877910834
  0
VERTEX
  5
FC8
  8
0
 10
-25.594209767310151
 20
-29.42679775964292
 30
0.0
 42
0.3308133659705983
  0
VERTEX
  5
FC9
  8
0
 10
20.784609690826429
 20
-33.000000000000043
 30
0.0
 42
-0.1011319918162311
  0
VERTEX
  5
FCA
  8
0
 10
43.0
 20
-28.46019498622324
 30
0.0
 42
-0.1011319918162311
  0
VERTEX
  5
FCB
  8
0
 10
65.215390309173216
 20
-32.999999999999858
 30
0.0
 42
0.3308133659705988
  0
VERTEX
  5
FCC
  8
0
 10
111.59420976731001
 20
-29.426797759643051
 30
0.0
 42
0.632197187791081
  0
VERTEX
  5
FCD
  8
0
 10
115.42679775964309
 20
-25.594209767309891
 30
0.0
 42
0.3880172886689081
  0
SEQEND
  5
FCE
  8
0
  0
POLYLINE
  5
F14
  8
0
 66
     1
 10
0.0
 20
0.0
 30
0.0
 70
     1
  0
VERTEX
  5
100C
  8
0
 10
32.500000000000028
 20
48.39230403784434
 30
0.0
 42
0.9999999999999976
  0
VERTEX
  5
100D
  8
0
 10
29.500000000000028
 20
48.39230403784434
 30
0.0
  0
VERTEX
  5
100E
  8
0
 10
29.499999999999972
 20
25.607695962155589
 30
0.0
 42
1.0000000000000011
  0
VERTEX
  5
100F
  8
0
 10
32.500000000000028
 20
25.607695962155589
 30
0.0
  0
SEQEND
  5
1010
  8
0
  0
POLYLINE
  5
F22
  8
0
 66
     1
 10
0.0
 20
0.0
 30
0.0
 70
     1
  0
VERTEX
  5
1011
  8
0
 10
56.500000000000021
 20
48.39230403784434
 30
0.0
 42
0.999999999999998
  0
VERTEX
  5
1012
  8
0
 10
53.500000000000007
 20
48.39230403784434
 30
0.0
  0
VERTEX
  5
1013
  8
0
 10
53.499999999999957
 20
25.607695962155589
 30
0.0
 42
1.0000000000000011
  0
VERTEX
  5
1014
  8
0
 10
56.500000000000021
 20
25.607695962155589
 30
0.0
  0
SEQEND
  5
1015
  8
0
  0
ENDSEC
  0
EOF
