  0
SECTION
  2
HEADER
  9
$ACADVER
  1
AC1027
  9
$ACADMAINTVER
 70
     8
  9
$DWGCODEPAGE
  3
ANSI_1250
  9
$REQUIREDVERSIONS
160
                 0
  9
$INSBASE
 10
0.0
 20
0.0
 30
0.0
  9
$EXTMIN
 10
1.000000000000000E+20
 20
1.000000000000000E+20
 30
1.000000000000000E+20
  9
$EXTMAX
 10
-1.000000000000000E+20
 20
-1.000000000000000E+20
 30
-1.000000000000000E+20
  9
$LIMMIN
 10
0.0
 20
0.0
  9
$LIMMAX
 10
12.0
 20
9.0
  9
$ORTHOMODE
 70
     0
  9
$REGENMODE
 70
     1
  9
$FILLMODE
 70
     1
  9
$QTEXTMODE
 70
     0
  9
$MIRRTEXT
 70
     1
  9
$LTSCALE
 40
1.0
  9
$ATTMODE
 70
     1
  9
$TEXTSIZE
 40
0.2
  9
$TRACEWID
 40
0.05
  9
$TEXTSTYLE
  7
Standard
  9
$CLAYER
  8
0
  9
$CELTYPE
  6
ByLayer
  9
$CECOLOR
 62
   256
  9
$CELTSCALE
 40
1.0
  9
$DISPSILH
 70
     0
  9
$DIMSCALE
 40
1.0
  9
$DIMASZ
 40
0.18
  9
$DIMEXO
 40
0.0625
  9
$DIMDLI
 40
0.38
  9
$DIMRND
 40
0.0
  9
$DIMDLE
 40
0.0
  9
$DIMEXE
 40
0.18
  9
$DIMTP
 40
0.0
  9
$DIMTM
 40
0.0
  9
$DIMTXT
 40
0.18
  9
$DIMCEN
 40
0.09
  9
$DIMTSZ
 40
0.0
  9
$DIMTOL
 70
     0
  9
$DIMLIM
 70
     0
  9
$DIMTIH
 70
     1
  9
$DIMTOH
 70
     1
  9
$DIMSE1
 70
     0
  9
$DIMSE2
 70
     0
  9
$DIMTAD
 70
     0
  9
$DIMZIN
 70
     0
  9
$DIMBLK
  1

  9
$DIMASO
 70
     1
  9
$DIMSHO
 70
     1
  9
$DIMPOST
  1

  9
$DIMAPOST
  1

  9
$DIMALT
 70
     0
  9
$DIMALTD
 70
     2
  9
$DIMALTF
 40
25.4
  9
$DIMLFAC
 40
1.0
  9
$DIMTOFL
 70
     0
  9
$DIMTVP
 40
0.0
  9
$DIMTIX
 70
     0
  9
$DIMSOXD
 70
     0
  9
$DIMSAH
 70
     0
  9
$DIMBLK1
  1

  9
$DIMBLK2
  1

  9
$DIMSTYLE
  2
Standard
  9
$DIMCLRD
 70
     0
  9
$DIMCLRE
 70
     0
  9
$DIMCLRT
 70
     0
  9
$DIMTFAC
 40
1.0
  9
$DIMGAP
 40
0.09
  9
$DIMJUST
 70
     0
  9
$DIMSD1
 70
     0
  9
$DIMSD2
 70
     0
  9
$DIMTOLJ
 70
     1
  9
$DIMTZIN
 70
     0
  9
$DIMALTZ
 70
     0
  9
$DIMALTTZ
 70
     0
  9
$DIMUPT
 70
     0
  9
$DIMDEC
 70
     4
  9
$DIMTDEC
 70
     4
  9
$DIMALTU
 70
     2
  9
$DIMALTTD
 70
     2
  9
$DIMTXSTY
  7
Standard
  9
$DIMAUNIT
 70
     0
  9
$DIMADEC
 70
     0
  9
$DIMALTRND
 40
0.0
  9
$DIMAZIN
 70
     0
  9
$DIMDSEP
 70
    46
  9
$DIMATFIT
 70
     3
  9
$DIMFRAC
 70
     0
  9
$DIMLDRBLK
  1

  9
$DIMLUNIT
 70
     2
  9
$DIMLWD
 70
    -2
  9
$DIMLWE
 70
    -2
  9
$DIMTMOVE
 70
     0
  9
$DIMFXL
 40
1.0
  9
$DIMFXLON
 70
     0
  9
$DIMJOGANG
 40
0.7853981633974483
  9
$DIMTFILL
 70
     0
  9
$DIMTFILLCLR
 70
     0
  9
$DIMARCSYM
 70
     0
  9
$DIMLTYPE
  6

  9
$DIMLTEX1
  6

  9
$DIMLTEX2
  6

  9
$DIMTXTDIRECTION
 70
     0
  9
$LUNITS
 70
     2
  9
$LUPREC
 70
     4
  9
$SKETCHINC
 40
0.1
  9
$FILLETRAD
 40
0.5
  9
$AUNITS
 70
     0
  9
$AUPREC
 70
     0
  9
$MENU
  1
.
  9
$ELEVATION
 40
0.0
  9
$PELEVATION
 40
0.0
  9
$THICKNESS
 40
0.0
  9
$LIMCHECK
 70
     0
  9
$CHAMFERA
 40
0.0
  9
$CHAMFERB
 40
0.0
  9
$CHAMFERC
 40
0.0
  9
$CHAMFERD
 40
0.0
  9
$SKPOLY
 70
     0
  9
$TDCREATE
 40
2457431.584494757
  9
$TDUCREATE
 40
2457431.54282809
  9
$TDUPDATE
 40
2457431.584495382
  9
$TDUUPDATE
 40
2457431.542828715
  9
$TDINDWG
 40
0.0000000116
  9
$TDUSRTIMER
 40
0.0000000116
  9
$USRTIMER
 70
     1
  9
$ANGBASE
 50
0.0
  9
$ANGDIR
 70
     0
  9
$PDMODE
 70
     0
  9
$PDSIZE
 40
0.0
  9
$PLINEWID
 40
0.0
  9
$SPLFRAME
 70
     0
  9
$SPLINETYPE
 70
     6
  9
$SPLINESEGS
 70
     8
  9
$HANDSEED
  5
5D2
  9
$SURFTAB1
 70
     6
  9
$SURFTAB2
 70
     6
  9
$SURFTYPE
 70
     6
  9
$SURFU
 70
     6
  9
$SURFV
 70
     6
  9
$UCSBASE
  2

  9
$UCSNAME
  2

  9
$UCSORG
 10
0.0
 20
0.0
 30
0.0
  9
$UCSXDIR
 10
1.0
 20
0.0
 30
0.0
  9
$UCSYDIR
 10
0.0
 20
1.0
 30
0.0
  9
$UCSORTHOREF
  2

  9
$UCSORTHOVIEW
 70
     0
  9
$UCSORGTOP
 10
0.0
 20
0.0
 30
0.0
  9
$UCSORGBOTTOM
 10
0.0
 20
0.0
 30
0.0
  9
$UCSORGLEFT
 10
0.0
 20
0.0
 30
0.0
  9
$UCSORGRIGHT
 10
0.0
 20
0.0
 30
0.0
  9
$UCSORGFRONT
 10
0.0
 20
0.0
 30
0.0
  9
$UCSORGBACK
 10
0.0
 20
0.0
 30
0.0
  9
$PUCSBASE
  2

  9
$PUCSNAME
  2

  9
$PUCSORG
 10
0.0
 20
0.0
 30
0.0
  9
$PUCSXDIR
 10
1.0
 20
0.0
 30
0.0
  9
$PUCSYDIR
 10
0.0
 20
1.0
 30
0.0
  9
$PUCSORTHOREF
  2

  9
$PUCSORTHOVIEW
 70
     0
  9
$PUCSORGTOP
 10
0.0
 20
0.0
 30
0.0
  9
$PUCSORGBOTTOM
 10
0.0
 20
0.0
 30
0.0
  9
$PUCSORGLEFT
 10
0.0
 20
0.0
 30
0.0
  9
$PUCSORGRIGHT
 10
0.0
 20
0.0
 30
0.0
  9
$PUCSORGFRONT
 10
0.0
 20
0.0
 30
0.0
  9
$PUCSORGBACK
 10
0.0
 20
0.0
 30
0.0
  9
$USERI1
 70
     0
  9
$USERI2
 70
     0
  9
$USERI3
 70
     0
  9
$USERI4
 70
     0
  9
$USERI5
 70
     0
  9
$USERR1
 40
0.0
  9
$USERR2
 40
0.0
  9
$USERR3
 40
0.0
  9
$USERR4
 40
0.0
  9
$USERR5
 40
0.0
  9
$WORLDVIEW
 70
     1
  9
$SHADEDGE
 70
     3
  9
$SHADEDIF
 70
    70
  9
$TILEMODE
 70
     1
  9
$MAXACTVP
 70
    64
  9
$PINSBASE
 10
0.0
 20
0.0
 30
0.0
  9
$PLIMCHECK
 70
     0
  9
$PEXTMIN
 10
1.000000000000000E+20
 20
1.000000000000000E+20
 30
1.000000000000000E+20
  9
$PEXTMAX
 10
-1.000000000000000E+20
 20
-1.000000000000000E+20
 30
-1.000000000000000E+20
  9
$PLIMMIN
 10
0.0
 20
0.0
  9
$PLIMMAX
 10
12.0
 20
9.0
  9
$UNITMODE
 70
     0
  9
$VISRETAIN
 70
     1
  9
$PLINEGEN
 70
     0
  9
$PSLTSCALE
 70
     1
  9
$TREEDEPTH
 70
  3020
  9
$CMLSTYLE
  2
Standard
  9
$CMLJUST
 70
     0
  9
$CMLSCALE
 40
1.0
  9
$PROXYGRAPHICS
 70
     1
  9
$MEASUREMENT
 70
     0
  9
$CELWEIGHT
370
    -1
  9
$ENDCAPS
280
     0
  9
$JOINSTYLE
280
     0
  9
$LWDISPLAY
290
     0
  9
$INSUNITS
 70
     1
  9
$HYPERLINKBASE
  1

  9
$STYLESHEET
  1

  9
$XEDIT
290
     1
  9
$CEPSNTYPE
380
     0
  9
$PSTYLEMODE
290
     1
  9
$FINGERPRINTGUID
  2
{CA54080B-86E5-48FA-B9A2-989DFABB3FC0}
  9
$VERSIONGUID
  2
{FAEB1C32-E019-11D5-929B-00C0DF256EC4}
  9
$EXTNAMES
290
     1
  9
$PSVPSCALE
 40
0.0
  9
$OLESTARTUP
290
     0
  9
$SORTENTS
280
   127
  9
$INDEXCTL
280
     0
  9
$HIDETEXT
280
     1
  9
$XCLIPFRAME
280
     2
  9
$HALOGAP
280
     0
  9
$OBSCOLOR
 70
   257
  9
$OBSLTYPE
280
     0
  9
$INTERSECTIONDISPLAY
280
     0
  9
$INTERSECTIONCOLOR
 70
   257
  9
$DIMASSOC
280
     2
  9
$PROJECTNAME
  1

  9
$CAMERADISPLAY
290
     0
  9
$LENSLENGTH
 40
50.0
  9
$CAMERAHEIGHT
 40
0.0
  9
$STEPSPERSEC
 40
2.0
  9
$STEPSIZE
 40
6.0
  9
$3DDWFPREC
 40
2.0
  9
$PSOLWIDTH
 40
0.25
  9
$PSOLHEIGHT
 40
4.0
  9
$LOFTANG1
 40
1.570796326794897
  9
$LOFTANG2
 40
1.570796326794897
  9
$LOFTMAG1
 40
0.0
  9
$LOFTMAG2
 40
0.0
  9
$LOFTPARAM
 70
     7
  9
$LOFTNORMALS
280
     1
  9
$LATITUDE
 40
37.795
  9
$LONGITUDE
 40
-122.394
  9
$NORTHDIRECTION
 40
0.0
  9
$TIMEZONE
 70
 -8000
  9
$LIGHTGLYPHDISPLAY
280
     1
  9
$TILEMODELIGHTSYNCH
280
     1
  9
$CMATERIAL
347
44
  9
$SOLIDHIST
280
     1
  9
$SHOWHIST
280
     1
  9
$DWFFRAME
280
     2
  9
$DGNFRAME
280
     2
  9
$REALWORLDSCALE
290
     1
  9
$INTERFERECOLOR
 62
   256
  9
$CSHADOW
280
     0
  9
$SHADOWPLANELOCATION
 40
0.0
  0
ENDSEC
  0
SECTION
  2
CLASSES
  0
CLASS
  1
ACDBDICTIONARYWDFLT
  2
AcDbDictionaryWithDefault
  3
ObjectDBX Classes
 90
        0
 91
        4
280
     0
281
     0
  0
CLASS
  1
VISUALSTYLE
  2
AcDbVisualStyle
  3
ObjectDBX Classes
 90
     4095
 91
        4
280
     0
281
     0
  0
CLASS
  1
MATERIAL
  2
AcDbMaterial
  3
ObjectDBX Classes
 90
     1153
 91
        4
280
     0
281
     0
  0
CLASS
  1
SCALE
  2
AcDbScale
  3
ObjectDBX Classes
 90
     1153
 91
        4
280
     0
281
     0
  0
CLASS
  1
SUN
  2
AcDbSun
  3
SCENEOE
 90
     1153
 91
        4
280
     0
281
     0
  0
CLASS
  1
DICTIONARYVAR
  2
AcDbDictionaryVar
  3
ObjectDBX Classes
 90
        0
 91
        4
280
     0
281
     0
  0
ENDSEC
  0
SECTION
  2
TABLES
  0
TABLE
  2
VPORT
  5
8
330
0
100
AcDbSymbolTable
 70
     1
  0
VPORT
  5
29
330
8
100
AcDbSymbolTableRecord
100
AcDbViewportTableRecord
  2
*Active
 70
     0
 10
0.0
 20
0.0
 11
1.0
 21
1.0
 12
0.0
 22
0.0
 13
0.0
 23
0.0
 14
0.5
 24
0.5
 15
0.5
 25
0.5
 16
0.0
 26
0.0
 36
1.0
 17
0.0
 27
0.0
 37
-1000.0
 40
236.6251905270874
 41
1.568147013782542
 42
50.0
 43
325.3256398021667
 44
425.5602264248705
 50
0.0
 51
0.0
 71
     0
 72
   100
 73
     1
 74
     3
 75
     0
 76
     0
 77
     0
 78
     0
281
     0
 65
     1
110
0.0
120
0.0
130
0.0
111
1.0
121
0.0
131
0.0
112
0.0
122
1.0
132
0.0
 79
     0
146
0.0
 60
     3
 61
     5
292
     1
282
     1
141
0.0
142
0.0
 63
   250
361
69
  0
ENDTAB
  0
TABLE
  2
LTYPE
  5
5
330
0
100
AcDbSymbolTable
 70
     1
  0
LTYPE
  5
14
330
5
100
AcDbSymbolTableRecord
100
AcDbLinetypeTableRecord
  2
ByBlock
 70
     0
  3

 72
    65
 73
     0
 40
0.0
  0
LTYPE
  5
15
330
5
100
AcDbSymbolTableRecord
100
AcDbLinetypeTableRecord
  2
ByLayer
 70
     0
  3

 72
    65
 73
     0
 40
0.0
  0
LTYPE
  5
16
330
5
100
AcDbSymbolTableRecord
100
AcDbLinetypeTableRecord
  2
Continuous
 70
     0
  3
Solid line
 72
    65
 73
     0
 40
0.0
  0
ENDTAB
  0
TABLE
  2
LAYER
  5
2
330
0
100
AcDbSymbolTable
 70
     3
  0
LAYER
  5
10
330
2
100
AcDbSymbolTableRecord
100
AcDbLayerTableRecord
  2
0
 70
     0
 62
     7
  6
Continuous
370
    -3
390
F
347
46
348
0
  0
LAYER
  5
6A
330
2
100
AcDbSymbolTableRecord
100
AcDbLayerTableRecord
  2
ProfileEdges
 70
     0
 62
     7
  6
Continuous
370
    -3
390
F
347
46
348
0
  0
LAYER
  5
6B
330
2
100
AcDbSymbolTableRecord
100
AcDbLayerTableRecord
  2
SectionCutEdges
 70
     0
 62
     7
  6
Continuous
370
    -3
390
F
347
46
348
0
  0
ENDTAB
  0
TABLE
  2
STYLE
  5
3
330
0
100
AcDbSymbolTable
 70
     1
  0
STYLE
  5
11
330
3
100
AcDbSymbolTableRecord
100
AcDbTextStyleTableRecord
  2
Standard
 70
     0
 40
0.0
 41
1.0
 50
0.0
 71
     0
 42
0.2
  3
txt
  4

  0
ENDTAB
  0
TABLE
  2
VIEW
  5
6
330
0
100
AcDbSymbolTable
 70
     0
  0
ENDTAB
  0
TABLE
  2
UCS
  5
7
330
0
100
AcDbSymbolTable
 70
     0
  0
ENDTAB
  0
TABLE
  2
APPID
  5
9
330
0
100
AcDbSymbolTable
 70
     1
  0
APPID
  5
12
330
9
100
AcDbSymbolTableRecord
100
AcDbRegAppTableRecord
  2
ACAD
 70
     0
  0
ENDTAB
  0
TABLE
  2
DIMSTYLE
  5
A
330
0
100
AcDbSymbolTable
 70
     1
100
AcDbDimStyleTable
  0
DIMSTYLE
105
27
330
A
100
AcDbSymbolTableRecord
100
AcDbDimStyleTableRecord
  2
Standard
 70
     0
178
     0
340
11
  0
ENDTAB
  0
TABLE
  2
BLOCK_RECORD
  5
1
330
0
100
AcDbSymbolTable
 70
     1
  0
BLOCK_RECORD
  5
1F
330
1
100
AcDbSymbolTableRecord
100
AcDbBlockTableRecord
  2
*Model_Space
340
22
 70
     0
280
     1
281
     0
  0
BLOCK_RECORD
  5
1B
330
1
100
AcDbSymbolTableRecord
100
AcDbBlockTableRecord
  2
*Paper_Space
340
1E
 70
     0
280
     1
281
     0
  0
BLOCK_RECORD
  5
23
330
1
100
AcDbSymbolTableRecord
100
AcDbBlockTableRecord
  2
*Paper_Space0
340
26
 70
     0
280
     1
281
     0
  0
ENDTAB
  0
ENDSEC
  0
SECTION
  2
BLOCKS
  0
BLOCK
  5
20
330
1F
100
AcDbEntity
  8
0
100
AcDbBlockBegin
  2
*Model_Space
 70
     0
 10
0.0
 20
0.0
 30
0.0
  3
*Model_Space
  1
*Model_Space
  0
ENDBLK
  5
21
330
1F
100
AcDbEntity
  8
0
100
AcDbBlockEnd
  0
BLOCK
  5
1C
330
1B
100
AcDbEntity
 67
     1
  8
0
100
AcDbBlockBegin
  2
*Paper_Space
 70
     0
 10
0.0
 20
0.0
 30
0.0
  3
*Paper_Space
  1
*Paper_Space
  0
ENDBLK
  5
1D
330
1B
100
AcDbEntity
 67
     1
  8
0
100
AcDbBlockEnd
  0
BLOCK
  5
24
330
23
100
AcDbEntity
  8
0
100
AcDbBlockBegin
  2
*Paper_Space0
 70
     0
 10
0.0
 20
0.0
 30
0.0
  3
*Paper_Space0
  1
*Paper_Space0
  0
ENDBLK
  5
25
330
23
100
AcDbEntity
  8
0
100
AcDbBlockEnd
  0
ENDSEC
  0
SECTION
  2
ENTITIES
  0
LINE
  5
6C
330
1F
100
AcDbEntity
  8
0
100
AcDbLine
 10
-2.33161221495241
 20
16.83798823305974
 30
0.0
 11
-3.002875380562242
 21
15.75841218747524
 31
0.0
  0
LINE
  5
6D
330
1F
100
AcDbEntity
  8
0
100
AcDbLine
 10
-1.616022227190155
 20
17.88870686576672
 30
0.0
 11
-2.33161221495241
 21
16.83798823305974
 31
0.0
  0
LINE
  5
6E
330
1F
100
AcDbEntity
  8
0
100
AcDbLine
 10
-0.8573441855722655
 20
18.90874917119878
 30
0.0
 11
-1.616022227190155
 21
17.88870686576672
 31
0.0
  0
LINE
  5
6F
330
1F
100
AcDbEntity
  8
0
100
AcDbLine
 10
-0.0568914487570233
 20
19.89634933919604
 30
0.0
 11
-0.8573441855722655
 21
18.90874917119878
 31
0.0
  0
LINE
  5
70
330
1F
100
AcDbEntity
  8
0
100
AcDbLine
 10
0.7839503078120678
 20
20.84979772065888
 30
0.0
 11
-0.0568914487570233
 21
19.89634933919604
 31
0.0
  0
LINE
  5
71
330
1F
100
AcDbEntity
  8
0
100
AcDbLine
 10
1.66372549066705
 20
21.76744378714438
 30
0.0
 11
0.7839503078120678
 21
20.84979772065888
 31
0.0
  0
LINE
  5
72
330
1F
100
AcDbEntity
  8
0
100
AcDbLine
 10
1.66372549066705
 20
21.76744378714438
 30
0.0
 11
36.85996689583028
 21
56.98210568820451
 31
0.0
  0
LINE
  5
73
330
1F
100
AcDbEntity
  8
0
100
AcDbLine
 10
37.75370824192577
 20
57.68503584486294
 30
0.0
 11
36.85996689583028
 21
56.98210568820451
 31
0.0
  0
LINE
  5
74
330
1F
100
AcDbEntity
  8
0
100
AcDbLine
 10
38.65611250082867
 20
58.37680961740177
 30
0.0
 11
37.75370824192577
 21
57.68503584486294
 31
0.0
  0
LINE
  5
75
330
1F
100
AcDbEntity
  8
0
100
AcDbLine
 10
39.56704041836944
 20
59.05732025501502
 30
0.0
 11
38.65611250082867
 21
58.37680961740177
 31
0.0
  0
LINE
  5
76
330
1F
100
AcDbEntity
  8
0
100
AcDbLine
 10
40.48635142505196
 20
59.72646274496166
 30
0.0
 11
39.56704041836944
 21
59.05732025501502
 31
0.0
  0
LINE
  5
77
330
1F
100
AcDbEntity
  8
0
100
AcDbLine
 10
41.41390365774771
 20
60.38413382877209
 30
0.0
 11
40.48635142505196
 21
59.72646274496166
 31
0.0
  0
LINE
  5
78
330
1F
100
AcDbEntity
  8
0
100
AcDbLine
 10
42.34955398158591
 20
61.03023201818365
 30
0.0
 11
41.41390365774771
 21
60.38413382877209
 31
0.0
  0
LINE
  5
79
330
1F
100
AcDbEntity
  8
0
100
AcDbLine
 10
43.29315801204255
 20
61.66465761079925
 30
0.0
 11
42.34955398158591
 21
61.03023201818365
 31
0.0
  0
LINE
  5
7A
330
1F
100
AcDbEntity
  8
0
100
AcDbLine
 10
44.24457013722005
 20
62.28731270547452
 30
0.0
 11
43.29315801204255
 21
61.66465761079925
 31
0.0
  0
LINE
  5
7B
330
1F
100
AcDbEntity
  8
0
100
AcDbLine
 10
45.20364354031748
 20
62.89810121742526
 30
0.0
 11
44.24457013722005
 21
62.28731270547452
 31
0.0
  0
LINE
  5
7C
330
1F
100
AcDbEntity
  8
0
100
AcDbLine
 10
46.17023022228662
 20
63.49692889305371
 30
0.0
 11
45.20364354031748
 21
62.89810121742526
 31
0.0
  0
LINE
  5
7D
330
1F
100
AcDbEntity
  8
0
100
AcDbLine
 10
47.14418102467184
 20
64.0837033244954
 30
0.0
 11
46.17023022228662
 21
63.49692889305371
 31
0.0
  0
LINE
  5
7E
330
1F
100
AcDbEntity
  8
0
100
AcDbLine
 10
48.12534565262389
 20
64.65833396387586
 30
0.0
 11
47.14418102467184
 21
64.0837033244954
 31
0.0
  0
LINE
  5
7F
330
1F
100
AcDbEntity
  8
0
100
AcDbLine
 10
51.02484058923527
 20
66.88319468024642
 30
0.0
 11
48.12534565262389
 21
64.65833396387586
 31
0.0
  0
LINE
  5
80
330
1F
100
AcDbEntity
  8
0
100
AcDbLine
 10
53.24970130560583
 20
69.78268961685816
 30
0.0
 11
51.02484058923527
 21
66.88319468024642
 31
0.0
  0
LINE
  5
81
330
1F
100
AcDbEntity
  8
0
100
AcDbLine
 10
54.64830722067075
 20
73.15922298542255
 30
0.0
 11
53.24970130560583
 21
69.78268961685816
 31
0.0
  0
LINE
  5
82
330
1F
100
AcDbEntity
  8
0
100
AcDbLine
 10
55.12534565262374
 20
76.78268961685802
 30
0.0
 11
54.64830722067075
 21
73.15922298542255
 31
0.0
  0
LINE
  5
83
330
1F
100
AcDbEntity
  8
0
100
AcDbLine
 10
54.64830722067075
 20
80.4061562482935
 30
0.0
 11
55.12534565262374
 21
76.78268961685802
 31
0.0
  0
LINE
  5
84
330
1F
100
AcDbEntity
  8
0
100
AcDbLine
 10
53.24970130560583
 20
83.78268961685824
 30
0.0
 11
54.64830722067075
 21
80.4061562482935
 31
0.0
  0
LINE
  5
85
330
1F
100
AcDbEntity
  8
0
100
AcDbLine
 10
51.02484058923527
 20
86.68218455346961
 30
0.0
 11
53.24970130560583
 21
83.78268961685824
 31
0.0
  0
LINE
  5
86
330
1F
100
AcDbEntity
  8
0
100
AcDbLine
 10
48.12534565262353
 20
88.90704526984018
 30
0.0
 11
51.02484058923527
 21
86.68218455346961
 31
0.0
  0
LINE
  5
87
330
1F
100
AcDbEntity
  8
0
100
AcDbLine
 10
44.74881228405916
 20
90.30565118490509
 30
0.0
 11
48.12534565262353
 21
88.90704526984018
 31
0.0
  0
LINE
  5
88
330
1F
100
AcDbEntity
  8
0
100
AcDbLine
 10
41.12534565262368
 20
90.78268961685808
 30
0.0
 11
44.74881228405916
 21
90.30565118490509
 31
0.0
  0
LINE
  5
89
330
1F
100
AcDbEntity
  8
0
100
AcDbLine
 10
37.5018790211882
 20
90.30565118490509
 30
0.0
 11
41.12534565262368
 21
90.78268961685808
 31
0.0
  0
LINE
  5
8A
330
1F
100
AcDbEntity
  8
0
100
AcDbLine
 10
34.12534565262347
 20
88.90704526984018
 30
0.0
 11
37.5018790211882
 21
90.30565118490509
 31
0.0
  0
LINE
  5
8B
330
1F
100
AcDbEntity
  8
0
100
AcDbLine
 10
31.22585071601208
 20
86.68218455346961
 30
0.0
 11
34.12534565262347
 21
88.90704526984018
 31
0.0
  0
LINE
  5
8C
330
1F
100
AcDbEntity
  8
0
100
AcDbLine
 10
29.00098999964152
 20
83.78268961685787
 30
0.0
 11
31.22585071601208
 21
86.68218455346961
 31
0.0
  0
LINE
  5
8D
330
1F
100
AcDbEntity
  8
0
100
AcDbLine
 10
29.00098999964152
 20
83.78268961685787
 30
0.0
 11
28.36509716807494
 21
82.70059327427424
 31
0.0
  0
LINE
  5
8E
330
1F
100
AcDbEntity
  8
0
100
AcDbLine
 10
28.36509716807494
 20
82.70059327427424
 30
0.0
 11
27.71263840956414
 21
81.6284040389651
 31
0.0
  0
LINE
  5
8F
330
1F
100
AcDbEntity
  8
0
100
AcDbLine
 10
27.71263840956414
 20
81.6284040389651
 30
0.0
 11
27.04376804059045
 21
80.56637550009255
 31
0.0
  0
LINE
  5
90
330
1F
100
AcDbEntity
  8
0
100
AcDbLine
 10
27.04376804059045
 20
80.56637550009255
 30
0.0
 11
26.35864425923198
 21
79.51475884365931
 31
0.0
  0
LINE
  5
91
330
1F
100
AcDbEntity
  8
0
100
AcDbLine
 10
26.35864425923198
 20
79.51475884365931
 30
0.0
 11
25.65742910774839
 21
78.47380279309793
 31
0.0
  0
LINE
  5
92
330
1F
100
AcDbEntity
  8
0
100
AcDbLine
 10
25.65742910774839
 20
78.47380279309793
 30
0.0
 11
24.9402884342539
 21
77.44375355044481
 31
0.0
  0
LINE
  5
93
330
1F
100
AcDbEntity
  8
0
100
AcDbLine
 10
24.9402884342539
 20
77.44375355044481
 30
0.0
 11
24.20739185349259
 21
76.42485473810929
 31
0.0
  0
LINE
  5
94
330
1F
100
AcDbEntity
  8
0
100
AcDbLine
 10
24.20739185349259
 20
76.42485473810929
 30
0.0
 11
23.45891270672179
 21
75.4173473412533
 31
0.0
  0
LINE
  5
95
330
1F
100
AcDbEntity
  8
0
100
AcDbLine
 10
23.45891270672179
 20
75.4173473412533
 30
0.0
 11
22.69502802071401
 21
74.42146965079458
 31
0.0
  0
LINE
  5
96
330
1F
100
AcDbEntity
  8
0
100
AcDbLine
 10
22.69502802071401
 20
74.42146965079458
 30
0.0
 11
21.91591846588786
 21
73.43745720704742
 31
0.0
  0
LINE
  5
97
330
1F
100
AcDbEntity
  8
0
100
AcDbLine
 10
21.91591846588786
 20
73.43745720704742
 30
0.0
 11
21.12176831357598
 21
72.46554274401392
 31
0.0
  0
LINE
  5
98
330
1F
100
AcDbEntity
  8
0
100
AcDbLine
 10
21.12176831357598
 20
72.46554274401392
 30
0.0
 11
20.31276539244321
 21
71.50595613433812
 31
0.0
  0
LINE
  5
99
330
1F
100
AcDbEntity
  8
0
100
AcDbLine
 10
20.31276539244321
 20
71.50595613433812
 30
0.0
 11
-5.376147768842293
 21
45.83332974718579
 31
0.0
  0
LINE
  5
9A
330
1F
100
AcDbEntity
  8
0
100
AcDbLine
 10
-6.186886027727647
 20
45.07917681751326
 30
0.0
 11
-5.376147768842293
 21
45.83332974718579
 31
0.0
  0
LINE
  5
9B
330
1F
100
AcDbEntity
  8
0
100
AcDbLine
 10
-7.049534940278398
 20
44.3850010332704
 30
0.0
 11
-6.186886027727647
 21
45.07917681751326
 31
0.0
  0
LINE
  5
9C
330
1F
100
AcDbEntity
  8
0
100
AcDbLine
 10
-7.959667448273871
 20
43.75436485951875
 30
0.0
 11
-7.049534940278398
 21
44.3850010332704
 31
0.0
  0
LINE
  5
9D
330
1F
100
AcDbEntity
  8
0
100
AcDbLine
 10
-8.912612810764722
 20
43.19050468016425
 30
0.0
 11
-7.959667448273871
 21
43.75436485951875
 31
0.0
  0
LINE
  5
9E
330
1F
100
AcDbEntity
  8
0
100
AcDbLine
 10
-9.903480574011107
 20
42.69631418904446
 30
0.0
 11
-8.912612810764722
 21
43.19050468016425
 31
0.0
  0
LINE
  5
9F
330
1F
100
AcDbEntity
  8
0
100
AcDbLine
 10
-10.92718566897466
 20
42.27432953967933
 30
0.0
 11
-9.903480574011107
 21
42.69631418904446
 31
0.0
  0
LINE
  5
A0
330
1F
100
AcDbEntity
  8
0
100
AcDbLine
 10
-11.9784745075623
 20
41.9267163298956
 30
0.0
 11
-10.92718566897466
 21
42.27432953967933
 31
0.0
  0
LINE
  5
A1
330
1F
100
AcDbEntity
  8
0
100
AcDbLine
 10
-13.05195194369822
 20
41.65525848812135
 30
0.0
 11
-11.9784745075623
 21
41.9267163298956
 31
0.0
  0
LINE
  5
A2
330
1F
100
AcDbEntity
  8
0
100
AcDbLine
 10
-14.14210896086587
 20
41.461349118378
 30
0.0
 11
-13.05195194369822
 21
41.65525848812135
 31
0.0
  0
LINE
  5
A3
330
1F
100
AcDbEntity
  8
0
100
AcDbLine
 10
-15.24335094402093
 20
41.34598335096398
 30
0.0
 11
-14.14210896086587
 21
41.461349118378
 31
0.0
  0
LINE
  5
A4
330
1F
100
AcDbEntity
  8
0
100
AcDbLine
 10
-16.3500263907932
 20
41.30975323550873
 30
0.0
 11
-15.24335094402093
 21
41.34598335096398
 31
0.0
  0
LINE
  5
A5
330
1F
100
AcDbEntity
  8
0
100
AcDbLine
 10
-17.4564559146298
 20
41.35284470261209
 30
0.0
 11
-16.3500263907932
 21
41.30975323550873
 31
0.0
  0
LINE
  5
A6
330
1F
100
AcDbEntity
  8
0
100
AcDbLine
 10
-18.28024413188594
 20
41.76525321278893
 30
0.0
 11
-17.4564559146298
 21
41.35284470261209
 31
0.0
  0
LINE
  5
A7
330
1F
100
AcDbEntity
  8
0
100
AcDbLine
 10
-20.33903679510793
 20
42.60051697688831
 30
0.0
 11
-18.28024413188594
 21
41.76525321278893
 31
0.0
  0
LINE
  5
A8
330
1F
100
AcDbEntity
  8
0
100
AcDbLine
 10
-22.47294339224905
 20
43.21917311759248
 30
0.0
 11
-20.33903679510793
 21
42.60051697688831
 31
0.0
  0
LINE
  5
A9
330
1F
100
AcDbEntity
  8
0
100
AcDbLine
 10
13.42180273835944
 20
39.87797598092773
 30
0.0
 11
13.24699225350181
 21
40.1057934402328
 31
0.0
  0
LINE
  5
AA
330
1F
100
AcDbEntity
  8
0
100
AcDbLine
 10
-84.04957456018536
 20
-47.82146260459847
 30
0.0
 11
-84.19931046848193
 21
-47.45964367271977
 31
0.0
  0
LINE
  5
AB
330
1F
100
AcDbEntity
  8
0
100
AcDbLine
 10
-84.19931046848193
 20
-47.45964367271977
 30
0.0
 11
-84.25029861897983
 21
-47.07139891717507
 31
0.0
  0
LINE
  5
AC
330
1F
100
AcDbEntity
  8
0
100
AcDbLine
 10
-84.25029861897983
 20
-47.07139891717507
 30
0.0
 11
-84.199064253484
 21
-46.68318657644971
 31
0.0
  0
LINE
  5
AD
330
1F
100
AcDbEntity
  8
0
100
AcDbLine
 10
-90.87465434737626
 20
-59.21731038314209
 30
0.0
 11
-91.01095104221992
 21
-60.25258656355223
 31
0.0
  0
LINE
  5
AE
330
1F
100
AcDbEntity
  8
0
100
AcDbLine
 10
-83.13806779908839
 20
-45.62286279393801
 30
0.0
 11
-82.7498230435437
 21
-45.57187464344011
 31
0.0
  0
LINE
  5
AF
330
1F
100
AcDbEntity
  8
0
100
AcDbLine
 10
-84.199064253484
 20
-46.68318657644971
 30
0.0
 11
-84.04909890933479
 21
-46.32146268001293
 31
0.0
  0
LINE
  5
B0
330
1F
100
AcDbEntity
  8
0
100
AcDbLine
 10
-84.04909890933479
 20
-46.32146268001293
 30
0.0
 11
-83.81062247690598
 21
-46.01087811363006
 31
0.0
  0
LINE
  5
B1
330
1F
100
AcDbEntity
  8
0
100
AcDbLine
 10
-59.85362443842952
 20
-32.27988883634005
 30
0.0
 11
-59.81614284734759
 21
-31.99518788672717
 31
0.0
  0
LINE
  5
B2
330
1F
100
AcDbEntity
  8
0
100
AcDbLine
 10
-59.81614284734759
 20
-31.99518788672717
 30
0.0
 11
-59.70625238259235
 21
-31.72988883634018
 31
0.0
  0
LINE
  5
B3
330
1F
100
AcDbEntity
  8
0
100
AcDbLine
 10
-59.70625238259235
 20
-31.72988883634018
 30
0.0
 11
-59.53144189773472
 21
-31.50207137703474
 31
0.0
  0
LINE
  5
B4
330
1F
100
AcDbEntity
  8
0
100
AcDbLine
 10
-83.81062247690598
 20
-46.01087811363006
 30
0.0
 11
-83.49988673096709
 21
-45.77259870223457
 31
0.0
  0
LINE
  5
B5
330
1F
100
AcDbEntity
  8
0
100
AcDbLine
 10
-59.53144189773472
 20
-31.50207137703474
 30
0.0
 11
-59.30362443842964
 21
-31.32726089217712
 31
0.0
  0
LINE
  5
B6
330
1F
100
AcDbEntity
  8
0
100
AcDbLine
 10
-67.39892889241727
 20
-24.04304215068005
 30
0.0
 11
-67.66422794280463
 21
-24.1529326154353
 31
0.0
  0
LINE
  5
B7
330
1F
100
AcDbEntity
  8
0
100
AcDbLine
 10
-67.94892889241751
 20
-24.19041420651723
 30
0.0
 11
-68.23362984203038
 21
-24.1529326154353
 31
0.0
  0
LINE
  5
B8
330
1F
100
AcDbEntity
  8
0
100
AcDbLine
 10
39.67645691318998
 20
-50.10553895079598
 30
0.0
 11
39.82630754694691
 21
-50.46731038314192
 31
0.0
  0
LINE
  5
B9
330
1F
100
AcDbEntity
  8
0
100
AcDbLine
 10
-67.66422794280463
 20
-24.1529326154353
 30
0.0
 11
-67.94892889241751
 21
-24.19041420651723
 31
0.0
  0
LINE
  5
BA
330
1F
100
AcDbEntity
  8
0
100
AcDbLine
 10
-68.23362984203038
 20
-24.1529326154353
 30
0.0
 11
-68.49892889241738
 21
-24.04304215068005
 31
0.0
  0
LINE
  5
BB
330
1F
100
AcDbEntity
  8
0
100
AcDbLine
 10
-83.49988673096709
 20
-45.77259870223457
 30
0.0
 11
-83.13806779908839
 21
-45.62286279393801
 31
0.0
  0
LINE
  5
BC
330
1F
100
AcDbEntity
  8
0
100
AcDbLine
 10
-52.8919645091805
 20
18.90874917119878
 30
0.0
 11
-52.13328646756261
 21
17.88870686576672
 31
0.0
  0
LINE
  5
BD
330
1F
100
AcDbEntity
  8
0
100
AcDbLine
 10
-68.49892889241738
 20
-24.04304215068005
 30
0.0
 11
-68.72674635172282
 21
-23.86823166582242
 31
0.0
  0
LINE
  5
BE
330
1F
100
AcDbEntity
  8
0
100
AcDbLine
 10
-52.13328646756261
 20
17.88870686576672
 30
0.0
 11
-51.41769647980035
 21
16.83798823305974
 31
0.0
  0
LINE
  5
BF
330
1F
100
AcDbEntity
  8
0
100
AcDbLine
 10
-51.41769647980035
 20
16.83798823305974
 30
0.0
 11
-50.74643331419052
 21
15.75841218747524
 31
0.0
  0
LINE
  5
C0
330
1F
100
AcDbEntity
  8
0
100
AcDbLine
 10
-50.74643331419052
 20
15.75841218747524
 30
0.0
 11
-50.12065900422115
 21
14.6518475989012
 31
0.0
  0
LINE
  5
C1
330
1F
100
AcDbEntity
  8
0
100
AcDbLine
 10
-50.12065900422115
 20
14.6518475989012
 30
0.0
 11
-49.54145683695523
 21
13.52021005748671
 31
0.0
  0
LINE
  5
C2
330
1F
100
AcDbEntity
  8
0
100
AcDbLine
 10
-49.54145683695523
 20
13.52021005748671
 30
0.0
 11
-49.25102777590592
 21
12.86966358013359
 31
0.0
  0
LINE
  5
C3
330
1F
100
AcDbEntity
  8
0
100
AcDbLine
 10
-49.25102777590592
 20
12.86966358013359
 30
0.0
 11
-49.00329528632876
 21
12.20169024810112
 31
0.0
  0
LINE
  5
C4
330
1F
100
AcDbEntity
  8
0
100
AcDbLine
 10
-49.00329528632876
 20
12.20169024810112
 30
0.0
 11
-48.79929737569656
 21
11.51908889214275
 31
0.0
  0
LINE
  5
C5
330
1F
100
AcDbEntity
  8
0
100
AcDbLine
 10
-48.79929737569656
 20
11.51908889214275
 30
0.0
 11
-48.63988880212379
 21
10.82471963492405
 31
0.0
  0
LINE
  5
C6
330
1F
100
AcDbEntity
  8
0
100
AcDbLine
 10
-48.63988880212379
 20
10.82471963492405
 30
0.0
 11
-48.5257374929012
 21
10.12149190701412
 31
0.0
  0
LINE
  5
C7
330
1F
100
AcDbEntity
  8
0
100
AcDbLine
 10
-48.5257374929012
 20
10.12149190701412
 30
0.0
 11
-48.45732174585818
 21
9.412352256271765
 31
0.0
  0
LINE
  5
C8
330
1F
100
AcDbEntity
  8
0
100
AcDbLine
 10
-48.45732174585818
 20
9.412352256271765
 30
0.0
 11
-48.43492822527895
 21
8.700272001711294
 31
0.0
  0
LINE
  5
C9
330
1F
100
AcDbEntity
  8
0
100
AcDbLine
 10
-48.43492822527895
 20
8.700272001711294
 30
0.0
 11
-48.45865076076824
 21
7.988234783577044
 31
0.0
  0
LINE
  5
CA
330
1F
100
AcDbEntity
  8
0
100
AcDbLine
 10
-48.45865076076824
 20
7.988234783577044
 30
0.0
 11
-48.52838995410382
 21
7.279224061788175
 31
0.0
  0
LINE
  5
CB
330
1F
100
AcDbEntity
  8
0
100
AcDbLine
 10
-48.52838995410382
 20
7.279224061788175
 30
0.0
 11
-48.64385359571758
 21
6.576210615142948
 31
0.0
  0
LINE
  5
CC
330
1F
100
AcDbEntity
  8
0
100
AcDbLine
 10
-48.64385359571758
 20
6.576210615142948
 30
0.0
 11
-48.80455788906279
 21
5.882140093654589
 31
0.0
  0
LINE
  5
CD
330
1F
100
AcDbEntity
  8
0
100
AcDbLine
 10
-48.80455788906279
 20
5.882140093654589
 30
0.0
 11
-49.00982947773915
 21
5.199920676179018
 31
0.0
  0
LINE
  5
CE
330
1F
100
AcDbEntity
  8
0
100
AcDbLine
 10
-49.54145683695523
 20
4.045169176229208
 30
0.0
 11
-49.00982947773915
 21
5.199920676179018
 31
0.0
  0
LINE
  5
CF
330
1F
100
AcDbEntity
  8
0
100
AcDbLine
 10
-50.12065900422115
 20
2.913531634814728
 30
0.0
 11
-49.54145683695523
 21
4.045169176229208
 31
0.0
  0
LINE
  5
D0
330
1F
100
AcDbEntity
  8
0
100
AcDbLine
 10
-50.74643331419052
 20
1.80696704624068
 30
0.0
 11
-50.12065900422115
 21
2.913531634814728
 31
0.0
  0
LINE
  5
D1
330
1F
100
AcDbEntity
  8
0
100
AcDbLine
 10
-51.41769647980035
 20
0.7273910006561799
 30
0.0
 11
-50.74643331419052
 21
1.80696704624068
 31
0.0
  0
LINE
  5
D2
330
1F
100
AcDbEntity
  8
0
100
AcDbLine
 10
-52.13328646756261
 20
-0.3233276320508004
 30
0.0
 11
-51.41769647980035
 21
0.7273910006561799
 31
0.0
  0
LINE
  5
D3
330
1F
100
AcDbEntity
  8
0
100
AcDbLine
 10
-52.8919645091805
 20
-1.343369937482857
 30
0.0
 11
-52.13328646756261
 21
-0.3233276320508004
 31
0.0
  0
LINE
  5
D4
330
1F
100
AcDbEntity
  8
0
100
AcDbLine
 10
-94.48642577972254
 20
-70.16619912257579
 30
0.0
 11
-94.87465434737643
 21
-70.21731038314212
 31
0.0
  0
LINE
  5
D5
330
1F
100
AcDbEntity
  8
0
100
AcDbLine
 10
-53.69241724599573
 20
-2.330970105480115
 30
0.0
 11
-52.8919645091805
 21
-1.343369937482857
 31
0.0
  0
LINE
  5
D6
330
1F
100
AcDbEntity
  8
0
100
AcDbLine
 10
-54.53325900256483
 20
-3.284418486942958
 30
0.0
 11
-53.69241724599573
 21
-2.330970105480115
 31
0.0
  0
LINE
  5
D7
330
1F
100
AcDbEntity
  8
0
100
AcDbLine
 10
-55.41303418541981
 20
-4.202064553428454
 30
0.0
 11
-54.53325900256483
 21
-3.284418486942958
 31
0.0
  0
LINE
  5
D8
330
1F
100
AcDbEntity
  8
0
100
AcDbLine
 10
-55.41303418541981
 20
-4.202064553428454
 30
0.0
 11
-90.60927559058304
 21
-39.41672645448859
 31
0.0
  0
LINE
  5
D9
330
1F
100
AcDbEntity
  8
0
100
AcDbLine
 10
-91.50301693667853
 20
-40.11965661114702
 30
0.0
 11
-90.60927559058304
 21
-39.41672645448859
 31
0.0
  0
LINE
  5
DA
330
1F
100
AcDbEntity
  8
0
100
AcDbLine
 10
-94.87465434737643
 20
-70.21731038314212
 30
0.0
 11
-95.26288291503033
 21
-70.16619912257579
 31
0.0
  0
LINE
  5
DB
330
1F
100
AcDbEntity
  8
0
100
AcDbLine
 10
-105.6736924530532
 20
-59.96731038314228
 30
0.0
 11
-105.8235430868101
 21
-59.60553895079599
 31
0.0
  0
LINE
  5
DC
330
1F
100
AcDbEntity
  8
0
100
AcDbLine
 10
39.82630754694691
 20
-50.46731038314192
 30
0.0
 11
39.67645691318998
 21
-50.82908181548822
 31
0.0
  0
LINE
  5
DD
330
1F
100
AcDbEntity
  8
0
100
AcDbLine
 10
39.67645691318998
 20
-50.82908181548822
 30
0.0
 11
39.62534565262366
 21
-51.21731038314211
 31
0.0
  0
LINE
  5
DE
330
1F
100
AcDbEntity
  8
0
100
AcDbLine
 10
-101.8139941755966
 20
-58.15665021136229
 30
0.0
 11
-101.5756162416997
 21
-58.46731038314191
 31
0.0
  0
LINE
  5
DF
330
1F
100
AcDbEntity
  8
0
100
AcDbLine
 10
39.62534565262366
 20
-51.21731038314211
 30
0.0
 11
39.67645691318998
 21
-51.605538950796
 31
0.0
  0
LINE
  5
E0
330
1F
100
AcDbEntity
  8
0
100
AcDbLine
 10
-12.97369245305299
 20
23.23268961685792
 30
0.0
 11
-13.12354308680992
 21
23.59446104920422
 31
0.0
  0
LINE
  5
E1
330
1F
100
AcDbEntity
  8
0
100
AcDbLine
 10
39.67645691318998
 20
-51.605538950796
 30
0.0
 11
39.82630754694691
 21
-51.96731038314194
 31
0.0
  0
LINE
  5
E2
330
1F
100
AcDbEntity
  8
0
100
AcDbLine
 10
13.42180273835944
 20
41.43361089953834
 30
0.0
 11
13.64962019766451
 21
41.60842138439597
 31
0.0
  0
LINE
  5
E3
330
1F
100
AcDbEntity
  8
0
100
AcDbLine
 10
-12.97369245305299
 20
24.73268961685794
 30
0.0
 11
-12.73531451915603
 21
25.04334978863792
 31
0.0
  0
LINE
  5
E4
330
1F
100
AcDbEntity
  8
0
100
AcDbLine
 10
39.82630754694691
 20
-51.96731038314194
 30
0.0
 11
40.06468548084388
 21
-52.27797055492191
 31
0.0
  0
LINE
  5
E5
330
1F
100
AcDbEntity
  8
0
100
AcDbLine
 10
-13.12354308680992
 20
24.370918184512
 30
0.0
 11
-12.97369245305299
 21
24.73268961685794
 31
0.0
  0
LINE
  5
E6
330
1F
100
AcDbEntity
  8
0
100
AcDbLine
 10
-12.73531451915603
 20
22.92202944507831
 30
0.0
 11
-12.97369245305299
 21
23.23268961685792
 31
0.0
  0
LINE
  5
E7
330
1F
100
AcDbEntity
  8
0
100
AcDbLine
 10
40.06468548084388
 20
-52.27797055492191
 30
0.0
 11
40.37534565262349
 21
-52.51634848881887
 31
0.0
  0
LINE
  5
E8
330
1F
100
AcDbEntity
  8
0
100
AcDbLine
 10
-13.17465434737625
 20
23.98268961685811
 30
0.0
 11
-13.12354308680992
 21
24.370918184512
 31
0.0
  0
LINE
  5
E9
330
1F
100
AcDbEntity
  8
0
100
AcDbLine
 10
40.37534565262349
 20
-52.51634848881887
 30
0.0
 11
40.73711708496978
 21
-52.6661991225758
 31
0.0
  0
LINE
  5
EA
330
1F
100
AcDbEntity
  8
0
100
AcDbLine
 10
42.16062183303382
 20
-55.35360707798558
 30
0.0
 11
41.12534565262368
 21
-55.21731038314192
 31
0.0
  0
LINE
  5
EB
330
1F
100
AcDbEntity
  8
0
100
AcDbLine
 10
-96.32354308681013
 20
-66.8290818154882
 30
0.0
 11
-96.17369245305319
 21
-66.46731038314225
 31
0.0
  0
LINE
  5
EC
330
1F
100
AcDbEntity
  8
0
100
AcDbLine
 10
-96.17369245305319
 20
-66.46731038314225
 30
0.0
 11
-95.93531451915624
 21
-66.15665021136228
 31
0.0
  0
LINE
  5
ED
330
1F
100
AcDbEntity
  8
0
100
AcDbLine
 10
13.24699225350181
 20
41.20579344023291
 30
0.0
 11
13.42180273835944
 21
41.43361089953834
 31
0.0
  0
LINE
  5
EE
330
1F
100
AcDbEntity
  8
0
100
AcDbLine
 10
-93.57561624169968
 20
-66.46731038314189
 30
0.0
 11
-93.42576560794274
 21
-66.8290818154882
 31
0.0
  0
LINE
  5
EF
330
1F
100
AcDbEntity
  8
0
100
AcDbLine
 10
-93.42576560794274
 20
-66.8290818154882
 30
0.0
 11
-93.37465434737642
 21
-67.21731038314208
 31
0.0
  0
LINE
  5
F0
330
1F
100
AcDbEntity
  8
0
100
AcDbLine
 10
-93.81399417559663
 20
-66.15665021136228
 30
0.0
 11
-93.57561624169968
 21
-66.46731038314189
 31
0.0
  0
LINE
  5
F1
330
1F
100
AcDbEntity
  8
0
100
AcDbLine
 10
41.12534565262368
 20
-55.21731038314192
 30
0.0
 11
40.09006947221354
 21
-55.35360707798558
 31
0.0
  0
LINE
  5
F2
330
1F
100
AcDbEntity
  8
0
100
AcDbLine
 10
40.09006947221354
 20
-55.35360707798558
 30
0.0
 11
39.12534565262377
 21
-55.75320876800418
 31
0.0
  0
LINE
  5
F3
330
1F
100
AcDbEntity
  8
0
100
AcDbLine
 10
47.8263075469469
 20
-58.46731038314191
 30
0.0
 11
47.67645691318997
 21
-58.8290818154882
 31
0.0
  0
LINE
  5
F4
330
1F
100
AcDbEntity
  8
0
100
AcDbLine
 10
39.12534565262377
 20
-55.75320876800418
 30
0.0
 11
38.2969185278773
 21
-56.38888325839572
 31
0.0
  0
LINE
  5
F5
330
1F
100
AcDbEntity
  8
0
100
AcDbLine
 10
-93.37465434737642
 20
-68.7173103831421
 30
0.0
 11
-93.42576560794274
 21
-69.10553895079599
 31
0.0
  0
LINE
  5
F6
330
1F
100
AcDbEntity
  8
0
100
AcDbLine
 10
-13.12354308680992
 20
23.59446104920422
 30
0.0
 11
-13.17465434737625
 21
23.98268961685811
 31
0.0
  0
LINE
  5
F7
330
1F
100
AcDbEntity
  8
0
100
AcDbLine
 10
38.2969185278773
 20
-56.38888325839572
 30
0.0
 11
37.66124403748576
 21
-57.21731038314183
 31
0.0
  0
LINE
  5
F8
330
1F
100
AcDbEntity
  8
0
100
AcDbLine
 10
37.66124403748576
 20
-57.21731038314183
 30
0.0
 11
37.26164234746716
 21
-58.18203420273196
 31
0.0
  0
LINE
  5
F9
330
1F
100
AcDbEntity
  8
0
100
AcDbLine
 10
-42.62332116787199
 20
-14.79952441774993
 30
0.0
 11
-42.48095862166363
 21
-14.45583082792042
 31
0.0
  0
LINE
  5
FA
330
1F
100
AcDbEntity
  8
0
100
AcDbLine
 10
-68.90155683658044
 20
-23.64041420651735
 30
0.0
 11
-69.01144730133569
 21
-23.37511515612999
 31
0.0
  0
LINE
  5
FB
330
1F
100
AcDbEntity
  8
0
100
AcDbLine
 10
-69.01144730133569
 20
-23.37511515612999
 30
0.0
 11
-69.04892889241762
 21
-23.09041420651711
 31
0.0
  0
LINE
  5
FC
330
1F
100
AcDbEntity
  8
0
100
AcDbLine
 10
37.26164234746716
 20
-58.18203420273196
 30
0.0
 11
37.1253456526235
 21
-59.21731038314209
 31
0.0
  0
LINE
  5
FD
330
1F
100
AcDbEntity
  8
0
100
AcDbLine
 10
-102.8746543473764
 20
-57.71731038314208
 30
0.0
 11
-102.4864257797225
 21
-57.7684216437084
 31
0.0
  0
LINE
  5
FE
330
1F
100
AcDbEntity
  8
0
100
AcDbLine
 10
37.1253456526235
 20
-59.21731038314209
 30
0.0
 11
37.26164234746716
 21
-60.25258656355223
 31
0.0
  0
LINE
  5
FF
330
1F
100
AcDbEntity
  8
0
100
AcDbLine
 10
-103.2628829150303
 20
-57.7684216437084
 30
0.0
 11
-102.8746543473764
 21
-57.71731038314208
 31
0.0
  0
LINE
  5
100
330
1F
100
AcDbEntity
  8
0
100
AcDbLine
 10
37.26164234746716
 20
-60.25258656355223
 30
0.0
 11
37.66124403748576
 21
-61.217310383142
 31
0.0
  0
LINE
  5
101
330
1F
100
AcDbEntity
  8
0
100
AcDbLine
 10
-103.6246543473766
 20
-57.91827227746533
 30
0.0
 11
-103.2628829150303
 21
-57.7684216437084
 31
0.0
  0
LINE
  5
102
330
1F
100
AcDbEntity
  8
0
100
AcDbLine
 10
37.66124403748576
 20
-61.217310383142
 30
0.0
 11
38.2969185278773
 21
-62.04573750788848
 31
0.0
  0
LINE
  5
103
330
1F
100
AcDbEntity
  8
0
100
AcDbLine
 10
-103.9864257797226
 20
-57.7684216437084
 30
0.0
 11
-103.6246543473766
 21
-57.91827227746533
 31
0.0
  0
LINE
  5
104
330
1F
100
AcDbEntity
  8
0
100
AcDbLine
 10
38.2969185278773
 20
-62.04573750788848
 30
0.0
 11
39.12534565262341
 21
-62.68141199828001
 31
0.0
  0
LINE
  5
105
330
1F
100
AcDbEntity
  8
0
100
AcDbLine
 10
39.12534565262341
 20
-62.68141199828001
 30
0.0
 11
40.09006947221354
 21
-63.08101368829861
 31
0.0
  0
LINE
  5
106
330
1F
100
AcDbEntity
  8
0
100
AcDbLine
 10
40.09006947221354
 20
-63.08101368829861
 30
0.0
 11
41.12534565262368
 21
-63.21731038314227
 31
0.0
  0
LINE
  5
107
330
1F
100
AcDbEntity
  8
0
100
AcDbLine
 10
-104.7628829150303
 20
-57.7684216437084
 30
0.0
 11
-104.3746543473764
 21
-57.71731038314208
 31
0.0
  0
LINE
  5
108
330
1F
100
AcDbEntity
  8
0
100
AcDbLine
 10
41.12534565262368
 20
-63.21731038314227
 30
0.0
 11
42.16062183303382
 21
-63.08101368829861
 31
0.0
  0
LINE
  5
109
330
1F
100
AcDbEntity
  8
0
100
AcDbLine
 10
-105.1246543473766
 20
-57.91827227746533
 30
0.0
 11
-104.7628829150303
 21
-57.7684216437084
 31
0.0
  0
LINE
  5
10A
330
1F
100
AcDbEntity
  8
0
100
AcDbLine
 10
42.16062183303382
 20
-63.08101368829861
 30
0.0
 11
43.12534565262358
 21
-62.68141199828001
 31
0.0
  0
LINE
  5
10B
330
1F
100
AcDbEntity
  8
0
100
AcDbLine
 10
43.12534565262358
 20
-62.68141199828001
 30
0.0
 11
43.95377277737006
 21
-62.04573750788848
 31
0.0
  0
LINE
  5
10C
330
1F
100
AcDbEntity
  8
0
100
AcDbLine
 10
-105.4353145191562
 20
-58.15665021136229
 30
0.0
 11
-105.1246543473766
 21
-57.91827227746533
 31
0.0
  0
LINE
  5
10D
330
1F
100
AcDbEntity
  8
0
100
AcDbLine
 10
43.95377277737006
 20
-62.04573750788848
 30
0.0
 11
44.58944726776159
 21
-61.21731038314236
 31
0.0
  0
LINE
  5
10E
330
1F
100
AcDbEntity
  8
0
100
AcDbLine
 10
-105.6736924530532
 20
-58.46731038314226
 30
0.0
 11
-105.4353145191562
 21
-58.15665021136229
 31
0.0
  0
LINE
  5
10F
330
1F
100
AcDbEntity
  8
0
100
AcDbLine
 10
-40.87800524252059
 20
-13.7918657984275
 30
0.0
 11
-40.53431165269109
 21
-13.93422834463585
 31
0.0
  0
LINE
  5
110
330
1F
100
AcDbEntity
  8
0
100
AcDbLine
 10
31.62534565262367
 20
-57.71731038314208
 30
0.0
 11
31.23711708496978
 21
-57.7684216437084
 31
0.0
  0
LINE
  5
111
330
1F
100
AcDbEntity
  8
0
100
AcDbLine
 10
44.58944726776159
 20
-61.21731038314236
 30
0.0
 11
44.98904895778019
 21
-60.25258656355223
 31
0.0
  0
LINE
  5
112
330
1F
100
AcDbEntity
  8
0
100
AcDbLine
 10
44.98904895778019
 20
-60.25258656355223
 30
0.0
 11
45.12534565262385
 21
-59.21731038314209
 31
0.0
  0
LINE
  5
113
330
1F
100
AcDbEntity
  8
0
100
AcDbLine
 10
-105.8746543473765
 20
-59.21731038314209
 30
0.0
 11
-105.8235430868101
 21
-58.8290818154882
 31
0.0
  0
LINE
  5
114
330
1F
100
AcDbEntity
  8
0
100
AcDbLine
 10
45.12534565262385
 20
-59.21731038314209
 30
0.0
 11
44.98904895778019
 21
-58.18203420273196
 31
0.0
  0
LINE
  5
115
330
1F
100
AcDbEntity
  8
0
100
AcDbLine
 10
-95.90993052778657
 20
-55.35360707798558
 30
0.0
 11
-94.87465434737643
 21
-55.21731038314192
 31
0.0
  0
LINE
  5
116
330
1F
100
AcDbEntity
  8
0
100
AcDbLine
 10
44.98904895778019
 20
-58.18203420273196
 30
0.0
 11
44.58944726776159
 21
-57.21731038314219
 31
0.0
  0
LINE
  5
117
330
1F
100
AcDbEntity
  8
0
100
AcDbLine
 10
-96.8746543473767
 20
-55.75320876800418
 30
0.0
 11
-95.90993052778657
 21
-55.35360707798558
 31
0.0
  0
LINE
  5
118
330
1F
100
AcDbEntity
  8
0
100
AcDbLine
 10
-97.70308147212282
 20
-56.38888325839572
 30
0.0
 11
-96.8746543473767
 21
-55.75320876800418
 31
0.0
  0
LINE
  5
119
330
1F
100
AcDbEntity
  8
0
100
AcDbLine
 10
44.58944726776159
 20
-57.21731038314219
 30
0.0
 11
43.95377277737006
 21
-56.38888325839572
 31
0.0
  0
LINE
  5
11A
330
1F
100
AcDbEntity
  8
0
100
AcDbLine
 10
-98.33875596251436
 20
-57.21731038314219
 30
0.0
 11
-97.70308147212282
 21
-56.38888325839572
 31
0.0
  0
LINE
  5
11B
330
1F
100
AcDbEntity
  8
0
100
AcDbLine
 10
43.95377277737006
 20
-56.38888325839572
 30
0.0
 11
43.12534565262394
 21
-55.75320876800418
 31
0.0
  0
LINE
  5
11C
330
1F
100
AcDbEntity
  8
0
100
AcDbLine
 10
-98.73835765253295
 20
-58.18203420273196
 30
0.0
 11
-98.33875596251436
 21
-57.21731038314219
 31
0.0
  0
LINE
  5
11D
330
1F
100
AcDbEntity
  8
0
100
AcDbLine
 10
43.12534565262394
 20
-55.75320876800418
 30
0.0
 11
42.16062183303382
 21
-55.35360707798558
 31
0.0
  0
LINE
  5
11E
330
1F
100
AcDbEntity
  8
0
100
AcDbLine
 10
-98.8746543473766
 20
-59.21731038314209
 30
0.0
 11
-98.73835765253295
 21
-58.18203420273196
 31
0.0
  0
LINE
  5
11F
330
1F
100
AcDbEntity
  8
0
100
AcDbLine
 10
34.62534565262371
 20
-59.21731038314209
 30
0.0
 11
34.57423439205738
 21
-58.8290818154882
 31
0.0
  0
LINE
  5
120
330
1F
100
AcDbEntity
  8
0
100
AcDbLine
 10
52.07423439205737
 20
-59.60553895079599
 30
0.0
 11
52.1253456526237
 21
-59.21731038314209
 31
0.0
  0
LINE
  5
121
330
1F
100
AcDbEntity
  8
0
100
AcDbLine
 10
52.1253456526237
 20
-59.21731038314209
 30
0.0
 11
52.07423439205737
 21
-58.8290818154882
 31
0.0
  0
LINE
  5
122
330
1F
100
AcDbEntity
  8
0
100
AcDbLine
 10
-98.73835765253295
 20
-60.25258656355223
 30
0.0
 11
-98.8746543473766
 21
-59.21731038314209
 31
0.0
  0
LINE
  5
123
330
1F
100
AcDbEntity
  8
0
100
AcDbLine
 10
-98.33875596251436
 20
-61.21731038314236
 30
0.0
 11
-98.73835765253295
 21
-60.25258656355223
 31
0.0
  0
LINE
  5
124
330
1F
100
AcDbEntity
  8
0
100
AcDbLine
 10
52.07423439205737
 20
-58.8290818154882
 30
0.0
 11
51.92438375830044
 21
-58.46731038314226
 31
0.0
  0
LINE
  5
125
330
1F
100
AcDbEntity
  8
0
100
AcDbLine
 10
31.23711708496978
 20
-57.7684216437084
 30
0.0
 11
30.87534565262384
 21
-57.91827227746533
 31
0.0
  0
LINE
  5
126
330
1F
100
AcDbEntity
  8
0
100
AcDbLine
 10
51.92438375830044
 20
-58.46731038314226
 30
0.0
 11
51.68600582440348
 21
-58.15665021136229
 31
0.0
  0
LINE
  5
127
330
1F
100
AcDbEntity
  8
0
100
AcDbLine
 10
-96.87465434737634
 20
-62.68141199828001
 30
0.0
 11
-97.70308147212282
 21
-62.04573750788848
 31
0.0
  0
LINE
  5
128
330
1F
100
AcDbEntity
  8
0
100
AcDbLine
 10
51.68600582440348
 20
-58.15665021136229
 30
0.0
 11
51.37534565262387
 21
-57.91827227746533
 31
0.0
  0
LINE
  5
129
330
1F
100
AcDbEntity
  8
0
100
AcDbLine
 10
51.37534565262387
 20
-57.91827227746533
 30
0.0
 11
51.01357422027757
 21
-57.7684216437084
 31
0.0
  0
LINE
  5
12A
330
1F
100
AcDbEntity
  8
0
100
AcDbLine
 10
-95.90993052778657
 20
-63.08101368829861
 30
0.0
 11
-96.87465434737634
 21
-62.68141199828001
 31
0.0
  0
LINE
  5
12B
330
1F
100
AcDbEntity
  8
0
100
AcDbLine
 10
51.01357422027757
 20
-57.7684216437084
 30
0.0
 11
50.62534565262368
 21
-57.71731038314208
 31
0.0
  0
LINE
  5
12C
330
1F
100
AcDbEntity
  8
0
100
AcDbLine
 10
-94.87465434737643
 20
-63.21731038314227
 30
0.0
 11
-95.90993052778657
 21
-63.08101368829861
 31
0.0
  0
LINE
  5
12D
330
1F
100
AcDbEntity
  8
0
100
AcDbLine
 10
-101.5756162416997
 20
-58.46731038314191
 30
0.0
 11
-101.4257656079427
 21
-58.8290818154882
 31
0.0
  0
LINE
  5
12E
330
1F
100
AcDbEntity
  8
0
100
AcDbLine
 10
-40.87800524252059
 20
-16.54484034310132
 30
0.0
 11
-41.24683389553508
 21
-16.59339755645238
 31
0.0
  0
LINE
  5
12F
330
1F
100
AcDbEntity
  8
0
100
AcDbLine
 10
50.23711708496979
 20
-57.7684216437084
 30
0.0
 11
49.87534565262385
 21
-57.91827227746533
 31
0.0
  0
LINE
  5
130
330
1F
100
AcDbEntity
  8
0
100
AcDbLine
 10
49.87534565262385
 20
-57.91827227746533
 30
0.0
 11
49.51357422027755
 21
-57.7684216437084
 31
0.0
  0
LINE
  5
131
330
1F
100
AcDbEntity
  8
0
100
AcDbLine
 10
-91.41055273223851
 20
-61.217310383142
 30
0.0
 11
-92.04622722263005
 21
-62.04573750788848
 31
0.0
  0
LINE
  5
132
330
1F
100
AcDbEntity
  8
0
100
AcDbLine
 10
49.51357422027755
 20
-57.7684216437084
 30
0.0
 11
49.12534565262366
 21
-57.71731038314208
 31
0.0
  0
LINE
  5
133
330
1F
100
AcDbEntity
  8
0
100
AcDbLine
 10
-91.01095104221992
 20
-60.25258656355223
 30
0.0
 11
-91.41055273223851
 21
-61.217310383142
 31
0.0
  0
LINE
  5
134
330
1F
100
AcDbEntity
  8
0
100
AcDbLine
 10
-42.07465434737653
 20
-4.917310383142172
 30
0.0
 11
-41.68642577972264
 21
-4.968421643708499
 31
0.0
  0
LINE
  5
135
330
1F
100
AcDbEntity
  8
0
100
AcDbLine
 10
-41.68642577972264
 20
-4.968421643708499
 30
0.0
 11
-41.3246543473767
 21
-5.118272277465429
 31
0.0
  0
LINE
  5
136
330
1F
100
AcDbEntity
  8
0
100
AcDbLine
 10
49.12534565262366
 20
-57.71731038314208
 30
0.0
 11
48.73711708496977
 21
-57.7684216437084
 31
0.0
  0
LINE
  5
137
330
1F
100
AcDbEntity
  8
0
100
AcDbLine
 10
-92.40542119558143
 20
-40.81143038368585
 30
0.0
 11
-91.50301693667853
 21
-40.11965661114702
 31
0.0
  0
LINE
  5
138
330
1F
100
AcDbEntity
  8
0
100
AcDbLine
 10
-93.3163491131222
 20
-41.4919410212991
 30
0.0
 11
-92.40542119558143
 21
-40.81143038368585
 31
0.0
  0
LINE
  5
139
330
1F
100
AcDbEntity
  8
0
100
AcDbLine
 10
-95.26288291503033
 20
-48.2684216437084
 30
0.0
 11
-94.87465434737643
 21
-48.21731038314207
 31
0.0
  0
LINE
  5
13A
330
1F
100
AcDbEntity
  8
0
100
AcDbLine
 10
-55.41303418541981
 20
21.76744378714438
 30
0.0
 11
-90.60927559058304
 21
56.98210568820451
 31
0.0
  0
LINE
  5
13B
330
1F
100
AcDbEntity
  8
0
100
AcDbLine
 10
48.73711708496977
 20
-57.7684216437084
 30
0.0
 11
48.37534565262384
 21
-57.91827227746533
 31
0.0
  0
LINE
  5
13C
330
1F
100
AcDbEntity
  8
0
100
AcDbLine
 10
-55.41303418541981
 20
21.76744378714438
 30
0.0
 11
-54.53325900256483
 21
20.84979772065888
 31
0.0
  0
LINE
  5
13D
330
1F
100
AcDbEntity
  8
0
100
AcDbLine
 10
-96.37465434737645
 20
-49.71731038314209
 30
0.0
 11
-96.32354308681013
 21
-49.3290818154882
 31
0.0
  0
LINE
  5
13E
330
1F
100
AcDbEntity
  8
0
100
AcDbLine
 10
34.57423439205738
 20
-59.60553895079599
 30
0.0
 11
34.62534565262371
 21
-59.21731038314209
 31
0.0
  0
LINE
  5
13F
330
1F
100
AcDbEntity
  8
0
100
AcDbLine
 10
48.37534565262384
 20
-57.91827227746533
 30
0.0
 11
48.06468548084386
 21
-58.15665021136229
 31
0.0
  0
LINE
  5
140
330
1F
100
AcDbEntity
  8
0
100
AcDbLine
 10
47.62534565262364
 20
-59.21731038314209
 30
0.0
 11
47.67645691318997
 21
-59.60553895079599
 31
0.0
  0
LINE
  5
141
330
1F
100
AcDbEntity
  8
0
100
AcDbLine
 10
-93.8393781669663
 20
-55.35360707798558
 30
0.0
 11
-92.87465434737653
 21
-55.75320876800418
 31
0.0
  0
LINE
  5
142
330
1F
100
AcDbEntity
  8
0
100
AcDbLine
 10
47.8263075469469
 20
-59.96731038314192
 30
0.0
 11
48.06468548084386
 21
-60.27797055492189
 31
0.0
  0
LINE
  5
143
330
1F
100
AcDbEntity
  8
0
100
AcDbLine
 10
48.06468548084386
 20
-60.27797055492189
 30
0.0
 11
48.37534565262347
 21
-60.51634848881886
 31
0.0
  0
LINE
  5
144
330
1F
100
AcDbEntity
  8
0
100
AcDbLine
 10
-94.87465434737643
 20
-55.21731038314192
 30
0.0
 11
-93.8393781669663
 21
-55.35360707798558
 31
0.0
  0
LINE
  5
145
330
1F
100
AcDbEntity
  8
0
100
AcDbLine
 10
-93.8393781669663
 20
-63.08101368829861
 30
0.0
 11
-94.87465434737643
 21
-63.21731038314227
 31
0.0
  0
LINE
  5
146
330
1F
100
AcDbEntity
  8
0
100
AcDbLine
 10
48.37534565262347
 20
-60.51634848881886
 30
0.0
 11
48.73711708496977
 21
-60.66619912257579
 31
0.0
  0
LINE
  5
147
330
1F
100
AcDbEntity
  8
0
100
AcDbLine
 10
-94.23566011980472
 20
-42.16108351124574
 30
0.0
 11
-93.3163491131222
 21
-41.4919410212991
 31
0.0
  0
LINE
  5
148
330
1F
100
AcDbEntity
  8
0
100
AcDbLine
 10
-95.16321235250047
 20
-42.81875459505616
 30
0.0
 11
-94.23566011980472
 21
-42.16108351124574
 31
0.0
  0
LINE
  5
149
330
1F
100
AcDbEntity
  8
0
100
AcDbLine
 10
-96.09886267633867
 20
-43.46485278446773
 30
0.0
 11
-95.16321235250047
 21
-42.81875459505616
 31
0.0
  0
LINE
  5
14A
330
1F
100
AcDbEntity
  8
0
100
AcDbLine
 10
-97.04246670679531
 20
-44.09927837708333
 30
0.0
 11
-96.09886267633867
 21
-43.46485278446773
 31
0.0
  0
LINE
  5
14B
330
1F
100
AcDbEntity
  8
0
100
AcDbLine
 10
-97.99387883197281
 20
-44.7219334717586
 30
0.0
 11
-97.04246670679531
 21
-44.09927837708333
 31
0.0
  0
LINE
  5
14C
330
1F
100
AcDbEntity
  8
0
100
AcDbLine
 10
-98.95295223507024
 20
-45.33272198370934
 30
0.0
 11
-97.99387883197281
 21
-44.7219334717586
 31
0.0
  0
LINE
  5
14D
330
1F
100
AcDbEntity
  8
0
100
AcDbLine
 10
-99.91953891703938
 20
-45.93154965933779
 30
0.0
 11
-98.95295223507024
 21
-45.33272198370934
 31
0.0
  0
LINE
  5
14E
330
1F
100
AcDbEntity
  8
0
100
AcDbLine
 10
-100.8934897194246
 20
-46.51832409077948
 30
0.0
 11
-99.91953891703938
 21
-45.93154965933779
 31
0.0
  0
LINE
  5
14F
330
1F
100
AcDbEntity
  8
0
100
AcDbLine
 10
-101.8746543473766
 20
-47.09295473015994
 30
0.0
 11
-100.8934897194246
 21
-46.51832409077948
 31
0.0
  0
LINE
  5
150
330
1F
100
AcDbEntity
  8
0
100
AcDbLine
 10
-104.774149283988
 20
-49.3178154465305
 30
0.0
 11
-101.8746543473766
 21
-47.09295473015994
 31
0.0
  0
LINE
  5
151
330
1F
100
AcDbEntity
  8
0
100
AcDbLine
 10
-106.9990100003586
 20
-52.21731038314224
 30
0.0
 11
-104.774149283988
 21
-49.3178154465305
 31
0.0
  0
LINE
  5
152
330
1F
100
AcDbEntity
  8
0
100
AcDbLine
 10
-108.3976159154235
 20
-55.59384375170661
 30
0.0
 11
-106.9990100003586
 21
-52.21731038314224
 31
0.0
  0
LINE
  5
153
330
1F
100
AcDbEntity
  8
0
100
AcDbLine
 10
-108.8746543473765
 20
-59.21731038314209
 30
0.0
 11
-108.3976159154235
 21
-55.59384375170661
 31
0.0
  0
LINE
  5
154
330
1F
100
AcDbEntity
  8
0
100
AcDbLine
 10
-108.3976159154235
 20
-62.84077701457757
 30
0.0
 11
-108.8746543473765
 21
-59.21731038314209
 31
0.0
  0
LINE
  5
155
330
1F
100
AcDbEntity
  8
0
100
AcDbLine
 10
-106.9990100003586
 20
-66.2173103831423
 30
0.0
 11
-108.3976159154235
 21
-62.84077701457757
 31
0.0
  0
LINE
  5
156
330
1F
100
AcDbEntity
  8
0
100
AcDbLine
 10
-104.774149283988
 20
-69.1168053197537
 30
0.0
 11
-106.9990100003586
 21
-66.2173103831423
 31
0.0
  0
LINE
  5
157
330
1F
100
AcDbEntity
  8
0
100
AcDbLine
 10
-101.8746543473763
 20
-71.34166603612425
 30
0.0
 11
-104.774149283988
 21
-69.1168053197537
 31
0.0
  0
LINE
  5
158
330
1F
100
AcDbEntity
  8
0
100
AcDbLine
 10
-98.49812097881191
 20
-72.74027195118917
 30
0.0
 11
-101.8746543473763
 21
-71.34166603612425
 31
0.0
  0
LINE
  5
159
330
1F
100
AcDbEntity
  8
0
100
AcDbLine
 10
-94.87465434737643
 20
-73.21731038314216
 30
0.0
 11
-98.49812097881191
 21
-72.74027195118917
 31
0.0
  0
LINE
  5
15A
330
1F
100
AcDbEntity
  8
0
100
AcDbLine
 10
-91.25118771594096
 20
-72.74027195118917
 30
0.0
 11
-94.87465434737643
 21
-73.21731038314216
 31
0.0
  0
LINE
  5
15B
330
1F
100
AcDbEntity
  8
0
100
AcDbLine
 10
-87.87465434737622
 20
-71.34166603612425
 30
0.0
 11
-91.25118771594096
 21
-72.74027195118917
 31
0.0
  0
LINE
  5
15C
330
1F
100
AcDbEntity
  8
0
100
AcDbLine
 10
-84.97515941076483
 20
-69.1168053197537
 30
0.0
 11
-87.87465434737622
 21
-71.34166603612425
 31
0.0
  0
LINE
  5
15D
330
1F
100
AcDbEntity
  8
0
100
AcDbLine
 10
-82.75029869439427
 20
-66.21731038314195
 30
0.0
 11
-84.97515941076483
 21
-69.1168053197537
 31
0.0
  0
LINE
  5
15E
330
1F
100
AcDbEntity
  8
0
100
AcDbLine
 10
-82.75029869439427
 20
-66.21731038314195
 30
0.0
 11
-82.1144058628277
 21
-65.13521404055832
 31
0.0
  0
LINE
  5
15F
330
1F
100
AcDbEntity
  8
0
100
AcDbLine
 10
-82.1144058628277
 20
-65.13521404055832
 30
0.0
 11
-81.4619471043169
 21
-64.06302480524919
 31
0.0
  0
LINE
  5
160
330
1F
100
AcDbEntity
  8
0
100
AcDbLine
 10
-81.4619471043169
 20
-64.06302480524919
 30
0.0
 11
-80.79307673534322
 21
-63.00099626637662
 31
0.0
  0
LINE
  5
161
330
1F
100
AcDbEntity
  8
0
100
AcDbLine
 10
-93.3163491131222
 20
59.05732025501502
 30
0.0
 11
-92.40542119558143
 21
58.37680961740177
 31
0.0
  0
LINE
  5
162
330
1F
100
AcDbEntity
  8
0
100
AcDbLine
 10
-92.40542119558143
 20
58.37680961740177
 30
0.0
 11
-91.50301693667853
 21
57.68503584486294
 31
0.0
  0
LINE
  5
163
330
1F
100
AcDbEntity
  8
0
100
AcDbLine
 10
-95.93531451915624
 20
-66.15665021136228
 30
0.0
 11
-95.62465434737662
 21
-65.91827227746532
 31
0.0
  0
LINE
  5
164
330
1F
100
AcDbEntity
  8
0
100
AcDbLine
 10
-93.37465434737642
 20
-67.21731038314208
 30
0.0
 11
-93.42576560794274
 21
-67.60553895079597
 31
0.0
  0
LINE
  5
165
330
1F
100
AcDbEntity
  8
0
100
AcDbLine
 10
-96.37465434737645
 20
-67.21731038314208
 30
0.0
 11
-96.32354308681013
 21
-66.8290818154882
 31
0.0
  0
LINE
  5
166
330
1F
100
AcDbEntity
  8
0
100
AcDbLine
 10
-57.6536244384293
 20
-32.27988883634005
 30
0.0
 11
-57.69110602951123
 21
-32.56458978595293
 31
0.0
  0
LINE
  5
167
330
1F
100
AcDbEntity
  8
0
100
AcDbLine
 10
-93.42576560794274
 20
-67.60553895079597
 30
0.0
 11
-93.57561624169968
 21
-67.9673103831419
 31
0.0
  0
LINE
  5
168
330
1F
100
AcDbEntity
  8
0
100
AcDbLine
 10
-95.26288291503033
 20
-65.7684216437084
 30
0.0
 11
-94.87465434737643
 21
-65.71731038314206
 31
0.0
  0
LINE
  5
169
330
1F
100
AcDbEntity
  8
0
100
AcDbLine
 10
-59.81614284734759
 20
-32.56458978595293
 30
0.0
 11
-59.85362443842952
 21
-32.27988883634005
 31
0.0
  0
LINE
  5
16A
330
1F
100
AcDbEntity
  8
0
100
AcDbLine
 10
-66.88641048349932
 20
-22.80571325690424
 30
0.0
 11
-66.8489288924174
 21
-23.09041420651711
 31
0.0
  0
LINE
  5
16B
330
1F
100
AcDbEntity
  8
0
100
AcDbLine
 10
-66.8489288924174
 20
-23.09041420651711
 30
0.0
 11
-66.88641048349932
 21
-23.37511515612999
 31
0.0
  0
LINE
  5
16C
330
1F
100
AcDbEntity
  8
0
100
AcDbLine
 10
-101.3746543473764
 20
-59.21731038314209
 30
0.0
 11
-101.4257656079427
 21
-59.60553895079599
 31
0.0
  0
LINE
  5
16D
330
1F
100
AcDbEntity
  8
0
100
AcDbLine
 10
-66.88641048349932
 20
-23.37511515612999
 30
0.0
 11
-66.99630094825457
 21
-23.64041420651699
 31
0.0
  0
LINE
  5
16E
330
1F
100
AcDbEntity
  8
0
100
AcDbLine
 10
-66.99630094825457
 20
-23.64041420651699
 30
0.0
 11
-67.1711114331122
 21
-23.86823166582242
 31
0.0
  0
LINE
  5
16F
330
1F
100
AcDbEntity
  8
0
100
AcDbLine
 10
-67.1711114331122
 20
-23.86823166582242
 30
0.0
 11
-67.39892889241727
 21
-24.04304215068005
 31
0.0
  0
LINE
  5
170
330
1F
100
AcDbEntity
  8
0
100
AcDbLine
 10
-69.04892889241762
 20
-23.09041420651711
 30
0.0
 11
-69.01144730133569
 21
-22.80571325690424
 31
0.0
  0
LINE
  5
171
330
1F
100
AcDbEntity
  8
0
100
AcDbLine
 10
-69.01144730133569
 20
-22.80571325690424
 30
0.0
 11
-68.90155683658044
 21
-22.54041420651724
 31
0.0
  0
LINE
  5
172
330
1F
100
AcDbEntity
  8
0
100
AcDbLine
 10
-68.90155683658044
 20
-22.54041420651724
 30
0.0
 11
-68.72674635172282
 21
-22.31259674721181
 31
0.0
  0
LINE
  5
173
330
1F
100
AcDbEntity
  8
0
100
AcDbLine
 10
-41.01399417559673
 20
-5.35665021136239
 30
0.0
 11
-40.77561624169977
 21
-5.667310383142001
 31
0.0
  0
LINE
  5
174
330
1F
100
AcDbEntity
  8
0
100
AcDbLine
 10
-68.72674635172282
 20
-22.31259674721181
 30
0.0
 11
-68.49892889241775
 21
-22.13778626235418
 31
0.0
  0
LINE
  5
175
330
1F
100
AcDbEntity
  8
0
100
AcDbLine
 10
-68.49892889241775
 20
-22.13778626235418
 30
0.0
 11
-68.23362984203038
 21
-22.02789579759893
 31
0.0
  0
LINE
  5
176
330
1F
100
AcDbEntity
  8
0
100
AcDbLine
 10
48.73711708496977
 20
-60.66619912257579
 30
0.0
 11
49.12534565262366
 21
-60.71731038314211
 31
0.0
  0
LINE
  5
177
330
1F
100
AcDbEntity
  8
0
100
AcDbLine
 10
-94.12465434737625
 20
-70.01634848881886
 30
0.0
 11
-94.48642577972254
 21
-70.16619912257579
 31
0.0
  0
LINE
  5
178
330
1F
100
AcDbEntity
  8
0
100
AcDbLine
 10
-93.57561624169968
 20
-67.9673103831419
 30
0.0
 11
-93.42576560794274
 21
-68.32908181548821
 31
0.0
  0
LINE
  5
179
330
1F
100
AcDbEntity
  8
0
100
AcDbLine
 10
-94.48642577972254
 20
-52.6661991225758
 30
0.0
 11
-94.87465434737643
 21
-52.71731038314213
 31
0.0
  0
LINE
  5
17A
330
1F
100
AcDbEntity
  8
0
100
AcDbLine
 10
-66.99630094825457
 20
-22.54041420651688
 30
0.0
 11
-66.88641048349932
 21
-22.80571325690424
 31
0.0
  0
LINE
  5
17B
330
1F
100
AcDbEntity
  8
0
100
AcDbLine
 10
-94.12465434737625
 20
-52.51634848881887
 30
0.0
 11
-94.48642577972254
 21
-52.6661991225758
 31
0.0
  0
LINE
  5
17C
330
1F
100
AcDbEntity
  8
0
100
AcDbLine
 10
49.12534565262366
 20
-60.71731038314211
 30
0.0
 11
49.51357422027755
 21
-60.66619912257579
 31
0.0
  0
LINE
  5
17D
330
1F
100
AcDbEntity
  8
0
100
AcDbLine
 10
-93.81399417559663
 20
-52.27797055492191
 30
0.0
 11
-94.12465434737625
 21
-52.51634848881887
 31
0.0
  0
LINE
  5
17E
330
1F
100
AcDbEntity
  8
0
100
AcDbLine
 10
49.51357422027755
 20
-60.66619912257579
 30
0.0
 11
49.87534565262349
 21
-60.51634848881886
 31
0.0
  0
LINE
  5
17F
330
1F
100
AcDbEntity
  8
0
100
AcDbLine
 10
-93.57561624169968
 20
-51.96731038314194
 30
0.0
 11
-93.81399417559663
 21
-52.27797055492191
 31
0.0
  0
LINE
  5
180
330
1F
100
AcDbEntity
  8
0
100
AcDbLine
 10
47.67645691318997
 20
-58.8290818154882
 30
0.0
 11
47.62534565262364
 21
-59.21731038314209
 31
0.0
  0
LINE
  5
181
330
1F
100
AcDbEntity
  8
0
100
AcDbLine
 10
-93.42576560794274
 20
-51.605538950796
 30
0.0
 11
-93.57561624169968
 21
-51.96731038314194
 31
0.0
  0
LINE
  5
182
330
1F
100
AcDbEntity
  8
0
100
AcDbLine
 10
49.87534565262349
 20
-60.51634848881886
 30
0.0
 11
50.23711708496979
 21
-60.66619912257579
 31
0.0
  0
LINE
  5
183
330
1F
100
AcDbEntity
  8
0
100
AcDbLine
 10
-94.48642577972254
 20
-48.2684216437084
 30
0.0
 11
-94.1246543473766
 21
-48.41827227746533
 31
0.0
  0
LINE
  5
184
330
1F
100
AcDbEntity
  8
0
100
AcDbLine
 10
-93.37465434737642
 20
-51.21731038314211
 30
0.0
 11
-93.42576560794274
 21
-51.605538950796
 31
0.0
  0
LINE
  5
185
330
1F
100
AcDbEntity
  8
0
100
AcDbLine
 10
50.62534565262368
 20
-60.71731038314211
 30
0.0
 11
51.01357422027757
 21
-60.66619912257579
 31
0.0
  0
LINE
  5
186
330
1F
100
AcDbEntity
  8
0
100
AcDbLine
 10
-93.57561624169968
 20
-50.46731038314192
 30
0.0
 11
-93.42576560794274
 21
-50.82908181548822
 31
0.0
  0
LINE
  5
187
330
1F
100
AcDbEntity
  8
0
100
AcDbLine
 10
-80.79307673534322
 20
-63.00099626637662
 30
0.0
 11
-80.10795295398475
 21
-61.94937960994338
 31
0.0
  0
LINE
  5
188
330
1F
100
AcDbEntity
  8
0
100
AcDbLine
 10
51.01357422027757
 20
-60.66619912257579
 30
0.0
 11
51.37534565262351
 21
-60.51634848881886
 31
0.0
  0
LINE
  5
189
330
1F
100
AcDbEntity
  8
0
100
AcDbLine
 10
-95.62465434737662
 20
-65.91827227746532
 30
0.0
 11
-95.26288291503033
 21
-65.7684216437084
 31
0.0
  0
LINE
  5
18A
330
1F
100
AcDbEntity
  8
0
100
AcDbLine
 10
-80.10795295398475
 20
-61.94937960994338
 30
0.0
 11
-79.40673780250115
 21
-60.90842355938201
 31
0.0
  0
LINE
  5
18B
330
1F
100
AcDbEntity
  8
0
100
AcDbLine
 10
-68.23362984203038
 20
-22.02789579759893
 30
0.0
 11
-67.94892889241751
 21
-21.99041420651701
 31
0.0
  0
LINE
  5
18C
330
1F
100
AcDbEntity
  8
0
100
AcDbLine
 10
51.37534565262351
 20
-60.51634848881886
 30
0.0
 11
51.68600582440348
 21
-60.27797055492189
 31
0.0
  0
LINE
  5
18D
330
1F
100
AcDbEntity
  8
0
100
AcDbLine
 10
-67.94892889241751
 20
-21.99041420651701
 30
0.0
 11
-67.66422794280463
 21
-22.02789579759893
 31
0.0
  0
LINE
  5
18E
330
1F
100
AcDbEntity
  8
0
100
AcDbLine
 10
-79.40673780250115
 20
-60.90842355938201
 30
0.0
 11
-78.68959712900666
 21
-59.87837431672889
 31
0.0
  0
LINE
  5
18F
330
1F
100
AcDbEntity
  8
0
100
AcDbLine
 10
-67.66422794280463
 20
-22.02789579759893
 30
0.0
 11
-67.39892889241763
 21
-22.13778626235418
 31
0.0
  0
LINE
  5
190
330
1F
100
AcDbEntity
  8
0
100
AcDbLine
 10
-67.39892889241763
 20
-22.13778626235418
 30
0.0
 11
-67.1711114331122
 21
-22.31259674721181
 31
0.0
  0
LINE
  5
191
330
1F
100
AcDbEntity
  8
0
100
AcDbLine
 10
51.68600582440348
 20
-60.27797055492189
 30
0.0
 11
51.92438375830044
 21
-59.96731038314228
 31
0.0
  0
LINE
  5
192
330
1F
100
AcDbEntity
  8
0
100
AcDbLine
 10
-94.87465434737643
 20
-48.21731038314207
 30
0.0
 11
-94.48642577972254
 21
-48.2684216437084
 31
0.0
  0
LINE
  5
193
330
1F
100
AcDbEntity
  8
0
100
AcDbLine
 10
-67.1711114331122
 20
-22.31259674721181
 30
0.0
 11
-66.99630094825457
 21
-22.54041420651688
 31
0.0
  0
LINE
  5
194
330
1F
100
AcDbEntity
  8
0
100
AcDbLine
 10
51.92438375830044
 20
-59.96731038314228
 30
0.0
 11
52.07423439205737
 21
-59.60553895079599
 31
0.0
  0
LINE
  5
195
330
1F
100
AcDbEntity
  8
0
100
AcDbLine
 10
15.26213860658294
 20
40.94049438984592
 30
0.0
 11
15.29962019766486
 21
40.65579344023304
 31
0.0
  0
LINE
  5
196
330
1F
100
AcDbEntity
  8
0
100
AcDbLine
 10
15.15224814182769
 20
40.10579344023316
 30
0.0
 11
14.97743765697006
 21
39.87797598092773
 31
0.0
  0
LINE
  5
197
330
1F
100
AcDbEntity
  8
0
100
AcDbLine
 10
13.91491924805187
 20
39.59327503131485
 30
0.0
 11
13.64962019766488
 21
39.7031654960701
 31
0.0
  0
LINE
  5
198
330
1F
100
AcDbEntity
  8
0
100
AcDbLine
 10
14.48432114727763
 20
39.59327503131485
 30
0.0
 11
14.19962019766475
 21
39.55579344023293
 31
0.0
  0
LINE
  5
199
330
1F
100
AcDbEntity
  8
0
100
AcDbLine
 10
14.97743765697006
 20
41.43361089953834
 30
0.0
 11
15.15224814182769
 21
41.20579344023327
 31
0.0
  0
LINE
  5
19A
330
1F
100
AcDbEntity
  8
0
100
AcDbLine
 10
14.19962019766475
 20
39.55579344023293
 30
0.0
 11
13.91491924805187
 21
39.59327503131485
 31
0.0
  0
LINE
  5
19B
330
1F
100
AcDbEntity
  8
0
100
AcDbLine
 10
40.73711708496978
 20
-70.16619912257579
 30
0.0
 11
41.12534565262368
 21
-70.21731038314212
 31
0.0
  0
LINE
  5
19C
330
1F
100
AcDbEntity
  8
0
100
AcDbLine
 10
13.24699225350181
 20
40.1057934402328
 30
0.0
 11
13.13710178874656
 21
40.37109249062016
 31
0.0
  0
LINE
  5
19D
330
1F
100
AcDbEntity
  8
0
100
AcDbLine
 10
14.74962019766498
 20
39.7031654960701
 30
0.0
 11
14.48432114727763
 21
39.59327503131485
 31
0.0
  0
LINE
  5
19E
330
1F
100
AcDbEntity
  8
0
100
AcDbLine
 10
30.56468548084387
 20
-60.27797055492189
 30
0.0
 11
30.87534565262348
 21
-60.51634848881886
 31
0.0
  0
LINE
  5
19F
330
1F
100
AcDbEntity
  8
0
100
AcDbLine
 10
41.12534565262368
 20
-70.21731038314212
 30
0.0
 11
41.51357422027757
 21
-70.16619912257579
 31
0.0
  0
LINE
  5
1A0
330
1F
100
AcDbEntity
  8
0
100
AcDbLine
 10
41.51357422027757
 20
-70.16619912257579
 30
0.0
 11
41.87534565262351
 21
-70.01634848881886
 31
0.0
  0
LINE
  5
1A1
330
1F
100
AcDbEntity
  8
0
100
AcDbLine
 10
41.87534565262351
 20
-70.01634848881886
 30
0.0
 11
42.18600582440348
 21
-69.77797055492191
 31
0.0
  0
LINE
  5
1A2
330
1F
100
AcDbEntity
  8
0
100
AcDbLine
 10
-96.17369245305319
 20
-48.96731038314226
 30
0.0
 11
-95.93531451915624
 21
-48.65665021136229
 31
0.0
  0
LINE
  5
1A3
330
1F
100
AcDbEntity
  8
0
100
AcDbLine
 10
42.18600582440348
 20
-69.77797055492191
 30
0.0
 11
42.42438375830044
 21
-69.46731038314229
 31
0.0
  0
LINE
  5
1A4
330
1F
100
AcDbEntity
  8
0
100
AcDbLine
 10
47.67645691318997
 20
-59.60553895079599
 30
0.0
 11
47.8263075469469
 21
-59.96731038314192
 31
0.0
  0
LINE
  5
1A5
330
1F
100
AcDbEntity
  8
0
100
AcDbLine
 10
-95.62465434737662
 20
-48.41827227746533
 30
0.0
 11
-95.26288291503033
 21
-48.2684216437084
 31
0.0
  0
LINE
  5
1A6
330
1F
100
AcDbEntity
  8
0
100
AcDbLine
 10
-96.32354308681013
 20
-49.3290818154882
 30
0.0
 11
-96.17369245305319
 21
-48.96731038314226
 31
0.0
  0
LINE
  5
1A7
330
1F
100
AcDbEntity
  8
0
100
AcDbLine
 10
42.42438375830044
 20
-69.46731038314229
 30
0.0
 11
42.57423439205737
 21
-69.10553895079599
 31
0.0
  0
LINE
  5
1A8
330
1F
100
AcDbEntity
  8
0
100
AcDbLine
 10
-92.04622722263005
 20
-56.38888325839572
 30
0.0
 11
-91.41055273223851
 21
-57.21731038314183
 31
0.0
  0
LINE
  5
1A9
330
1F
100
AcDbEntity
  8
0
100
AcDbLine
 10
42.57423439205737
 20
-69.10553895079599
 30
0.0
 11
42.62534565262369
 21
-68.7173103831421
 31
0.0
  0
LINE
  5
1AA
330
1F
100
AcDbEntity
  8
0
100
AcDbLine
 10
-12.42465434737642
 20
25.28172772253488
 30
0.0
 11
-12.06288291503012
 21
25.4315783562918
 31
0.0
  0
LINE
  5
1AB
330
1F
100
AcDbEntity
  8
0
100
AcDbLine
 10
-103.2628829150303
 20
-60.66619912257579
 30
0.0
 11
-103.6246543473763
 21
-60.51634848881886
 31
0.0
  0
LINE
  5
1AC
330
1F
100
AcDbEntity
  8
0
100
AcDbLine
 10
-96.17369245305319
 20
-50.46731038314228
 30
0.0
 11
-96.32354308681013
 21
-50.10553895079598
 31
0.0
  0
LINE
  5
1AD
330
1F
100
AcDbEntity
  8
0
100
AcDbLine
 10
-96.32354308681013
 20
-50.82908181548822
 30
0.0
 11
-96.17369245305319
 21
-50.46731038314228
 31
0.0
  0
LINE
  5
1AE
330
1F
100
AcDbEntity
  8
0
100
AcDbLine
 10
-96.37465434737645
 20
-51.21731038314211
 30
0.0
 11
-96.32354308681013
 21
-50.82908181548822
 31
0.0
  0
LINE
  5
1AF
330
1F
100
AcDbEntity
  8
0
100
AcDbLine
 10
14.48432114727763
 20
-24.1529326154353
 30
0.0
 11
14.74962019766462
 21
-24.04304215068005
 31
0.0
  0
LINE
  5
1B0
330
1F
100
AcDbEntity
  8
0
100
AcDbLine
 10
-104.7628829150303
 20
-60.66619912257579
 30
0.0
 11
-105.1246543473763
 21
-60.51634848881886
 31
0.0
  0
LINE
  5
1B1
330
1F
100
AcDbEntity
  8
0
100
AcDbLine
 10
-104.3746543473764
 20
-60.71731038314211
 30
0.0
 11
-104.7628829150303
 21
-60.66619912257579
 31
0.0
  0
LINE
  5
1B2
330
1F
100
AcDbEntity
  8
0
100
AcDbLine
 10
14.74962019766462
 20
-24.04304215068005
 30
0.0
 11
14.97743765697006
 21
-23.86823166582242
 31
0.0
  0
LINE
  5
1B3
330
1F
100
AcDbEntity
  8
0
100
AcDbLine
 10
-96.32354308681013
 20
-51.605538950796
 30
0.0
 11
-96.37465434737645
 21
-51.21731038314211
 31
0.0
  0
LINE
  5
1B4
330
1F
100
AcDbEntity
  8
0
100
AcDbLine
 10
-92.87465434737653
 20
-55.75320876800418
 30
0.0
 11
-92.04622722263005
 21
-56.38888325839572
 31
0.0
  0
LINE
  5
1B5
330
1F
100
AcDbEntity
  8
0
100
AcDbLine
 10
42.57423439205737
 20
-68.32908181548821
 30
0.0
 11
42.42438375830044
 21
-67.96731038314228
 31
0.0
  0
LINE
  5
1B6
330
1F
100
AcDbEntity
  8
0
100
AcDbLine
 10
42.42438375830044
 20
-67.96731038314228
 30
0.0
 11
42.57423439205737
 21
-67.60553895079597
 31
0.0
  0
LINE
  5
1B7
330
1F
100
AcDbEntity
  8
0
100
AcDbLine
 10
-95.93531451915624
 20
-52.27797055492191
 30
0.0
 11
-96.17369245305319
 21
-51.9673103831423
 31
0.0
  0
LINE
  5
1B8
330
1F
100
AcDbEntity
  8
0
100
AcDbLine
 10
42.57423439205737
 20
-67.60553895079597
 30
0.0
 11
42.62534565262369
 21
-67.21731038314208
 31
0.0
  0
LINE
  5
1B9
330
1F
100
AcDbEntity
  8
0
100
AcDbLine
 10
42.62534565262369
 20
-67.21731038314208
 30
0.0
 11
42.57423439205737
 21
-66.8290818154882
 31
0.0
  0
LINE
  5
1BA
330
1F
100
AcDbEntity
  8
0
100
AcDbLine
 10
-95.26288291503033
 20
-52.6661991225758
 30
0.0
 11
-95.62465434737626
 21
-52.51634848881887
 31
0.0
  0
LINE
  5
1BB
330
1F
100
AcDbEntity
  8
0
100
AcDbLine
 10
42.57423439205737
 20
-66.8290818154882
 30
0.0
 11
42.42438375830044
 21
-66.46731038314225
 31
0.0
  0
LINE
  5
1BC
330
1F
100
AcDbEntity
  8
0
100
AcDbLine
 10
42.42438375830044
 20
-66.46731038314225
 30
0.0
 11
42.18600582440348
 21
-66.15665021136228
 31
0.0
  0
LINE
  5
1BD
330
1F
100
AcDbEntity
  8
0
100
AcDbLine
 10
-94.87465434737643
 20
-52.71731038314213
 30
0.0
 11
-95.26288291503033
 21
-52.6661991225758
 31
0.0
  0
LINE
  5
1BE
330
1F
100
AcDbEntity
  8
0
100
AcDbLine
 10
42.18600582440348
 20
-66.15665021136228
 30
0.0
 11
41.87534565262386
 21
-65.91827227746532
 31
0.0
  0
LINE
  5
1BF
330
1F
100
AcDbEntity
  8
0
100
AcDbLine
 10
-88.32354308681015
 20
-59.60553895079599
 30
0.0
 11
-88.37465434737648
 21
-59.21731038314209
 31
0.0
  0
LINE
  5
1C0
330
1F
100
AcDbEntity
  8
0
100
AcDbLine
 10
41.87534565262386
 20
-65.91827227746532
 30
0.0
 11
41.51357422027757
 21
-65.7684216437084
 31
0.0
  0
LINE
  5
1C1
330
1F
100
AcDbEntity
  8
0
100
AcDbLine
 10
-87.93531451915625
 20
-60.27797055492189
 30
0.0
 11
-88.17369245305322
 21
-59.96731038314228
 31
0.0
  0
LINE
  5
1C2
330
1F
100
AcDbEntity
  8
0
100
AcDbLine
 10
41.51357422027757
 20
-65.7684216437084
 30
0.0
 11
41.12534565262368
 21
-65.71731038314206
 31
0.0
  0
LINE
  5
1C3
330
1F
100
AcDbEntity
  8
0
100
AcDbLine
 10
41.12534565262368
 20
-65.71731038314206
 30
0.0
 11
40.73711708496978
 21
-65.7684216437084
 31
0.0
  0
LINE
  5
1C4
330
1F
100
AcDbEntity
  8
0
100
AcDbLine
 10
-87.26288291503035
 20
-60.66619912257579
 30
0.0
 11
-87.62465434737628
 21
-60.51634848881886
 31
0.0
  0
LINE
  5
1C5
330
1F
100
AcDbEntity
  8
0
100
AcDbLine
 10
-87.62465434737628
 20
-60.51634848881886
 30
0.0
 11
-87.93531451915625
 21
-60.27797055492189
 31
0.0
  0
LINE
  5
1C6
330
1F
100
AcDbEntity
  8
0
100
AcDbLine
 10
-86.87465434737645
 20
-60.71731038314211
 30
0.0
 11
-87.26288291503035
 21
-60.66619912257579
 31
0.0
  0
LINE
  5
1C7
330
1F
100
AcDbEntity
  8
0
100
AcDbLine
 10
-86.48642577972257
 20
-60.66619912257579
 30
0.0
 11
-86.87465434737645
 21
-60.71731038314211
 31
0.0
  0
LINE
  5
1C8
330
1F
100
AcDbEntity
  8
0
100
AcDbLine
 10
40.73711708496978
 20
-65.7684216437084
 30
0.0
 11
40.37534565262385
 21
-65.91827227746532
 31
0.0
  0
LINE
  5
1C9
330
1F
100
AcDbEntity
  8
0
100
AcDbLine
 10
40.37534565262385
 20
-65.91827227746532
 30
0.0
 11
40.06468548084388
 21
-66.15665021136228
 31
0.0
  0
LINE
  5
1CA
330
1F
100
AcDbEntity
  8
0
100
AcDbLine
 10
-88.17369245305322
 20
-59.96731038314228
 30
0.0
 11
-88.32354308681015
 21
-59.60553895079599
 31
0.0
  0
LINE
  5
1CB
330
1F
100
AcDbEntity
  8
0
100
AcDbLine
 10
-86.12465434737626
 20
-60.51634848881886
 30
0.0
 11
-86.48642577972257
 21
-60.66619912257579
 31
0.0
  0
LINE
  5
1CC
330
1F
100
AcDbEntity
  8
0
100
AcDbLine
 10
-95.62465434737626
 20
-52.51634848881887
 30
0.0
 11
-95.93531451915624
 21
-52.27797055492191
 31
0.0
  0
LINE
  5
1CD
330
1F
100
AcDbEntity
  8
0
100
AcDbLine
 10
34.57423439205738
 20
-58.8290818154882
 30
0.0
 11
34.42438375830045
 21
-58.46731038314226
 31
0.0
  0
LINE
  5
1CE
330
1F
100
AcDbEntity
  8
0
100
AcDbLine
 10
40.06468548084388
 20
-66.15665021136228
 30
0.0
 11
39.82630754694691
 21
-66.46731038314189
 31
0.0
  0
LINE
  5
1CF
330
1F
100
AcDbEntity
  8
0
100
AcDbLine
 10
39.82630754694691
 20
-66.46731038314189
 30
0.0
 11
39.67645691318998
 21
-66.8290818154882
 31
0.0
  0
LINE
  5
1D0
330
1F
100
AcDbEntity
  8
0
100
AcDbLine
 10
-92.87465434737616
 20
-62.68141199828001
 30
0.0
 11
-93.8393781669663
 21
-63.08101368829861
 31
0.0
  0
LINE
  5
1D1
330
1F
100
AcDbEntity
  8
0
100
AcDbLine
 10
-101.4257656079427
 20
-58.8290818154882
 30
0.0
 11
-101.3746543473764
 21
-59.21731038314209
 31
0.0
  0
LINE
  5
1D2
330
1F
100
AcDbEntity
  8
0
100
AcDbLine
 10
29.00051434879094
 20
63.13725387715603
 30
0.0
 11
28.61230200806557
 21
63.18848824265186
 31
0.0
  0
LINE
  5
1D3
330
1F
100
AcDbEntity
  8
0
100
AcDbLine
 10
-103.6246543473763
 20
-60.51634848881886
 30
0.0
 11
-103.9864257797226
 21
-60.66619912257579
 31
0.0
  0
LINE
  5
1D4
330
1F
100
AcDbEntity
  8
0
100
AcDbLine
 10
-11.67465434737623
 20
25.48268961685813
 30
0.0
 11
-11.28642577972234
 21
25.4315783562918
 31
0.0
  0
LINE
  5
1D5
330
1F
100
AcDbEntity
  8
0
100
AcDbLine
 10
-11.28642577972234
 20
25.4315783562918
 30
0.0
 11
-10.9246543473764
 21
25.28172772253488
 31
0.0
  0
LINE
  5
1D6
330
1F
100
AcDbEntity
  8
0
100
AcDbLine
 10
-96.17369245305319
 20
-51.9673103831423
 30
0.0
 11
-96.32354308681013
 21
-51.605538950796
 31
0.0
  0
LINE
  5
1D7
330
1F
100
AcDbEntity
  8
0
100
AcDbLine
 10
-91.01095104221992
 20
-58.18203420273196
 30
0.0
 11
-90.87465434737626
 21
-59.21731038314209
 31
0.0
  0
LINE
  5
1D8
330
1F
100
AcDbEntity
  8
0
100
AcDbLine
 10
-10.9246543473764
 20
25.28172772253488
 30
0.0
 11
-10.61399417559643
 21
25.04334978863792
 31
0.0
  0
LINE
  5
1D9
330
1F
100
AcDbEntity
  8
0
100
AcDbLine
 10
-84.98642577972254
 20
-60.66619912257579
 30
0.0
 11
-85.37465434737643
 21
-60.71731038314211
 31
0.0
  0
LINE
  5
1DA
330
1F
100
AcDbEntity
  8
0
100
AcDbLine
 10
-10.61399417559643
 20
25.04334978863792
 30
0.0
 11
-10.37561624169946
 21
24.73268961685831
 31
0.0
  0
LINE
  5
1DB
330
1F
100
AcDbEntity
  8
0
100
AcDbLine
 10
-84.62465434737624
 20
-60.51634848881886
 30
0.0
 11
-84.98642577972254
 21
-60.66619912257579
 31
0.0
  0
LINE
  5
1DC
330
1F
100
AcDbEntity
  8
0
100
AcDbLine
 10
-10.37561624169946
 20
24.73268961685831
 30
0.0
 11
-10.22576560794253
 21
24.370918184512
 31
0.0
  0
LINE
  5
1DD
330
1F
100
AcDbEntity
  8
0
100
AcDbLine
 10
-10.22576560794253
 20
24.370918184512
 30
0.0
 11
-10.17465434737621
 21
23.98268961685811
 31
0.0
  0
LINE
  5
1DE
330
1F
100
AcDbEntity
  8
0
100
AcDbLine
 10
-84.31399417559663
 20
-60.27797055492189
 30
0.0
 11
-84.62465434737624
 21
-60.51634848881886
 31
0.0
  0
LINE
  5
1DF
330
1F
100
AcDbEntity
  8
0
100
AcDbLine
 10
-84.07561624169966
 20
-58.46731038314191
 30
0.0
 11
-83.92576560794274
 21
-58.8290818154882
 31
0.0
  0
LINE
  5
1E0
330
1F
100
AcDbEntity
  8
0
100
AcDbLine
 10
-10.17465434737621
 20
23.98268961685811
 30
0.0
 11
-10.22576560794253
 21
23.59446104920422
 31
0.0
  0
LINE
  5
1E1
330
1F
100
AcDbEntity
  8
0
100
AcDbLine
 10
-83.92576560794274
 20
-59.60553895079599
 30
0.0
 11
-84.07561624169966
 21
-59.96731038314192
 31
0.0
  0
LINE
  5
1E2
330
1F
100
AcDbEntity
  8
0
100
AcDbLine
 10
-102.8746543473764
 20
-60.71731038314211
 30
0.0
 11
-103.2628829150303
 21
-60.66619912257579
 31
0.0
  0
LINE
  5
1E3
330
1F
100
AcDbEntity
  8
0
100
AcDbLine
 10
-102.4864257797225
 20
-60.66619912257579
 30
0.0
 11
-102.8746543473764
 21
-60.71731038314211
 31
0.0
  0
LINE
  5
1E4
330
1F
100
AcDbEntity
  8
0
100
AcDbLine
 10
-84.31399417559663
 20
-58.15665021136229
 30
0.0
 11
-84.07561624169966
 21
-58.46731038314191
 31
0.0
  0
LINE
  5
1E5
330
1F
100
AcDbEntity
  8
0
100
AcDbLine
 10
-10.22576560794253
 20
23.59446104920422
 30
0.0
 11
-10.37561624169946
 21
23.23268961685828
 31
0.0
  0
LINE
  5
1E6
330
1F
100
AcDbEntity
  8
0
100
AcDbLine
 10
-83.8746543473764
 20
-59.21731038314209
 30
0.0
 11
-83.92576560794274
 21
-59.60553895079599
 31
0.0
  0
LINE
  5
1E7
330
1F
100
AcDbEntity
  8
0
100
AcDbLine
 10
-10.37561624169946
 20
23.23268961685828
 30
0.0
 11
-10.61399417559643
 21
22.92202944507831
 31
0.0
  0
LINE
  5
1E8
330
1F
100
AcDbEntity
  8
0
100
AcDbLine
 10
-101.4257656079427
 20
-59.60553895079599
 30
0.0
 11
-101.5756162416997
 21
-59.96731038314192
 31
0.0
  0
LINE
  5
1E9
330
1F
100
AcDbEntity
  8
0
100
AcDbLine
 10
-10.61399417559643
 20
22.92202944507831
 30
0.0
 11
-10.92465434737604
 21
22.68365151118135
 31
0.0
  0
LINE
  5
1EA
330
1F
100
AcDbEntity
  8
0
100
AcDbLine
 10
42.42438375830044
 20
-50.46731038314228
 30
0.0
 11
42.57423439205737
 21
-50.10553895079598
 31
0.0
  0
LINE
  5
1EB
330
1F
100
AcDbEntity
  8
0
100
AcDbLine
 10
-84.07561624169966
 20
-59.96731038314192
 30
0.0
 11
-84.31399417559663
 21
-60.27797055492189
 31
0.0
  0
LINE
  5
1EC
330
1F
100
AcDbEntity
  8
0
100
AcDbLine
 10
-83.92576560794274
 20
-58.8290818154882
 30
0.0
 11
-83.8746543473764
 21
-59.21731038314209
 31
0.0
  0
LINE
  5
1ED
330
1F
100
AcDbEntity
  8
0
100
AcDbLine
 10
-10.92465434737604
 20
22.68365151118135
 30
0.0
 11
-11.28642577972234
 21
22.53380087742442
 31
0.0
  0
LINE
  5
1EE
330
1F
100
AcDbEntity
  8
0
100
AcDbLine
 10
-11.28642577972234
 20
22.53380087742442
 30
0.0
 11
-11.67465434737623
 21
22.48268961685809
 31
0.0
  0
LINE
  5
1EF
330
1F
100
AcDbEntity
  8
0
100
AcDbLine
 10
-101.5756162416997
 20
-59.96731038314192
 30
0.0
 11
-101.8139941755966
 21
-60.27797055492189
 31
0.0
  0
LINE
  5
1F0
330
1F
100
AcDbEntity
  8
0
100
AcDbLine
 10
-95.93531451915624
 20
-48.65665021136229
 30
0.0
 11
-95.62465434737662
 21
-48.41827227746533
 31
0.0
  0
LINE
  5
1F1
330
1F
100
AcDbEntity
  8
0
100
AcDbLine
 10
-102.1246543473762
 20
-60.51634848881886
 30
0.0
 11
-102.4864257797225
 21
-60.66619912257579
 31
0.0
  0
LINE
  5
1F2
330
1F
100
AcDbEntity
  8
0
100
AcDbLine
 10
-101.8139941755966
 20
-60.27797055492189
 30
0.0
 11
-102.1246543473762
 21
-60.51634848881886
 31
0.0
  0
LINE
  5
1F3
330
1F
100
AcDbEntity
  8
0
100
AcDbLine
 10
-11.67465434737623
 20
22.48268961685809
 30
0.0
 11
-12.06288291503012
 21
22.53380087742442
 31
0.0
  0
LINE
  5
1F4
330
1F
100
AcDbEntity
  8
0
100
AcDbLine
 10
-12.06288291503012
 20
22.53380087742442
 30
0.0
 11
-12.42465434737606
 21
22.68365151118135
 31
0.0
  0
LINE
  5
1F5
330
1F
100
AcDbEntity
  8
0
100
AcDbLine
 10
-84.6246543473766
 20
-57.91827227746533
 30
0.0
 11
-84.31399417559663
 21
-58.15665021136229
 31
0.0
  0
LINE
  5
1F6
330
1F
100
AcDbEntity
  8
0
100
AcDbLine
 10
-84.98642577972254
 20
-57.7684216437084
 30
0.0
 11
-84.6246543473766
 21
-57.91827227746533
 31
0.0
  0
LINE
  5
1F7
330
1F
100
AcDbEntity
  8
0
100
AcDbLine
 10
-85.37465434737643
 20
-57.71731038314208
 30
0.0
 11
-84.98642577972254
 21
-57.7684216437084
 31
0.0
  0
LINE
  5
1F8
330
1F
100
AcDbEntity
  8
0
100
AcDbLine
 10
-12.42465434737606
 20
22.68365151118135
 30
0.0
 11
-12.73531451915603
 21
22.92202944507831
 31
0.0
  0
LINE
  5
1F9
330
1F
100
AcDbEntity
  8
0
100
AcDbLine
 10
-88.17369245305322
 20
-58.46731038314226
 30
0.0
 11
-87.93531451915625
 21
-58.15665021136229
 31
0.0
  0
LINE
  5
1FA
330
1F
100
AcDbEntity
  8
0
100
AcDbLine
 10
-12.06288291503012
 20
-4.968421643708499
 30
0.0
 11
-12.42465434737606
 21
-5.118272277465429
 31
0.0
  0
LINE
  5
1FB
330
1F
100
AcDbEntity
  8
0
100
AcDbLine
 10
-105.4353145191562
 20
-60.27797055492189
 30
0.0
 11
-105.6736924530532
 21
-59.96731038314228
 31
0.0
  0
LINE
  5
1FC
330
1F
100
AcDbEntity
  8
0
100
AcDbLine
 10
-11.67465434737623
 20
-4.917310383142172
 30
0.0
 11
-12.06288291503012
 21
-4.968421643708499
 31
0.0
  0
LINE
  5
1FD
330
1F
100
AcDbEntity
  8
0
100
AcDbLine
 10
-105.8235430868101
 20
-59.60553895079599
 30
0.0
 11
-105.8746543473765
 21
-59.21731038314209
 31
0.0
  0
LINE
  5
1FE
330
1F
100
AcDbEntity
  8
0
100
AcDbLine
 10
-92.04622722263005
 20
-62.04573750788848
 30
0.0
 11
-92.87465434737616
 21
-62.68141199828001
 31
0.0
  0
LINE
  5
1FF
330
1F
100
AcDbEntity
  8
0
100
AcDbLine
 10
-11.28642577972234
 20
-4.968421643708499
 30
0.0
 11
-11.67465434737623
 21
-4.917310383142172
 31
0.0
  0
LINE
  5
200
330
1F
100
AcDbEntity
  8
0
100
AcDbLine
 10
-10.92465434737604
 20
-5.118272277465429
 30
0.0
 11
-11.28642577972234
 21
-4.968421643708499
 31
0.0
  0
LINE
  5
201
330
1F
100
AcDbEntity
  8
0
100
AcDbLine
 10
-86.12465434737662
 20
-57.91827227746533
 30
0.0
 11
-85.76288291503032
 21
-57.7684216437084
 31
0.0
  0
LINE
  5
202
330
1F
100
AcDbEntity
  8
0
100
AcDbLine
 10
-10.61399417559643
 20
-5.35665021136239
 30
0.0
 11
-10.92465434737604
 21
-5.118272277465429
 31
0.0
  0
LINE
  5
203
330
1F
100
AcDbEntity
  8
0
100
AcDbLine
 10
-86.48642577972257
 20
-57.7684216437084
 30
0.0
 11
-86.12465434737662
 21
-57.91827227746533
 31
0.0
  0
LINE
  5
204
330
1F
100
AcDbEntity
  8
0
100
AcDbLine
 10
-10.37561624169946
 20
-5.667310383142362
 30
0.0
 11
-10.61399417559643
 21
-5.35665021136239
 31
0.0
  0
LINE
  5
205
330
1F
100
AcDbEntity
  8
0
100
AcDbLine
 10
-86.87465434737645
 20
-57.71731038314208
 30
0.0
 11
-86.48642577972257
 21
-57.7684216437084
 31
0.0
  0
LINE
  5
206
330
1F
100
AcDbEntity
  8
0
100
AcDbLine
 10
-10.22576560794253
 20
-6.029081815488301
 30
0.0
 11
-10.37561624169946
 21
-5.667310383142362
 31
0.0
  0
LINE
  5
207
330
1F
100
AcDbEntity
  8
0
100
AcDbLine
 10
-87.26288291503035
 20
-57.7684216437084
 30
0.0
 11
-86.87465434737645
 21
-57.71731038314208
 31
0.0
  0
LINE
  5
208
330
1F
100
AcDbEntity
  8
0
100
AcDbLine
 10
-10.17465434737621
 20
-6.417310383142191
 30
0.0
 11
-10.22576560794253
 21
-6.029081815488301
 31
0.0
  0
LINE
  5
209
330
1F
100
AcDbEntity
  8
0
100
AcDbLine
 10
-87.62465434737665
 20
-57.91827227746533
 30
0.0
 11
-87.26288291503035
 21
-57.7684216437084
 31
0.0
  0
LINE
  5
20A
330
1F
100
AcDbEntity
  8
0
100
AcDbLine
 10
-10.22576560794253
 20
-6.805538950796083
 30
0.0
 11
-10.17465434737621
 21
-6.417310383142191
 31
0.0
  0
LINE
  5
20B
330
1F
100
AcDbEntity
  8
0
100
AcDbLine
 10
-87.93531451915625
 20
-58.15665021136229
 30
0.0
 11
-87.62465434737665
 21
-57.91827227746533
 31
0.0
  0
LINE
  5
20C
330
1F
100
AcDbEntity
  8
0
100
AcDbLine
 10
-39.87034662319817
 20
-15.53718172377889
 30
0.0
 11
-40.01270916940652
 21
-15.8808753136084
 31
0.0
  0
LINE
  5
20D
330
1F
100
AcDbEntity
  8
0
100
AcDbLine
 10
-10.37561624169946
 20
-7.167310383142382
 30
0.0
 11
-10.22576560794253
 21
-6.805538950796083
 31
0.0
  0
LINE
  5
20E
330
1F
100
AcDbEntity
  8
0
100
AcDbLine
 10
-91.41055273223851
 20
-57.21731038314183
 30
0.0
 11
-91.01095104221992
 21
-58.18203420273196
 31
0.0
  0
LINE
  5
20F
330
1F
100
AcDbEntity
  8
0
100
AcDbLine
 10
-10.61399417559643
 20
-7.477970554921993
 30
0.0
 11
-10.37561624169946
 21
-7.167310383142382
 31
0.0
  0
LINE
  5
210
330
1F
100
AcDbEntity
  8
0
100
AcDbLine
 10
-10.9246543473764
 20
-7.716348488818955
 30
0.0
 11
-10.61399417559643
 21
-7.477970554921993
 31
0.0
  0
LINE
  5
211
330
1F
100
AcDbEntity
  8
0
100
AcDbLine
 10
-39.8217894098471
 20
-15.16835307076441
 30
0.0
 11
-39.87034662319817
 21
-15.53718172377889
 31
0.0
  0
LINE
  5
212
330
1F
100
AcDbEntity
  8
0
100
AcDbLine
 10
-11.28642577972234
 20
-7.866199122575884
 30
0.0
 11
-10.9246543473764
 21
-7.716348488818955
 31
0.0
  0
LINE
  5
213
330
1F
100
AcDbEntity
  8
0
100
AcDbLine
 10
-41.68642577972264
 20
-7.866199122575884
 30
0.0
 11
-42.07465434737653
 21
-7.917310383142212
 31
0.0
  0
LINE
  5
214
330
1F
100
AcDbEntity
  8
0
100
AcDbLine
 10
-94.48642577972254
 20
-65.7684216437084
 30
0.0
 11
-94.1246543473766
 21
-65.91827227746532
 31
0.0
  0
LINE
  5
215
330
1F
100
AcDbEntity
  8
0
100
AcDbLine
 10
-97.70308147212282
 20
-62.04573750788848
 30
0.0
 11
-98.33875596251436
 21
-61.21731038314236
 31
0.0
  0
LINE
  5
216
330
1F
100
AcDbEntity
  8
0
100
AcDbLine
 10
-94.87465434737643
 20
-65.71731038314206
 30
0.0
 11
-94.48642577972254
 21
-65.7684216437084
 31
0.0
  0
LINE
  5
217
330
1F
100
AcDbEntity
  8
0
100
AcDbLine
 10
-95.26288291503033
 20
-70.16619912257579
 30
0.0
 11
-95.62465434737626
 21
-70.01634848881886
 31
0.0
  0
LINE
  5
218
330
1F
100
AcDbEntity
  8
0
100
AcDbLine
 10
-42.67187838122305
 20
-15.16835307076441
 30
0.0
 11
-42.62332116787199
 21
-14.79952441774993
 31
0.0
  0
LINE
  5
219
330
1F
100
AcDbEntity
  8
0
100
AcDbLine
 10
-11.67465434737623
 20
-7.917310383142212
 30
0.0
 11
-11.28642577972234
 21
-7.866199122575884
 31
0.0
  0
LINE
  5
21A
330
1F
100
AcDbEntity
  8
0
100
AcDbLine
 10
-42.25449251485751
 20
-16.17601169008684
 30
0.0
 11
-42.48095862166363
 21
-15.8808753136084
 31
0.0
  0
LINE
  5
21B
330
1F
100
AcDbEntity
  8
0
100
AcDbLine
 10
-11.26835007308913
 20
-15.8808753136084
 30
0.0
 11
-11.12598752688077
 21
-15.53718172377889
 31
0.0
  0
LINE
  5
21C
330
1F
100
AcDbEntity
  8
0
100
AcDbLine
 10
-105.1246543473763
 20
-60.51634848881886
 30
0.0
 11
-105.4353145191562
 21
-60.27797055492189
 31
0.0
  0
LINE
  5
21D
330
1F
100
AcDbEntity
  8
0
100
AcDbLine
 10
-41.95935613837906
 20
-13.93422834463585
 30
0.0
 11
-41.61566254854956
 21
-13.7918657984275
 31
0.0
  0
LINE
  5
21E
330
1F
100
AcDbEntity
  8
0
100
AcDbLine
 10
-12.06288291503012
 20
-7.866199122575884
 30
0.0
 11
-11.67465434737623
 21
-7.917310383142212
 31
0.0
  0
LINE
  5
21F
330
1F
100
AcDbEntity
  8
0
100
AcDbLine
 10
-13.87896207155459
 20
-14.79952441774993
 30
0.0
 11
-13.92751928490566
 21
-15.16835307076441
 31
0.0
  0
LINE
  5
220
330
1F
100
AcDbEntity
  8
0
100
AcDbLine
 10
-41.61566254854956
 20
-13.7918657984275
 30
0.0
 11
-41.24683389553508
 21
-13.74330858507643
 31
0.0
  0
LINE
  5
221
330
1F
100
AcDbEntity
  8
0
100
AcDbLine
 10
-12.42465434737642
 20
-7.716348488818955
 30
0.0
 11
-12.06288291503012
 21
-7.866199122575884
 31
0.0
  0
LINE
  5
222
330
1F
100
AcDbEntity
  8
0
100
AcDbLine
 10
-40.53431165269109
 20
-13.93422834463585
 30
0.0
 11
-40.23917527621265
 21
-14.16069445144198
 31
0.0
  0
LINE
  5
223
330
1F
100
AcDbEntity
  8
0
100
AcDbLine
 10
-12.73531451915603
 20
-7.477970554921993
 30
0.0
 11
-12.42465434737642
 21
-7.716348488818955
 31
0.0
  0
LINE
  5
224
330
1F
100
AcDbEntity
  8
0
100
AcDbLine
 10
-12.97369245305299
 20
-7.167310383142021
 30
0.0
 11
-12.73531451915603
 21
-7.477970554921993
 31
0.0
  0
LINE
  5
225
330
1F
100
AcDbEntity
  8
0
100
AcDbLine
 10
-42.25449251485751
 20
-14.16069445144198
 30
0.0
 11
-41.95935613837906
 21
-13.93422834463585
 31
0.0
  0
LINE
  5
226
330
1F
100
AcDbEntity
  8
0
100
AcDbLine
 10
-41.24683389553508
 20
-13.74330858507643
 30
0.0
 11
-40.87800524252059
 21
-13.7918657984275
 31
0.0
  0
LINE
  5
227
330
1F
100
AcDbEntity
  8
0
100
AcDbLine
 10
-13.12354308680992
 20
-6.805538950796083
 30
0.0
 11
-12.97369245305299
 21
-7.167310383142021
 31
0.0
  0
LINE
  5
228
330
1F
100
AcDbEntity
  8
0
100
AcDbLine
 10
-13.17465434737625
 20
-6.417310383142191
 30
0.0
 11
-13.12354308680992
 21
-6.805538950796083
 31
0.0
  0
LINE
  5
229
330
1F
100
AcDbEntity
  8
0
100
AcDbLine
 10
-102.1246543473766
 20
-57.91827227746533
 30
0.0
 11
-101.8139941755966
 21
-58.15665021136229
 31
0.0
  0
LINE
  5
22A
330
1F
100
AcDbEntity
  8
0
100
AcDbLine
 10
-13.12354308680992
 20
-6.029081815488301
 30
0.0
 11
-13.17465434737625
 21
-6.417310383142191
 31
0.0
  0
LINE
  5
22B
330
1F
100
AcDbEntity
  8
0
100
AcDbLine
 10
-12.97369245305299
 20
-5.667310383142001
 30
0.0
 11
-13.12354308680992
 21
-6.029081815488301
 31
0.0
  0
LINE
  5
22C
330
1F
100
AcDbEntity
  8
0
100
AcDbLine
 10
-42.48095862166363
 20
-14.45583082792042
 30
0.0
 11
-42.25449251485751
 21
-14.16069445144198
 31
0.0
  0
LINE
  5
22D
330
1F
100
AcDbEntity
  8
0
100
AcDbLine
 10
-42.62332116787199
 20
-15.53718172377889
 30
0.0
 11
-42.67187838122305
 21
-15.16835307076441
 31
0.0
  0
LINE
  5
22E
330
1F
100
AcDbEntity
  8
0
100
AcDbLine
 10
-12.73531451915603
 20
-5.35665021136239
 30
0.0
 11
-12.97369245305299
 21
-5.667310383142001
 31
0.0
  0
LINE
  5
22F
330
1F
100
AcDbEntity
  8
0
100
AcDbLine
 10
-42.48095862166363
 20
-15.8808753136084
 30
0.0
 11
-42.62332116787199
 21
-15.53718172377889
 31
0.0
  0
LINE
  5
230
330
1F
100
AcDbEntity
  8
0
100
AcDbLine
 10
-12.42465434737606
 20
-5.118272277465429
 30
0.0
 11
-12.73531451915603
 21
-5.35665021136239
 31
0.0
  0
LINE
  5
231
330
1F
100
AcDbEntity
  8
0
100
AcDbLine
 10
13.24699225350181
 20
-23.64041420651699
 30
0.0
 11
13.42180273835944
 21
-23.86823166582242
 31
0.0
  0
LINE
  5
232
330
1F
100
AcDbEntity
  8
0
100
AcDbLine
 10
-13.73659952534624
 20
-14.45583082792042
 30
0.0
 11
-13.87896207155459
 21
-14.79952441774993
 31
0.0
  0
LINE
  5
233
330
1F
100
AcDbEntity
  8
0
100
AcDbLine
 10
13.13710178874656
 20
-23.37511515612999
 30
0.0
 11
13.24699225350181
 21
-23.64041420651699
 31
0.0
  0
LINE
  5
234
330
1F
100
AcDbEntity
  8
0
100
AcDbLine
 10
-81.25029876980874
 20
-47.07235021887624
 30
0.0
 11
-81.30153313530457
 21
-47.4605625596016
 31
0.0
  0
LINE
  5
235
330
1F
100
AcDbEntity
  8
0
100
AcDbLine
 10
-82.00071065782146
 20
-48.37115043381674
 30
0.0
 11
-82.36252958970016
 21
-48.5208863421133
 31
0.0
  0
LINE
  5
236
330
1F
100
AcDbEntity
  8
0
100
AcDbLine
 10
-81.68997491188257
 20
-48.13287102242125
 30
0.0
 11
-82.00071065782146
 21
-48.37115043381674
 31
0.0
  0
LINE
  5
237
330
1F
100
AcDbEntity
  8
0
100
AcDbLine
 10
-83.50071058240701
 20
-48.37067478296616
 30
0.0
 11
-83.81129514878987
 21
-48.13219835053736
 31
0.0
  0
LINE
  5
238
330
1F
100
AcDbEntity
  8
0
100
AcDbLine
 10
-81.30153313530457
 20
-47.4605625596016
 30
0.0
 11
-81.45149847945378
 21
-47.82228645603838
 31
0.0
  0
LINE
  5
239
330
1F
100
AcDbEntity
  8
0
100
AcDbLine
 10
13.09962019766464
 20
-23.09041420651711
 30
0.0
 11
13.13710178874656
 21
-23.37511515612999
 31
0.0
  0
LINE
  5
23A
330
1F
100
AcDbEntity
  8
0
100
AcDbLine
 10
-41.95935613837906
 20
-16.40247779689296
 30
0.0
 11
-42.25449251485751
 21
-16.17601169008684
 31
0.0
  0
LINE
  5
23B
330
1F
100
AcDbEntity
  8
0
100
AcDbLine
 10
-41.61566254854956
 20
-16.54484034310132
 30
0.0
 11
-41.95935613837906
 21
-16.40247779689296
 31
0.0
  0
LINE
  5
23C
330
1F
100
AcDbEntity
  8
0
100
AcDbLine
 10
13.13710178874656
 20
-22.80571325690424
 30
0.0
 11
13.09962019766464
 21
-23.09041420651711
 31
0.0
  0
LINE
  5
23D
330
1F
100
AcDbEntity
  8
0
100
AcDbLine
 10
-81.68930223999868
 20
-46.01155078551395
 30
0.0
 11
-81.45102282860319
 21
-46.32228653145284
 31
0.0
  0
LINE
  5
23E
330
1F
100
AcDbEntity
  8
0
100
AcDbLine
 10
-81.45149847945378
 20
-47.82228645603838
 30
0.0
 11
-81.68997491188257
 21
-48.13287102242125
 31
0.0
  0
LINE
  5
23F
330
1F
100
AcDbEntity
  8
0
100
AcDbLine
 10
-81.45102282860319
 20
-46.32228653145284
 30
0.0
 11
-81.30128692030664
 21
-46.68410546333154
 31
0.0
  0
LINE
  5
240
330
1F
100
AcDbEntity
  8
0
100
AcDbLine
 10
13.24699225350181
 20
-22.54041420651688
 30
0.0
 11
13.13710178874656
 21
-22.80571325690424
 31
0.0
  0
LINE
  5
241
330
1F
100
AcDbEntity
  8
0
100
AcDbLine
 10
-41.24683389553508
 20
-16.59339755645238
 30
0.0
 11
-41.61566254854956
 21
-16.54484034310132
 31
0.0
  0
LINE
  5
242
330
1F
100
AcDbEntity
  8
0
100
AcDbLine
 10
13.42180273835944
 20
-22.31259674721181
 30
0.0
 11
13.24699225350181
 21
-22.54041420651688
 31
0.0
  0
LINE
  5
243
330
1F
100
AcDbEntity
  8
0
100
AcDbLine
 10
-82.36252958970016
 20
-48.5208863421133
 30
0.0
 11
-82.75077434524486
 21
-48.5718744926112
 31
0.0
  0
LINE
  5
244
330
1F
100
AcDbEntity
  8
0
100
AcDbLine
 10
48.06468548084386
 20
-58.15665021136229
 30
0.0
 11
47.8263075469469
 21
-58.46731038314191
 31
0.0
  0
LINE
  5
245
330
1F
100
AcDbEntity
  8
0
100
AcDbLine
 10
-93.81399417559663
 20
-69.77797055492191
 30
0.0
 11
-94.12465434737625
 21
-70.01634848881886
 31
0.0
  0
LINE
  5
246
330
1F
100
AcDbEntity
  8
0
100
AcDbLine
 10
-82.75077434524486
 20
-48.5718744926112
 30
0.0
 11
-83.13898668597022
 21
-48.52064012711537
 31
0.0
  0
LINE
  5
247
330
1F
100
AcDbEntity
  8
0
100
AcDbLine
 10
-83.13898668597022
 20
-48.52064012711537
 30
0.0
 11
-83.50071058240701
 21
-48.37067478296616
 31
0.0
  0
LINE
  5
248
330
1F
100
AcDbEntity
  8
0
100
AcDbLine
 10
-93.57561624169968
 20
-69.46731038314194
 30
0.0
 11
-93.81399417559663
 21
-69.77797055492191
 31
0.0
  0
LINE
  5
249
330
1F
100
AcDbEntity
  8
0
100
AcDbLine
 10
-81.30128692030664
 20
-46.68410546333154
 30
0.0
 11
-81.25029876980874
 21
-47.07235021887624
 31
0.0
  0
LINE
  5
24A
330
1F
100
AcDbEntity
  8
0
100
AcDbLine
 10
-83.81129514878987
 20
-48.13219835053736
 30
0.0
 11
-84.04957456018536
 21
-47.82146260459847
 31
0.0
  0
LINE
  5
24B
330
1F
100
AcDbEntity
  8
0
100
AcDbLine
 10
-96.17369245305319
 20
-67.96731038314228
 30
0.0
 11
-96.32354308681013
 21
-67.60553895079597
 31
0.0
  0
LINE
  5
24C
330
1F
100
AcDbEntity
  8
0
100
AcDbLine
 10
-40.01270916940652
 20
-14.45583082792042
 30
0.0
 11
-39.87034662319817
 21
-14.79952441774993
 31
0.0
  0
LINE
  5
24D
330
1F
100
AcDbEntity
  8
0
100
AcDbLine
 10
13.64962019766488
 20
-22.13778626235418
 30
0.0
 11
13.42180273835944
 21
-22.31259674721181
 31
0.0
  0
LINE
  5
24E
330
1F
100
AcDbEntity
  8
0
100
AcDbLine
 10
-40.23917527621265
 20
-16.17601169008684
 30
0.0
 11
-40.53431165269109
 21
-16.40247779689296
 31
0.0
  0
LINE
  5
24F
330
1F
100
AcDbEntity
  8
0
100
AcDbLine
 10
13.91491924805187
 20
-22.02789579759893
 30
0.0
 11
13.64962019766488
 21
-22.13778626235418
 31
0.0
  0
LINE
  5
250
330
1F
100
AcDbEntity
  8
0
100
AcDbLine
 10
14.19962019766475
 20
-21.99041420651701
 30
0.0
 11
13.91491924805187
 21
-22.02789579759893
 31
0.0
  0
LINE
  5
251
330
1F
100
AcDbEntity
  8
0
100
AcDbLine
 10
-40.01270916940652
 20
-15.8808753136084
 30
0.0
 11
-40.23917527621265
 21
-16.17601169008684
 31
0.0
  0
LINE
  5
252
330
1F
100
AcDbEntity
  8
0
100
AcDbLine
 10
14.48432114727763
 20
-22.02789579759893
 30
0.0
 11
14.19962019766475
 21
-21.99041420651701
 31
0.0
  0
LINE
  5
253
330
1F
100
AcDbEntity
  8
0
100
AcDbLine
 10
14.74962019766498
 20
-22.13778626235418
 30
0.0
 11
14.48432114727763
 21
-22.02789579759893
 31
0.0
  0
LINE
  5
254
330
1F
100
AcDbEntity
  8
0
100
AcDbLine
 10
-36.87465434737627
 20
0.7826896168579758
 30
0.0
 11
-39.07465434737613
 21
0.7826896168579758
 31
0.0
  0
LINE
  5
255
330
1F
100
AcDbEntity
  8
0
100
AcDbLine
 10
14.97743765697006
 20
-22.31259674721181
 30
0.0
 11
14.74962019766498
 21
-22.13778626235418
 31
0.0
  0
LINE
  5
256
330
1F
100
AcDbEntity
  8
0
100
AcDbLine
 10
-16.87465434737649
 20
0.7826896168579758
 30
0.0
 11
-14.67465434737663
 21
0.7826896168579758
 31
0.0
  0
LINE
  5
257
330
1F
100
AcDbEntity
  8
0
100
AcDbLine
 10
15.15224814182769
 20
-22.54041420651724
 30
0.0
 11
14.97743765697006
 21
-22.31259674721181
 31
0.0
  0
LINE
  5
258
330
1F
100
AcDbEntity
  8
0
100
AcDbLine
 10
15.26213860658294
 20
-22.80571325690424
 30
0.0
 11
15.15224814182769
 21
-22.54041420651724
 31
0.0
  0
LINE
  5
259
330
1F
100
AcDbEntity
  8
0
100
AcDbLine
 10
-16.87465434737649
 20
16.78268961685795
 30
0.0
 11
-14.67465434737663
 21
16.78268961685795
 31
0.0
  0
LINE
  5
25A
330
1F
100
AcDbEntity
  8
0
100
AcDbLine
 10
-13.73659952534624
 20
-15.8808753136084
 30
0.0
 11
-13.51013341854011
 21
-16.17601169008684
 31
0.0
  0
LINE
  5
25B
330
1F
100
AcDbEntity
  8
0
100
AcDbLine
 10
-16.87465434737649
 20
0.7826896168579758
 30
0.0
 11
-16.87465434737649
 21
16.78268961685795
 31
0.0
  0
LINE
  5
25C
330
1F
100
AcDbEntity
  8
0
100
AcDbLine
 10
15.29962019766486
 20
-23.09041420651711
 30
0.0
 11
15.26213860658294
 21
-22.80571325690424
 31
0.0
  0
LINE
  5
25D
330
1F
100
AcDbEntity
  8
0
100
AcDbLine
 10
15.26213860658294
 20
-23.37511515612999
 30
0.0
 11
15.29962019766486
 21
-23.09041420651711
 31
0.0
  0
LINE
  5
25E
330
1F
100
AcDbEntity
  8
0
100
AcDbLine
 10
15.15224814182769
 20
-23.64041420651735
 30
0.0
 11
15.26213860658294
 21
-23.37511515612999
 31
0.0
  0
LINE
  5
25F
330
1F
100
AcDbEntity
  8
0
100
AcDbLine
 10
-13.87896207155459
 20
-15.53718172377889
 30
0.0
 11
-13.73659952534624
 21
-15.8808753136084
 31
0.0
  0
LINE
  5
260
330
1F
100
AcDbEntity
  8
0
100
AcDbLine
 10
-13.51013341854011
 20
-16.17601169008684
 30
0.0
 11
-13.21499704206167
 21
-16.40247779689296
 31
0.0
  0
LINE
  5
261
330
1F
100
AcDbEntity
  8
0
100
AcDbLine
 10
14.97743765697006
 20
-23.86823166582242
 30
0.0
 11
15.15224814182769
 21
-23.64041420651735
 31
0.0
  0
LINE
  5
262
330
1F
100
AcDbEntity
  8
0
100
AcDbLine
 10
-14.67465434737663
 20
16.78268961685795
 30
0.0
 11
-14.67465434737663
 21
0.7826896168579758
 31
0.0
  0
LINE
  5
263
330
1F
100
AcDbEntity
  8
0
100
AcDbLine
 10
-12.06288291503012
 20
25.4315783562918
 30
0.0
 11
-11.67465434737623
 21
25.48268961685813
 31
0.0
  0
LINE
  5
264
330
1F
100
AcDbEntity
  8
0
100
AcDbLine
 10
-88.32354308681015
 20
-58.8290818154882
 30
0.0
 11
-88.17369245305322
 21
-58.46731038314226
 31
0.0
  0
LINE
  5
265
330
1F
100
AcDbEntity
  8
0
100
AcDbLine
 10
-13.21499704206167
 20
-16.40247779689296
 30
0.0
 11
-12.87130345223216
 21
-16.54484034310132
 31
0.0
  0
LINE
  5
266
330
1F
100
AcDbEntity
  8
0
100
AcDbLine
 10
-12.87130345223216
 20
-16.54484034310132
 30
0.0
 11
-12.50247479921768
 21
-16.59339755645238
 31
0.0
  0
LINE
  5
267
330
1F
100
AcDbEntity
  8
0
100
AcDbLine
 10
-88.37465434737648
 20
-59.21731038314209
 30
0.0
 11
-88.32354308681015
 21
-58.8290818154882
 31
0.0
  0
LINE
  5
268
330
1F
100
AcDbEntity
  8
0
100
AcDbLine
 10
14.19962019766475
 20
-24.19041420651723
 30
0.0
 11
14.48432114727763
 21
-24.1529326154353
 31
0.0
  0
LINE
  5
269
330
1F
100
AcDbEntity
  8
0
100
AcDbLine
 10
-12.50247479921768
 20
-16.59339755645238
 30
0.0
 11
-12.1336461462032
 21
-16.54484034310132
 31
0.0
  0
LINE
  5
26A
330
1F
100
AcDbEntity
  8
0
100
AcDbLine
 10
13.91491924805187
 20
-24.1529326154353
 30
0.0
 11
14.19962019766475
 21
-24.19041420651723
 31
0.0
  0
LINE
  5
26B
330
1F
100
AcDbEntity
  8
0
100
AcDbLine
 10
-12.1336461462032
 20
-16.54484034310132
 30
0.0
 11
-11.7899525563737
 21
-16.40247779689296
 31
0.0
  0
LINE
  5
26C
330
1F
100
AcDbEntity
  8
0
100
AcDbLine
 10
13.64962019766451
 20
-24.04304215068005
 30
0.0
 11
13.91491924805187
 21
-24.1529326154353
 31
0.0
  0
LINE
  5
26D
330
1F
100
AcDbEntity
  8
0
100
AcDbLine
 10
-11.7899525563737
 20
-16.40247779689296
 30
0.0
 11
-11.49481617989525
 21
-16.17601169008684
 31
0.0
  0
LINE
  5
26E
330
1F
100
AcDbEntity
  8
0
100
AcDbLine
 10
13.42180273835944
 20
-23.86823166582242
 30
0.0
 11
13.64962019766451
 21
-24.04304215068005
 31
0.0
  0
LINE
  5
26F
330
1F
100
AcDbEntity
  8
0
100
AcDbLine
 10
-11.49481617989525
 20
-16.17601169008684
 30
0.0
 11
-11.26835007308913
 21
-15.8808753136084
 31
0.0
  0
LINE
  5
270
330
1F
100
AcDbEntity
  8
0
100
AcDbLine
 10
5.956943687839585
 20
-31.72988883634018
 30
0.0
 11
5.782133202981957
 21
-31.50207137703474
 31
0.0
  0
LINE
  5
271
330
1F
100
AcDbEntity
  8
0
100
AcDbLine
 10
6.066834152594835
 20
-31.99518788672717
 30
0.0
 11
5.956943687839585
 21
-31.72988883634018
 31
0.0
  0
LINE
  5
272
330
1F
100
AcDbEntity
  8
0
100
AcDbLine
 10
-11.12598752688077
 20
-15.53718172377889
 30
0.0
 11
-11.07743031352971
 21
-15.16835307076441
 31
0.0
  0
LINE
  5
273
330
1F
100
AcDbEntity
  8
0
100
AcDbLine
 10
-57.80099649426647
 20
-32.82988883633993
 30
0.0
 11
-57.9758069791241
 21
-33.05770629564536
 31
0.0
  0
LINE
  5
274
330
1F
100
AcDbEntity
  8
0
100
AcDbLine
 10
-68.72674635172282
 20
-23.86823166582242
 30
0.0
 11
-68.90155683658044
 21
-23.64041420651735
 31
0.0
  0
LINE
  5
275
330
1F
100
AcDbEntity
  8
0
100
AcDbLine
 10
-57.9758069791241
 20
-33.05770629564536
 30
0.0
 11
-58.20362443842917
 21
-33.23251678050298
 31
0.0
  0
LINE
  5
276
330
1F
100
AcDbEntity
  8
0
100
AcDbLine
 10
-58.20362443842917
 20
-33.23251678050298
 30
0.0
 11
-58.46892348881653
 21
-33.34240724525824
 31
0.0
  0
LINE
  5
277
330
1F
100
AcDbEntity
  8
0
100
AcDbLine
 10
-82.7498230435437
 20
-45.57187464344011
 30
0.0
 11
-82.36161070281834
 21
-45.62310900893594
 31
0.0
  0
LINE
  5
278
330
1F
100
AcDbEntity
  8
0
100
AcDbLine
 10
-57.69110602951123
 20
-31.99518788672717
 30
0.0
 11
-57.6536244384293
 21
-32.27988883634005
 31
0.0
  0
LINE
  5
279
330
1F
100
AcDbEntity
  8
0
100
AcDbLine
 10
-82.36161070281834
 20
-45.62310900893594
 30
0.0
 11
-81.99988680638155
 21
-45.77307435308515
 31
0.0
  0
LINE
  5
27A
330
1F
100
AcDbEntity
  8
0
100
AcDbLine
 10
-81.99988680638155
 20
-45.77307435308515
 30
0.0
 11
-81.68930223999868
 21
-46.01155078551395
 31
0.0
  0
LINE
  5
27B
330
1F
100
AcDbEntity
  8
0
100
AcDbLine
 10
-59.30362443842964
 20
-31.32726089217712
 30
0.0
 11
-59.03832538804229
 21
-31.21737042742187
 31
0.0
  0
LINE
  5
27C
330
1F
100
AcDbEntity
  8
0
100
AcDbLine
 10
-59.03832538804229
 20
-31.21737042742187
 30
0.0
 11
-58.75362443842941
 21
-31.17988883633994
 31
0.0
  0
LINE
  5
27D
330
1F
100
AcDbEntity
  8
0
100
AcDbLine
 10
-58.75362443842941
 20
-31.17988883633994
 30
0.0
 11
-58.46892348881653
 21
-31.21737042742187
 31
0.0
  0
LINE
  5
27E
330
1F
100
AcDbEntity
  8
0
100
AcDbLine
 10
-58.46892348881653
 20
-31.21737042742187
 30
0.0
 11
-58.20362443842954
 21
-31.32726089217712
 31
0.0
  0
LINE
  5
27F
330
1F
100
AcDbEntity
  8
0
100
AcDbLine
 10
-58.20362443842954
 20
-31.32726089217712
 30
0.0
 11
-57.9758069791241
 21
-31.50207137703474
 31
0.0
  0
LINE
  5
280
330
1F
100
AcDbEntity
  8
0
100
AcDbLine
 10
-57.9758069791241
 20
-31.50207137703474
 30
0.0
 11
-57.80099649426647
 21
-31.72988883633981
 31
0.0
  0
LINE
  5
281
330
1F
100
AcDbEntity
  8
0
100
AcDbLine
 10
-57.80099649426647
 20
-31.72988883633981
 30
0.0
 11
-57.69110602951123
 21
-31.99518788672717
 31
0.0
  0
LINE
  5
282
330
1F
100
AcDbEntity
  8
0
100
AcDbLine
 10
-11.07743031352971
 20
-15.16835307076441
 30
0.0
 11
-11.12598752688077
 21
-14.79952441774993
 31
0.0
  0
LINE
  5
283
330
1F
100
AcDbEntity
  8
0
100
AcDbLine
 10
6.104315743676761
 20
-32.27988883634005
 30
0.0
 11
6.066834152594835
 21
-31.99518788672717
 31
0.0
  0
LINE
  5
284
330
1F
100
AcDbEntity
  8
0
100
AcDbLine
 10
-11.12598752688077
 20
-14.79952441774993
 30
0.0
 11
-11.26835007308913
 21
-14.45583082792042
 31
0.0
  0
LINE
  5
285
330
1F
100
AcDbEntity
  8
0
100
AcDbLine
 10
6.066834152594835
 20
-32.56458978595293
 30
0.0
 11
6.104315743676761
 21
-32.27988883634005
 31
0.0
  0
LINE
  5
286
330
1F
100
AcDbEntity
  8
0
100
AcDbLine
 10
-11.26835007308913
 20
-14.45583082792042
 30
0.0
 11
-11.49481617989525
 21
-14.16069445144198
 31
0.0
  0
LINE
  5
287
330
1F
100
AcDbEntity
  8
0
100
AcDbLine
 10
5.956943687839585
 20
-32.82988883634029
 30
0.0
 11
6.066834152594835
 21
-32.56458978595293
 31
0.0
  0
LINE
  5
288
330
1F
100
AcDbEntity
  8
0
100
AcDbLine
 10
5.782133202981957
 20
-33.05770629564536
 30
0.0
 11
5.956943687839585
 21
-32.82988883634029
 31
0.0
  0
LINE
  5
289
330
1F
100
AcDbEntity
  8
0
100
AcDbLine
 10
-11.49481617989525
 20
-14.16069445144198
 30
0.0
 11
-11.7899525563737
 21
-13.93422834463585
 31
0.0
  0
LINE
  5
28A
330
1F
100
AcDbEntity
  8
0
100
AcDbLine
 10
5.554315743676525
 20
-33.23251678050298
 30
0.0
 11
5.782133202981957
 21
-33.05770629564536
 31
0.0
  0
LINE
  5
28B
330
1F
100
AcDbEntity
  8
0
100
AcDbLine
 10
-11.7899525563737
 20
-13.93422834463585
 30
0.0
 11
-12.1336461462032
 21
-13.7918657984275
 31
0.0
  0
LINE
  5
28C
330
1F
100
AcDbEntity
  8
0
100
AcDbLine
 10
5.289016693289527
 20
-33.34240724525824
 30
0.0
 11
5.554315743676525
 21
-33.23251678050298
 31
0.0
  0
LINE
  5
28D
330
1F
100
AcDbEntity
  8
0
100
AcDbLine
 10
-12.1336461462032
 20
-13.7918657984275
 30
0.0
 11
-12.50247479921768
 21
-13.74330858507643
 31
0.0
  0
LINE
  5
28E
330
1F
100
AcDbEntity
  8
0
100
AcDbLine
 10
5.004315743676649
 20
-33.37988883634016
 30
0.0
 11
5.289016693289527
 21
-33.34240724525824
 31
0.0
  0
LINE
  5
28F
330
1F
100
AcDbEntity
  8
0
100
AcDbLine
 10
-12.50247479921768
 20
-13.74330858507643
 30
0.0
 11
-12.87130345223216
 21
-13.7918657984275
 31
0.0
  0
LINE
  5
290
330
1F
100
AcDbEntity
  8
0
100
AcDbLine
 10
4.719614794063772
 20
-33.34240724525824
 30
0.0
 11
5.004315743676649
 21
-33.37988883634016
 31
0.0
  0
LINE
  5
291
330
1F
100
AcDbEntity
  8
0
100
AcDbLine
 10
-12.87130345223216
 20
-13.7918657984275
 30
0.0
 11
-13.21499704206167
 21
-13.93422834463585
 31
0.0
  0
LINE
  5
292
330
1F
100
AcDbEntity
  8
0
100
AcDbLine
 10
4.454315743676414
 20
-33.23251678050298
 30
0.0
 11
4.719614794063772
 21
-33.34240724525824
 31
0.0
  0
LINE
  5
293
330
1F
100
AcDbEntity
  8
0
100
AcDbLine
 10
-13.21499704206167
 20
-13.93422834463585
 30
0.0
 11
-13.51013341854011
 21
-14.16069445144198
 31
0.0
  0
LINE
  5
294
330
1F
100
AcDbEntity
  8
0
100
AcDbLine
 10
4.226498284371342
 20
-33.05770629564536
 30
0.0
 11
4.454315743676414
 21
-33.23251678050298
 31
0.0
  0
LINE
  5
295
330
1F
100
AcDbEntity
  8
0
100
AcDbLine
 10
-13.51013341854011
 20
-14.16069445144198
 30
0.0
 11
-13.73659952534624
 21
-14.45583082792042
 31
0.0
  0
LINE
  5
296
330
1F
100
AcDbEntity
  8
0
100
AcDbLine
 10
4.051687799513714
 20
-32.82988883633993
 30
0.0
 11
4.226498284371342
 21
-33.05770629564536
 31
0.0
  0
LINE
  5
297
330
1F
100
AcDbEntity
  8
0
100
AcDbLine
 10
3.941797334758464
 20
-32.56458978595293
 30
0.0
 11
4.051687799513714
 21
-32.82988883633993
 31
0.0
  0
LINE
  5
298
330
1F
100
AcDbEntity
  8
0
100
AcDbLine
 10
3.904315743676539
 20
-32.27988883634005
 30
0.0
 11
3.941797334758464
 21
-32.56458978595293
 31
0.0
  0
LINE
  5
299
330
1F
100
AcDbEntity
  8
0
100
AcDbLine
 10
32.7371170849698
 20
-57.7684216437084
 30
0.0
 11
32.37534565262386
 21
-57.91827227746533
 31
0.0
  0
LINE
  5
29A
330
1F
100
AcDbEntity
  8
0
100
AcDbLine
 10
3.941797334758464
 20
-31.99518788672717
 30
0.0
 11
3.904315743676539
 21
-32.27988883634005
 31
0.0
  0
LINE
  5
29B
330
1F
100
AcDbEntity
  8
0
100
AcDbLine
 10
4.051687799513714
 20
-31.72988883633981
 30
0.0
 11
3.941797334758464
 21
-31.99518788672717
 31
0.0
  0
LINE
  5
29C
330
1F
100
AcDbEntity
  8
0
100
AcDbLine
 10
34.42438375830045
 20
-59.96731038314228
 30
0.0
 11
34.57423439205738
 21
-59.60553895079599
 31
0.0
  0
LINE
  5
29D
330
1F
100
AcDbEntity
  8
0
100
AcDbLine
 10
-105.8235430868101
 20
-58.8290818154882
 30
0.0
 11
-105.6736924530532
 21
-58.46731038314226
 31
0.0
  0
LINE
  5
29E
330
1F
100
AcDbEntity
  8
0
100
AcDbLine
 10
34.42438375830045
 20
-58.46731038314226
 30
0.0
 11
34.18600582440349
 21
-58.15665021136229
 31
0.0
  0
LINE
  5
29F
330
1F
100
AcDbEntity
  8
0
100
AcDbLine
 10
4.226498284371342
 20
-31.50207137703474
 30
0.0
 11
4.051687799513714
 21
-31.72988883633981
 31
0.0
  0
LINE
  5
2A0
330
1F
100
AcDbEntity
  8
0
100
AcDbLine
 10
33.12534565262369
 20
-57.71731038314208
 30
0.0
 11
32.7371170849698
 21
-57.7684216437084
 31
0.0
  0
LINE
  5
2A1
330
1F
100
AcDbEntity
  8
0
100
AcDbLine
 10
4.454315743676775
 20
-31.32726089217712
 30
0.0
 11
4.226498284371342
 21
-31.50207137703474
 31
0.0
  0
LINE
  5
2A2
330
1F
100
AcDbEntity
  8
0
100
AcDbLine
 10
4.719614794063772
 20
-31.21737042742187
 30
0.0
 11
4.454315743676775
 21
-31.32726089217712
 31
0.0
  0
LINE
  5
2A3
330
1F
100
AcDbEntity
  8
0
100
AcDbLine
 10
13.13710178874656
 20
40.94049438984592
 30
0.0
 11
13.24699225350181
 21
41.20579344023291
 31
0.0
  0
LINE
  5
2A4
330
1F
100
AcDbEntity
  8
0
100
AcDbLine
 10
13.13710178874656
 20
40.37109249062016
 30
0.0
 11
13.09962019766464
 21
40.65579344023304
 31
0.0
  0
LINE
  5
2A5
330
1F
100
AcDbEntity
  8
0
100
AcDbLine
 10
33.51357422027758
 20
-57.7684216437084
 30
0.0
 11
33.12534565262369
 21
-57.71731038314208
 31
0.0
  0
LINE
  5
2A6
330
1F
100
AcDbEntity
  8
0
100
AcDbLine
 10
5.004315743676649
 20
-31.17988883633994
 30
0.0
 11
4.719614794063772
 21
-31.21737042742187
 31
0.0
  0
LINE
  5
2A7
330
1F
100
AcDbEntity
  8
0
100
AcDbLine
 10
33.87534565262388
 20
-57.91827227746533
 30
0.0
 11
33.51357422027758
 21
-57.7684216437084
 31
0.0
  0
LINE
  5
2A8
330
1F
100
AcDbEntity
  8
0
100
AcDbLine
 10
5.289016693289527
 20
-31.21737042742187
 30
0.0
 11
5.004315743676649
 21
-31.17988883633994
 31
0.0
  0
LINE
  5
2A9
330
1F
100
AcDbEntity
  8
0
100
AcDbLine
 10
32.37534565262386
 20
-57.91827227746533
 30
0.0
 11
32.01357422027756
 21
-57.7684216437084
 31
0.0
  0
LINE
  5
2AA
330
1F
100
AcDbEntity
  8
0
100
AcDbLine
 10
5.554315743676885
 20
-31.32726089217712
 30
0.0
 11
5.289016693289527
 21
-31.21737042742187
 31
0.0
  0
LINE
  5
2AB
330
1F
100
AcDbEntity
  8
0
100
AcDbLine
 10
5.782133202981957
 20
-31.50207137703474
 30
0.0
 11
5.554315743676885
 21
-31.32726089217712
 31
0.0
  0
LINE
  5
2AC
330
1F
100
AcDbEntity
  8
0
100
AcDbLine
 10
28.61230200806557
 20
-45.62310900893594
 30
0.0
 11
28.25057811162879
 21
-45.77307435308515
 31
0.0
  0
LINE
  5
2AD
330
1F
100
AcDbEntity
  8
0
100
AcDbLine
 10
-78.68959712900666
 20
-59.87837431672889
 30
0.0
 11
-77.95670054824535
 21
-58.85947550439337
 31
0.0
  0
LINE
  5
2AE
330
1F
100
AcDbEntity
  8
0
100
AcDbLine
 10
15.29962019766486
 20
40.65579344023304
 30
0.0
 11
15.26213860658294
 21
40.37109249062016
 31
0.0
  0
LINE
  5
2AF
330
1F
100
AcDbEntity
  8
0
100
AcDbLine
 10
13.09962019766464
 20
40.65579344023304
 30
0.0
 11
13.13710178874656
 21
40.94049438984592
 31
0.0
  0
LINE
  5
2B0
330
1F
100
AcDbEntity
  8
0
100
AcDbLine
 10
14.97743765697006
 20
39.87797598092773
 30
0.0
 11
14.74962019766498
 21
39.7031654960701
 31
0.0
  0
LINE
  5
2B1
330
1F
100
AcDbEntity
  8
0
100
AcDbLine
 10
-39.60719973388689
 20
41.461349118378
 30
0.0
 11
-40.69735675105454
 21
41.65525848812135
 31
0.0
  0
LINE
  5
2B2
330
1F
100
AcDbEntity
  8
0
100
AcDbLine
 10
-42.8221230257781
 20
42.27432953967933
 30
0.0
 11
-43.84582812074165
 21
42.69631418904446
 31
0.0
  0
LINE
  5
2B3
330
1F
100
AcDbEntity
  8
0
100
AcDbLine
 10
-37.39928230395956
 20
41.30975323550873
 30
0.0
 11
-38.50595775073183
 21
41.34598335096398
 31
0.0
  0
LINE
  5
2B4
330
1F
100
AcDbEntity
  8
0
100
AcDbLine
 10
-38.50595775073183
 20
41.34598335096398
 30
0.0
 11
-39.60719973388689
 21
41.461349118378
 31
0.0
  0
LINE
  5
2B5
330
1F
100
AcDbEntity
  8
0
100
AcDbLine
 10
-36.29285278012296
 20
41.35284470261209
 30
0.0
 11
-37.39928230395956
 21
41.30975323550873
 31
0.0
  0
LINE
  5
2B6
330
1F
100
AcDbEntity
  8
0
100
AcDbLine
 10
-41.77083418719047
 20
41.9267163298956
 30
0.0
 11
-42.8221230257781
 21
42.27432953967933
 31
0.0
  0
LINE
  5
2B7
330
1F
100
AcDbEntity
  8
0
100
AcDbLine
 10
-3.002875380562242
 20
15.75841218747524
 30
0.0
 11
-3.628649690531617
 21
14.6518475989012
 31
0.0
  0
LINE
  5
2B8
330
1F
100
AcDbEntity
  8
0
100
AcDbLine
 10
-40.69735675105454
 20
41.65525848812135
 30
0.0
 11
-41.77083418719047
 21
41.9267163298956
 31
0.0
  0
LINE
  5
2B9
330
1F
100
AcDbEntity
  8
0
100
AcDbLine
 10
29.00051434879094
 20
-45.57187464344011
 30
0.0
 11
28.61230200806557
 21
-45.62310900893594
 31
0.0
  0
LINE
  5
2BA
330
1F
100
AcDbEntity
  8
0
100
AcDbLine
 10
-42.46288291503043
 20
-4.968421643708499
 30
0.0
 11
-42.07465434737653
 21
-4.917310383142172
 31
0.0
  0
LINE
  5
2BB
330
1F
100
AcDbEntity
  8
0
100
AcDbLine
 10
29.38875910433563
 20
-45.62286279393801
 30
0.0
 11
29.00051434879094
 21
-45.57187464344011
 31
0.0
  0
LINE
  5
2BC
330
1F
100
AcDbEntity
  8
0
100
AcDbLine
 10
29.75057803621433
 20
-45.77259870223457
 30
0.0
 11
29.38875910433563
 21
-45.62286279393801
 31
0.0
  0
LINE
  5
2BD
330
1F
100
AcDbEntity
  8
0
100
AcDbLine
 10
-85.76288291503032
 20
-60.66619912257579
 30
0.0
 11
-86.12465434737626
 21
-60.51634848881886
 31
0.0
  0
LINE
  5
2BE
330
1F
100
AcDbEntity
  8
0
100
AcDbLine
 10
34.18600582440349
 20
-58.15665021136229
 30
0.0
 11
33.87534565262388
 21
-57.91827227746533
 31
0.0
  0
LINE
  5
2BF
330
1F
100
AcDbEntity
  8
0
100
AcDbLine
 10
-43.84582812074165
 20
42.69631418904446
 30
0.0
 11
-44.83669588398804
 21
43.19050468016425
 31
0.0
  0
LINE
  5
2C0
330
1F
100
AcDbEntity
  8
0
100
AcDbLine
 10
-44.83669588398804
 20
43.19050468016425
 30
0.0
 11
-45.78964124647889
 21
43.75436485951875
 31
0.0
  0
LINE
  5
2C1
330
1F
100
AcDbEntity
  8
0
100
AcDbLine
 10
-54.53325900256483
 20
20.84979772065888
 30
0.0
 11
-53.69241724599573
 21
19.89634933919604
 31
0.0
  0
LINE
  5
2C2
330
1F
100
AcDbEntity
  8
0
100
AcDbLine
 10
-41.3246543473767
 20
-5.118272277465429
 30
0.0
 11
-41.01399417559673
 21
-5.35665021136239
 31
0.0
  0
LINE
  5
2C3
330
1F
100
AcDbEntity
  8
0
100
AcDbLine
 10
-47.56242266702511
 20
45.07917681751326
 30
0.0
 11
-48.37316092591047
 21
45.83332974718579
 31
0.0
  0
LINE
  5
2C4
330
1F
100
AcDbEntity
  8
0
100
AcDbLine
 10
-46.69977375447436
 20
44.3850010332704
 30
0.0
 11
-47.56242266702511
 21
45.07917681751326
 31
0.0
  0
LINE
  5
2C5
330
1F
100
AcDbEntity
  8
0
100
AcDbLine
 10
-45.78964124647889
 20
43.75436485951875
 30
0.0
 11
-46.69977375447436
 21
44.3850010332704
 31
0.0
  0
LINE
  5
2C6
330
1F
100
AcDbEntity
  8
0
100
AcDbLine
 10
-77.95670054824535
 20
-58.85947550439337
 30
0.0
 11
-77.20822140147456
 21
-57.85196810753738
 31
0.0
  0
LINE
  5
2C7
330
1F
100
AcDbEntity
  8
0
100
AcDbLine
 10
-77.20822140147456
 20
-57.85196810753738
 30
0.0
 11
-76.44433671546678
 21
-56.85609041707865
 31
0.0
  0
LINE
  5
2C8
330
1F
100
AcDbEntity
  8
0
100
AcDbLine
 10
-76.44433671546678
 20
-56.85609041707865
 30
0.0
 11
-75.66522716064063
 21
-55.8720779733315
 31
0.0
  0
LINE
  5
2C9
330
1F
100
AcDbEntity
  8
0
100
AcDbLine
 10
-75.66522716064063
 20
-55.8720779733315
 30
0.0
 11
-74.87107700832874
 21
-54.90016351029799
 31
0.0
  0
LINE
  5
2CA
330
1F
100
AcDbEntity
  8
0
100
AcDbLine
 10
-74.87107700832874
 20
-54.90016351029799
 30
0.0
 11
-74.06207408719597
 21
-53.9405769006222
 31
0.0
  0
LINE
  5
2CB
330
1F
100
AcDbEntity
  8
0
100
AcDbLine
 10
-74.06207408719597
 20
-53.9405769006222
 30
0.0
 11
-48.37316092591047
 21
-28.26795051346987
 31
0.0
  0
LINE
  5
2CC
330
1F
100
AcDbEntity
  8
0
100
AcDbLine
 10
-47.56242266702511
 20
-27.51379758379733
 30
0.0
 11
-48.37316092591047
 21
-28.26795051346987
 31
0.0
  0
LINE
  5
2CD
330
1F
100
AcDbEntity
  8
0
100
AcDbLine
 10
-46.69977375447436
 20
-26.81962179955448
 30
0.0
 11
-47.56242266702511
 21
-27.51379758379733
 31
0.0
  0
LINE
  5
2CE
330
1F
100
AcDbEntity
  8
0
100
AcDbLine
 10
-45.78964124647889
 20
-26.18898562580283
 30
0.0
 11
-46.69977375447436
 21
-26.81962179955448
 31
0.0
  0
LINE
  5
2CF
330
1F
100
AcDbEntity
  8
0
100
AcDbLine
 10
-44.83669588398804
 20
-25.62512544644833
 30
0.0
 11
-45.78964124647889
 21
-26.18898562580283
 31
0.0
  0
LINE
  5
2D0
330
1F
100
AcDbEntity
  8
0
100
AcDbLine
 10
-43.84582812074165
 20
-25.13093495532853
 30
0.0
 11
-44.83669588398804
 21
-25.62512544644833
 31
0.0
  0
LINE
  5
2D1
330
1F
100
AcDbEntity
  8
0
100
AcDbLine
 10
-42.8221230257781
 20
-24.70895030596341
 30
0.0
 11
-43.84582812074165
 21
-25.13093495532853
 31
0.0
  0
LINE
  5
2D2
330
1F
100
AcDbEntity
  8
0
100
AcDbLine
 10
-41.77083418719047
 20
-24.36133709617967
 30
0.0
 11
-42.8221230257781
 21
-24.70895030596341
 31
0.0
  0
LINE
  5
2D3
330
1F
100
AcDbEntity
  8
0
100
AcDbLine
 10
-40.69735675105454
 20
-24.08987925440544
 30
0.0
 11
-41.77083418719047
 21
-24.36133709617967
 31
0.0
  0
LINE
  5
2D4
330
1F
100
AcDbEntity
  8
0
100
AcDbLine
 10
-39.60719973388689
 20
-23.89596988466207
 30
0.0
 11
-40.69735675105454
 21
-24.08987925440544
 31
0.0
  0
LINE
  5
2D5
330
1F
100
AcDbEntity
  8
0
100
AcDbLine
 10
-38.50595775073183
 20
-23.78060411724805
 30
0.0
 11
-39.60719973388689
 21
-23.89596988466207
 31
0.0
  0
LINE
  5
2D6
330
1F
100
AcDbEntity
  8
0
100
AcDbLine
 10
-37.39928230395956
 20
-23.74437400179281
 30
0.0
 11
-38.50595775073183
 21
-23.78060411724805
 31
0.0
  0
LINE
  5
2D7
330
1F
100
AcDbEntity
  8
0
100
AcDbLine
 10
-36.29285278012296
 20
-23.78746546889617
 30
0.0
 11
-37.39928230395956
 21
-23.74437400179281
 31
0.0
  0
LINE
  5
2D8
330
1F
100
AcDbEntity
  8
0
100
AcDbLine
 10
-35.46906456286682
 20
-24.19987397907301
 30
0.0
 11
-36.29285278012296
 21
-23.78746546889617
 31
0.0
  0
LINE
  5
2D9
330
1F
100
AcDbEntity
  8
0
100
AcDbLine
 10
-33.41027189964483
 20
-25.0351377431724
 30
0.0
 11
-35.46906456286682
 21
-24.19987397907301
 31
0.0
  0
LINE
  5
2DA
330
1F
100
AcDbEntity
  8
0
100
AcDbLine
 10
-31.27636530250371
 20
-25.65379388387655
 30
0.0
 11
-33.41027189964483
 21
-25.0351377431724
 31
0.0
  0
LINE
  5
2DB
330
1F
100
AcDbEntity
  8
0
100
AcDbLine
 10
-31.27636530250371
 20
-25.65379388387655
 30
0.0
 11
-22.47294339224905
 21
-25.65379388387655
 31
0.0
  0
LINE
  5
2DC
330
1F
100
AcDbEntity
  8
0
100
AcDbLine
 10
-22.47294339224905
 20
-25.65379388387655
 30
0.0
 11
-20.33903679510793
 21
-25.0351377431724
 31
0.0
  0
LINE
  5
2DD
330
1F
100
AcDbEntity
  8
0
100
AcDbLine
 10
-20.33903679510793
 20
-25.0351377431724
 30
0.0
 11
-18.28024413188594
 21
-24.19987397907301
 31
0.0
  0
LINE
  5
2DE
330
1F
100
AcDbEntity
  8
0
100
AcDbLine
 10
-18.28024413188594
 20
-24.19987397907301
 30
0.0
 11
-17.4564559146298
 21
-23.78746546889617
 31
0.0
  0
LINE
  5
2DF
330
1F
100
AcDbEntity
  8
0
100
AcDbLine
 10
-17.4564559146298
 20
-23.78746546889617
 30
0.0
 11
-16.3500263907932
 21
-23.74437400179281
 31
0.0
  0
LINE
  5
2E0
330
1F
100
AcDbEntity
  8
0
100
AcDbLine
 10
-16.3500263907932
 20
-23.74437400179281
 30
0.0
 11
-15.24335094402093
 21
-23.78060411724805
 31
0.0
  0
LINE
  5
2E1
330
1F
100
AcDbEntity
  8
0
100
AcDbLine
 10
-15.24335094402093
 20
-23.78060411724805
 30
0.0
 11
-14.14210896086587
 21
-23.89596988466207
 31
0.0
  0
LINE
  5
2E2
330
1F
100
AcDbEntity
  8
0
100
AcDbLine
 10
-14.14210896086587
 20
-23.89596988466207
 30
0.0
 11
-13.05195194369822
 21
-24.08987925440544
 31
0.0
  0
LINE
  5
2E3
330
1F
100
AcDbEntity
  8
0
100
AcDbLine
 10
-13.05195194369822
 20
-24.08987925440544
 30
0.0
 11
-11.9784745075623
 21
-24.36133709617967
 31
0.0
  0
LINE
  5
2E4
330
1F
100
AcDbEntity
  8
0
100
AcDbLine
 10
-11.9784745075623
 20
-24.36133709617967
 30
0.0
 11
-10.92718566897466
 21
-24.70895030596341
 31
0.0
  0
LINE
  5
2E5
330
1F
100
AcDbEntity
  8
0
100
AcDbLine
 10
-10.92718566897466
 20
-24.70895030596341
 30
0.0
 11
-9.903480574011107
 21
-25.13093495532853
 31
0.0
  0
LINE
  5
2E6
330
1F
100
AcDbEntity
  8
0
100
AcDbLine
 10
-9.903480574011107
 20
-25.13093495532853
 30
0.0
 11
-8.912612810764722
 21
-25.62512544644833
 31
0.0
  0
LINE
  5
2E7
330
1F
100
AcDbEntity
  8
0
100
AcDbLine
 10
-8.912612810764722
 20
-25.62512544644833
 30
0.0
 11
-7.959667448273871
 21
-26.18898562580283
 31
0.0
  0
LINE
  5
2E8
330
1F
100
AcDbEntity
  8
0
100
AcDbLine
 10
-7.959667448273871
 20
-26.18898562580283
 30
0.0
 11
-7.049534940278398
 21
-26.81962179955448
 31
0.0
  0
LINE
  5
2E9
330
1F
100
AcDbEntity
  8
0
100
AcDbLine
 10
30.06131378215322
 20
-46.01087811363006
 30
0.0
 11
29.75057803621433
 21
-45.77259870223457
 31
0.0
  0
LINE
  5
2EA
330
1F
100
AcDbEntity
  8
0
100
AcDbLine
 10
30.29979021458202
 20
-46.32146268001293
 30
0.0
 11
30.06131378215322
 21
-46.01087811363006
 31
0.0
  0
LINE
  5
2EB
330
1F
100
AcDbEntity
  8
0
100
AcDbLine
 10
30.87534565262384
 20
-57.91827227746533
 30
0.0
 11
30.56468548084387
 21
-58.15665021136229
 31
0.0
  0
LINE
  5
2EC
330
1F
100
AcDbEntity
  8
0
100
AcDbLine
 10
30.44975555873123
 20
-46.68318657644971
 30
0.0
 11
30.29979021458202
 21
-46.32146268001293
 31
0.0
  0
LINE
  5
2ED
330
1F
100
AcDbEntity
  8
0
100
AcDbLine
 10
30.32630754694691
 20
-58.46731038314191
 30
0.0
 11
30.17645691318998
 21
-58.8290818154882
 31
0.0
  0
LINE
  5
2EE
330
1F
100
AcDbEntity
  8
0
100
AcDbLine
 10
30.50098992422706
 20
-47.07139891717507
 30
0.0
 11
30.44975555873123
 21
-46.68318657644971
 31
0.0
  0
LINE
  5
2EF
330
1F
100
AcDbEntity
  8
0
100
AcDbLine
 10
30.17645691318998
 20
-58.8290818154882
 30
0.0
 11
30.12534565262365
 21
-59.21731038314209
 31
0.0
  0
LINE
  5
2F0
330
1F
100
AcDbEntity
  8
0
100
AcDbLine
 10
-40.23917527621265
 20
-14.16069445144198
 30
0.0
 11
-40.01270916940652
 21
-14.45583082792042
 31
0.0
  0
LINE
  5
2F1
330
1F
100
AcDbEntity
  8
0
100
AcDbLine
 10
30.45000177372916
 20
-47.45964367271977
 30
0.0
 11
30.50098992422706
 21
-47.07139891717507
 31
0.0
  0
LINE
  5
2F2
330
1F
100
AcDbEntity
  8
0
100
AcDbLine
 10
-12.73531451915603
 20
25.04334978863792
 30
0.0
 11
-12.42465434737642
 21
25.28172772253488
 31
0.0
  0
LINE
  5
2F3
330
1F
100
AcDbEntity
  8
0
100
AcDbLine
 10
30.3002658654326
 20
-47.82146260459847
 30
0.0
 11
30.45000177372916
 21
-47.45964367271977
 31
0.0
  0
LINE
  5
2F4
330
1F
100
AcDbEntity
  8
0
100
AcDbLine
 10
30.12534565262365
 20
-59.21731038314209
 30
0.0
 11
30.17645691318998
 21
-59.60553895079599
 31
0.0
  0
LINE
  5
2F5
330
1F
100
AcDbEntity
  8
0
100
AcDbLine
 10
30.32630754694691
 20
-59.96731038314192
 30
0.0
 11
30.56468548084387
 21
-60.27797055492189
 31
0.0
  0
LINE
  5
2F6
330
1F
100
AcDbEntity
  8
0
100
AcDbLine
 10
30.06198645403711
 20
-48.13219835053736
 30
0.0
 11
30.3002658654326
 21
-47.82146260459847
 31
0.0
  0
LINE
  5
2F7
330
1F
100
AcDbEntity
  8
0
100
AcDbLine
 10
30.17645691318998
 20
-59.60553895079599
 30
0.0
 11
30.32630754694691
 21
-59.96731038314192
 31
0.0
  0
LINE
  5
2F8
330
1F
100
AcDbEntity
  8
0
100
AcDbLine
 10
29.75140188765425
 20
-48.37067478296616
 30
0.0
 11
30.06198645403711
 21
-48.13219835053736
 31
0.0
  0
LINE
  5
2F9
330
1F
100
AcDbEntity
  8
0
100
AcDbLine
 10
-40.53431165269109
 20
-16.40247779689296
 30
0.0
 11
-40.87800524252059
 21
-16.54484034310132
 31
0.0
  0
LINE
  5
2FA
330
1F
100
AcDbEntity
  8
0
100
AcDbLine
 10
29.38967799121746
 20
-48.52064012711537
 30
0.0
 11
29.75140188765425
 21
-48.37067478296616
 31
0.0
  0
LINE
  5
2FB
330
1F
100
AcDbEntity
  8
0
100
AcDbLine
 10
31.23711708496978
 20
-60.66619912257579
 30
0.0
 11
31.62534565262367
 21
-60.71731038314211
 31
0.0
  0
LINE
  5
2FC
330
1F
100
AcDbEntity
  8
0
100
AcDbLine
 10
29.0014656504921
 20
-48.5718744926112
 30
0.0
 11
29.38967799121746
 21
-48.52064012711537
 31
0.0
  0
LINE
  5
2FD
330
1F
100
AcDbEntity
  8
0
100
AcDbLine
 10
30.87534565262348
 20
-60.51634848881886
 30
0.0
 11
31.23711708496978
 21
-60.66619912257579
 31
0.0
  0
LINE
  5
2FE
330
1F
100
AcDbEntity
  8
0
100
AcDbLine
 10
-39.87034662319817
 20
-14.79952441774993
 30
0.0
 11
-39.8217894098471
 21
-15.16835307076441
 31
0.0
  0
LINE
  5
2FF
330
1F
100
AcDbEntity
  8
0
100
AcDbLine
 10
28.6132208949474
 20
-48.5208863421133
 30
0.0
 11
29.0014656504921
 21
-48.5718744926112
 31
0.0
  0
LINE
  5
300
330
1F
100
AcDbEntity
  8
0
100
AcDbLine
 10
32.01357422027756
 20
-60.66619912257579
 30
0.0
 11
32.3753456526235
 21
-60.51634848881886
 31
0.0
  0
LINE
  5
301
330
1F
100
AcDbEntity
  8
0
100
AcDbLine
 10
28.2514019630687
 20
-48.37115043381674
 30
0.0
 11
28.6132208949474
 21
-48.5208863421133
 31
0.0
  0
LINE
  5
302
330
1F
100
AcDbEntity
  8
0
100
AcDbLine
 10
27.94066621712981
 20
-48.13287102242125
 30
0.0
 11
28.2514019630687
 21
-48.37115043381674
 31
0.0
  0
LINE
  5
303
330
1F
100
AcDbEntity
  8
0
100
AcDbLine
 10
32.3753456526235
 20
-60.51634848881886
 30
0.0
 11
32.7371170849698
 21
-60.66619912257579
 31
0.0
  0
LINE
  5
304
330
1F
100
AcDbEntity
  8
0
100
AcDbLine
 10
27.70218978470101
 20
-47.82228645603838
 30
0.0
 11
27.94066621712981
 21
-48.13287102242125
 31
0.0
  0
LINE
  5
305
330
1F
100
AcDbEntity
  8
0
100
AcDbLine
 10
27.5522244405518
 20
-47.4605625596016
 30
0.0
 11
27.70218978470101
 21
-47.82228645603838
 31
0.0
  0
LINE
  5
306
330
1F
100
AcDbEntity
  8
0
100
AcDbLine
 10
27.50099007505597
 20
-47.07235021887624
 30
0.0
 11
27.5522244405518
 21
-47.4605625596016
 31
0.0
  0
LINE
  5
307
330
1F
100
AcDbEntity
  8
0
100
AcDbLine
 10
32.7371170849698
 20
-60.66619912257579
 30
0.0
 11
33.12534565262369
 21
-60.71731038314211
 31
0.0
  0
LINE
  5
308
330
1F
100
AcDbEntity
  8
0
100
AcDbLine
 10
27.55197822555387
 20
-46.68410546333154
 30
0.0
 11
27.50099007505597
 21
-47.07235021887624
 31
0.0
  0
LINE
  5
309
330
1F
100
AcDbEntity
  8
0
100
AcDbLine
 10
33.51357422027758
 20
-60.66619912257579
 30
0.0
 11
33.87534565262352
 21
-60.51634848881886
 31
0.0
  0
LINE
  5
30A
330
1F
100
AcDbEntity
  8
0
100
AcDbLine
 10
33.12534565262369
 20
-60.71731038314211
 30
0.0
 11
33.51357422027758
 21
-60.66619912257579
 31
0.0
  0
LINE
  5
30B
330
1F
100
AcDbEntity
  8
0
100
AcDbLine
 10
27.70171413385043
 20
-46.32228653145284
 30
0.0
 11
27.55197822555387
 21
-46.68410546333154
 31
0.0
  0
LINE
  5
30C
330
1F
100
AcDbEntity
  8
0
100
AcDbLine
 10
27.93999354524592
 20
-46.01155078551395
 30
0.0
 11
27.70171413385043
 21
-46.32228653145284
 31
0.0
  0
LINE
  5
30D
330
1F
100
AcDbEntity
  8
0
100
AcDbLine
 10
33.87534565262352
 20
-60.51634848881886
 30
0.0
 11
34.18600582440349
 21
-60.27797055492189
 31
0.0
  0
LINE
  5
30E
330
1F
100
AcDbEntity
  8
0
100
AcDbLine
 10
-43.13531451915633
 20
-7.477970554921993
 30
0.0
 11
-43.37369245305329
 21
-7.167310383142382
 31
0.0
  0
LINE
  5
30F
330
1F
100
AcDbEntity
  8
0
100
AcDbLine
 10
-5.109419892628967
 20
10.82471963492405
 30
0.0
 11
-5.223571201851559
 21
10.12149190701412
 31
0.0
  0
LINE
  5
310
330
1F
100
AcDbEntity
  8
0
100
AcDbLine
 10
-42.82465434737672
 20
-5.118272277465429
 30
0.0
 11
-42.46288291503043
 21
-4.968421643708499
 31
0.0
  0
LINE
  5
311
330
1F
100
AcDbEntity
  8
0
100
AcDbLine
 10
-43.52354308681023
 20
-6.805538950796083
 30
0.0
 11
-43.57465434737655
 21
-6.417310383142191
 31
0.0
  0
LINE
  5
312
330
1F
100
AcDbEntity
  8
0
100
AcDbLine
 10
-4.950011319056202
 20
11.51908889214275
 30
0.0
 11
-5.109419892628967
 21
10.82471963492405
 31
0.0
  0
LINE
  5
313
330
1F
100
AcDbEntity
  8
0
100
AcDbLine
 10
-43.57465434737655
 20
-6.417310383142191
 30
0.0
 11
-43.52354308681023
 21
-6.029081815488301
 31
0.0
  0
LINE
  5
314
330
1F
100
AcDbEntity
  8
0
100
AcDbLine
 10
-4.746013408424003
 20
12.20169024810112
 30
0.0
 11
-4.950011319056202
 21
11.51908889214275
 31
0.0
  0
LINE
  5
315
330
1F
100
AcDbEntity
  8
0
100
AcDbLine
 10
-4.498280918846834
 20
12.86966358013359
 30
0.0
 11
-4.746013408424003
 21
12.20169024810112
 31
0.0
  0
LINE
  5
316
330
1F
100
AcDbEntity
  8
0
100
AcDbLine
 10
-43.13531451915633
 20
-5.35665021136239
 30
0.0
 11
-42.82465434737672
 21
-5.118272277465429
 31
0.0
  0
LINE
  5
317
330
1F
100
AcDbEntity
  8
0
100
AcDbLine
 10
-43.37369245305329
 20
-5.667310383142362
 30
0.0
 11
-43.13531451915633
 21
-5.35665021136239
 31
0.0
  0
LINE
  5
318
330
1F
100
AcDbEntity
  8
0
100
AcDbLine
 10
-4.207851857797531
 20
13.52021005748671
 30
0.0
 11
-4.498280918846834
 21
12.86966358013359
 31
0.0
  0
LINE
  5
319
330
1F
100
AcDbEntity
  8
0
100
AcDbLine
 10
-96.17369245305319
 20
-69.46731038314229
 30
0.0
 11
-96.32354308681013
 21
-69.10553895079599
 31
0.0
  0
LINE
  5
31A
330
1F
100
AcDbEntity
  8
0
100
AcDbLine
 10
-96.32354308681013
 20
-69.10553895079599
 30
0.0
 11
-96.37465434737645
 21
-68.7173103831421
 31
0.0
  0
LINE
  5
31B
330
1F
100
AcDbEntity
  8
0
100
AcDbLine
 10
-95.93531451915624
 20
-69.77797055492191
 30
0.0
 11
-96.17369245305319
 21
-69.46731038314229
 31
0.0
  0
LINE
  5
31C
330
1F
100
AcDbEntity
  8
0
100
AcDbLine
 10
-43.52354308681023
 20
-6.029081815488301
 30
0.0
 11
-43.37369245305329
 21
-5.667310383142362
 31
0.0
  0
LINE
  5
31D
330
1F
100
AcDbEntity
  8
0
100
AcDbLine
 10
28.25057811162879
 20
-45.77307435308515
 30
0.0
 11
27.93999354524592
 21
-46.01155078551395
 31
0.0
  0
LINE
  5
31E
330
1F
100
AcDbEntity
  8
0
100
AcDbLine
 10
-3.628649690531617
 20
14.6518475989012
 30
0.0
 11
-4.207851857797531
 21
13.52021005748671
 31
0.0
  0
LINE
  5
31F
330
1F
100
AcDbEntity
  8
0
100
AcDbLine
 10
34.18600582440349
 20
-60.27797055492189
 30
0.0
 11
34.42438375830045
 21
-59.96731038314228
 31
0.0
  0
LINE
  5
320
330
1F
100
AcDbEntity
  8
0
100
AcDbLine
 10
13.64962019766488
 20
39.7031654960701
 30
0.0
 11
13.42180273835944
 21
39.87797598092773
 31
0.0
  0
LINE
  5
321
330
1F
100
AcDbEntity
  8
0
100
AcDbLine
 10
40.73711708496978
 20
-52.6661991225758
 30
0.0
 11
41.12534565262368
 21
-52.71731038314213
 31
0.0
  0
LINE
  5
322
330
1F
100
AcDbEntity
  8
0
100
AcDbLine
 10
40.37534565262349
 20
-70.01634848881886
 30
0.0
 11
40.73711708496978
 21
-70.16619912257579
 31
0.0
  0
LINE
  5
323
330
1F
100
AcDbEntity
  8
0
100
AcDbLine
 10
-43.37369245305329
 20
-7.167310383142382
 30
0.0
 11
-43.52354308681023
 21
-6.805538950796083
 31
0.0
  0
LINE
  5
324
330
1F
100
AcDbEntity
  8
0
100
AcDbLine
 10
41.12534565262368
 20
-52.71731038314213
 30
0.0
 11
41.51357422027757
 21
-52.6661991225758
 31
0.0
  0
LINE
  5
325
330
1F
100
AcDbEntity
  8
0
100
AcDbLine
 10
30.56468548084387
 20
-58.15665021136229
 30
0.0
 11
30.32630754694691
 21
-58.46731038314191
 31
0.0
  0
LINE
  5
326
330
1F
100
AcDbEntity
  8
0
100
AcDbLine
 10
-7.049534940278398
 20
-26.81962179955448
 30
0.0
 11
-6.186886027727647
 21
-27.51379758379733
 31
0.0
  0
LINE
  5
327
330
1F
100
AcDbEntity
  8
0
100
AcDbLine
 10
-6.186886027727647
 20
-27.51379758379733
 30
0.0
 11
-5.376147768842293
 21
-28.26795051346987
 31
0.0
  0
LINE
  5
328
330
1F
100
AcDbEntity
  8
0
100
AcDbLine
 10
20.31276539244321
 20
-53.9405769006222
 30
0.0
 11
-5.376147768842293
 21
-28.26795051346987
 31
0.0
  0
LINE
  5
329
330
1F
100
AcDbEntity
  8
0
100
AcDbLine
 10
21.12176831357598
 20
-54.90016351029799
 30
0.0
 11
20.31276539244321
 21
-53.9405769006222
 31
0.0
  0
LINE
  5
32A
330
1F
100
AcDbEntity
  8
0
100
AcDbLine
 10
21.91591846588786
 20
-55.8720779733315
 30
0.0
 11
21.12176831357598
 21
-54.90016351029799
 31
0.0
  0
LINE
  5
32B
330
1F
100
AcDbEntity
  8
0
100
AcDbLine
 10
22.69502802071401
 20
-56.85609041707865
 30
0.0
 11
21.91591846588786
 21
-55.8720779733315
 31
0.0
  0
LINE
  5
32C
330
1F
100
AcDbEntity
  8
0
100
AcDbLine
 10
23.45891270672179
 20
-57.85196810753738
 30
0.0
 11
22.69502802071401
 21
-56.85609041707865
 31
0.0
  0
LINE
  5
32D
330
1F
100
AcDbEntity
  8
0
100
AcDbLine
 10
24.20739185349259
 20
-58.85947550439337
 30
0.0
 11
23.45891270672179
 21
-57.85196810753738
 31
0.0
  0
LINE
  5
32E
330
1F
100
AcDbEntity
  8
0
100
AcDbLine
 10
24.9402884342539
 20
-59.87837431672889
 30
0.0
 11
24.20739185349259
 21
-58.85947550439337
 31
0.0
  0
LINE
  5
32F
330
1F
100
AcDbEntity
  8
0
100
AcDbLine
 10
25.65742910774839
 20
-60.90842355938201
 30
0.0
 11
24.9402884342539
 21
-59.87837431672889
 31
0.0
  0
LINE
  5
330
330
1F
100
AcDbEntity
  8
0
100
AcDbLine
 10
26.35864425923198
 20
-61.94937960994338
 30
0.0
 11
25.65742910774839
 21
-60.90842355938201
 31
0.0
  0
LINE
  5
331
330
1F
100
AcDbEntity
  8
0
100
AcDbLine
 10
27.04376804059045
 20
-63.00099626637662
 30
0.0
 11
26.35864425923198
 21
-61.94937960994338
 31
0.0
  0
LINE
  5
332
330
1F
100
AcDbEntity
  8
0
100
AcDbLine
 10
27.71263840956414
 20
-64.06302480524919
 30
0.0
 11
27.04376804059045
 21
-63.00099626637662
 31
0.0
  0
LINE
  5
333
330
1F
100
AcDbEntity
  8
0
100
AcDbLine
 10
28.36509716807494
 20
-65.13521404055832
 30
0.0
 11
27.71263840956414
 21
-64.06302480524919
 31
0.0
  0
LINE
  5
334
330
1F
100
AcDbEntity
  8
0
100
AcDbLine
 10
29.00098999964152
 20
-66.21731038314195
 30
0.0
 11
28.36509716807494
 21
-65.13521404055832
 31
0.0
  0
LINE
  5
335
330
1F
100
AcDbEntity
  8
0
100
AcDbLine
 10
29.00098999964152
 20
-66.21731038314195
 30
0.0
 11
31.22585071601208
 21
-69.1168053197537
 31
0.0
  0
LINE
  5
336
330
1F
100
AcDbEntity
  8
0
100
AcDbLine
 10
31.22585071601208
 20
-69.1168053197537
 30
0.0
 11
34.12534565262347
 21
-71.34166603612425
 31
0.0
  0
LINE
  5
337
330
1F
100
AcDbEntity
  8
0
100
AcDbLine
 10
34.12534565262347
 20
-71.34166603612425
 30
0.0
 11
37.5018790211882
 21
-72.74027195118917
 31
0.0
  0
LINE
  5
338
330
1F
100
AcDbEntity
  8
0
100
AcDbLine
 10
37.5018790211882
 20
-72.74027195118917
 30
0.0
 11
41.12534565262368
 21
-73.21731038314216
 31
0.0
  0
LINE
  5
339
330
1F
100
AcDbEntity
  8
0
100
AcDbLine
 10
41.12534565262368
 20
-73.21731038314216
 30
0.0
 11
44.74881228405916
 21
-72.74027195118917
 31
0.0
  0
LINE
  5
33A
330
1F
100
AcDbEntity
  8
0
100
AcDbLine
 10
44.74881228405916
 20
-72.74027195118917
 30
0.0
 11
48.12534565262353
 21
-71.34166603612425
 31
0.0
  0
LINE
  5
33B
330
1F
100
AcDbEntity
  8
0
100
AcDbLine
 10
48.12534565262353
 20
-71.34166603612425
 30
0.0
 11
51.02484058923527
 21
-69.1168053197537
 31
0.0
  0
LINE
  5
33C
330
1F
100
AcDbEntity
  8
0
100
AcDbLine
 10
51.02484058923527
 20
-69.1168053197537
 30
0.0
 11
53.24970130560583
 21
-66.2173103831423
 31
0.0
  0
LINE
  5
33D
330
1F
100
AcDbEntity
  8
0
100
AcDbLine
 10
53.24970130560583
 20
-66.2173103831423
 30
0.0
 11
54.64830722067075
 21
-62.84077701457757
 31
0.0
  0
LINE
  5
33E
330
1F
100
AcDbEntity
  8
0
100
AcDbLine
 10
54.64830722067075
 20
-62.84077701457757
 30
0.0
 11
55.12534565262374
 21
-59.21731038314209
 31
0.0
  0
LINE
  5
33F
330
1F
100
AcDbEntity
  8
0
100
AcDbLine
 10
55.12534565262374
 20
-59.21731038314209
 30
0.0
 11
54.64830722067075
 21
-55.59384375170661
 31
0.0
  0
LINE
  5
340
330
1F
100
AcDbEntity
  8
0
100
AcDbLine
 10
54.64830722067075
 20
-55.59384375170661
 30
0.0
 11
53.24970130560583
 21
-52.21731038314224
 31
0.0
  0
LINE
  5
341
330
1F
100
AcDbEntity
  8
0
100
AcDbLine
 10
53.24970130560583
 20
-52.21731038314224
 30
0.0
 11
51.02484058923527
 21
-49.3178154465305
 31
0.0
  0
LINE
  5
342
330
1F
100
AcDbEntity
  8
0
100
AcDbLine
 10
51.02484058923527
 20
-49.3178154465305
 30
0.0
 11
48.12534565262389
 21
-47.09295473015994
 31
0.0
  0
LINE
  5
343
330
1F
100
AcDbEntity
  8
0
100
AcDbLine
 10
48.12534565262389
 20
-47.09295473015994
 30
0.0
 11
47.14418102467184
 21
-46.51832409077948
 31
0.0
  0
LINE
  5
344
330
1F
100
AcDbEntity
  8
0
100
AcDbLine
 10
47.14418102467184
 20
-46.51832409077948
 30
0.0
 11
46.17023022228662
 21
-45.93154965933779
 31
0.0
  0
LINE
  5
345
330
1F
100
AcDbEntity
  8
0
100
AcDbLine
 10
46.17023022228662
 20
-45.93154965933779
 30
0.0
 11
45.20364354031748
 21
-45.33272198370934
 31
0.0
  0
LINE
  5
346
330
1F
100
AcDbEntity
  8
0
100
AcDbLine
 10
45.20364354031748
 20
-45.33272198370934
 30
0.0
 11
44.24457013722005
 21
-44.7219334717586
 31
0.0
  0
LINE
  5
347
330
1F
100
AcDbEntity
  8
0
100
AcDbLine
 10
44.24457013722005
 20
-44.7219334717586
 30
0.0
 11
43.29315801204255
 21
-44.09927837708333
 31
0.0
  0
LINE
  5
348
330
1F
100
AcDbEntity
  8
0
100
AcDbLine
 10
43.29315801204255
 20
-44.09927837708333
 30
0.0
 11
42.34955398158591
 21
-43.46485278446773
 31
0.0
  0
LINE
  5
349
330
1F
100
AcDbEntity
  8
0
100
AcDbLine
 10
42.34955398158591
 20
-43.46485278446773
 30
0.0
 11
41.41390365774771
 21
-42.81875459505616
 31
0.0
  0
LINE
  5
34A
330
1F
100
AcDbEntity
  8
0
100
AcDbLine
 10
41.41390365774771
 20
-42.81875459505616
 30
0.0
 11
40.48635142505196
 21
-42.16108351124574
 31
0.0
  0
LINE
  5
34B
330
1F
100
AcDbEntity
  8
0
100
AcDbLine
 10
40.48635142505196
 20
-42.16108351124574
 30
0.0
 11
39.56704041836944
 21
-41.4919410212991
 31
0.0
  0
LINE
  5
34C
330
1F
100
AcDbEntity
  8
0
100
AcDbLine
 10
39.56704041836944
 20
-41.4919410212991
 30
0.0
 11
38.65611250082867
 21
-40.81143038368585
 31
0.0
  0
LINE
  5
34D
330
1F
100
AcDbEntity
  8
0
100
AcDbLine
 10
38.65611250082867
 20
-40.81143038368585
 30
0.0
 11
37.75370824192577
 21
-40.11965661114702
 31
0.0
  0
LINE
  5
34E
330
1F
100
AcDbEntity
  8
0
100
AcDbLine
 10
37.75370824192577
 20
-40.11965661114702
 30
0.0
 11
36.85996689583028
 21
-39.41672645448859
 31
0.0
  0
LINE
  5
34F
330
1F
100
AcDbEntity
  8
0
100
AcDbLine
 10
1.66372549066705
 20
-4.202064553428454
 30
0.0
 11
36.85996689583028
 21
-39.41672645448859
 31
0.0
  0
LINE
  5
350
330
1F
100
AcDbEntity
  8
0
100
AcDbLine
 10
1.66372549066705
 20
-4.202064553428454
 30
0.0
 11
0.7839503078120678
 21
-3.284418486942958
 31
0.0
  0
LINE
  5
351
330
1F
100
AcDbEntity
  8
0
100
AcDbLine
 10
-42.82465434737636
 20
-7.716348488818955
 30
0.0
 11
-43.13531451915633
 21
-7.477970554921993
 31
0.0
  0
LINE
  5
352
330
1F
100
AcDbEntity
  8
0
100
AcDbLine
 10
-41.01399417559673
 20
-7.477970554921993
 30
0.0
 11
-41.32465434737635
 21
-7.716348488818955
 31
0.0
  0
LINE
  5
353
330
1F
100
AcDbEntity
  8
0
100
AcDbLine
 10
-42.46288291503043
 20
-7.866199122575884
 30
0.0
 11
-42.82465434737636
 21
-7.716348488818955
 31
0.0
  0
LINE
  5
354
330
1F
100
AcDbEntity
  8
0
100
AcDbLine
 10
-41.32465434737635
 20
-7.716348488818955
 30
0.0
 11
-41.68642577972264
 21
-7.866199122575884
 31
0.0
  0
LINE
  5
355
330
1F
100
AcDbEntity
  8
0
100
AcDbLine
 10
-40.57465434737652
 20
-6.417310383142191
 30
0.0
 11
-40.62576560794284
 21
-6.805538950796083
 31
0.0
  0
LINE
  5
356
330
1F
100
AcDbEntity
  8
0
100
AcDbLine
 10
-40.62576560794284
 20
-6.805538950796083
 30
0.0
 11
-40.77561624169977
 21
-7.167310383142021
 31
0.0
  0
LINE
  5
357
330
1F
100
AcDbEntity
  8
0
100
AcDbLine
 10
-40.77561624169977
 20
-5.667310383142001
 30
0.0
 11
-40.62576560794284
 21
-6.029081815488301
 31
0.0
  0
LINE
  5
358
330
1F
100
AcDbEntity
  8
0
100
AcDbLine
 10
-40.62576560794284
 20
-6.029081815488301
 30
0.0
 11
-40.57465434737652
 21
-6.417310383142191
 31
0.0
  0
LINE
  5
359
330
1F
100
AcDbEntity
  8
0
100
AcDbLine
 10
-40.77561624169977
 20
-7.167310383142021
 30
0.0
 11
-41.01399417559673
 21
-7.477970554921993
 31
0.0
  0
LINE
  5
35A
330
1F
100
AcDbEntity
  8
0
100
AcDbLine
 10
-42.07465434737653
 20
-7.917310383142212
 30
0.0
 11
-42.46288291503043
 21
-7.866199122575884
 31
0.0
  0
LINE
  5
35B
330
1F
100
AcDbEntity
  8
0
100
AcDbLine
 10
0.7839503078120678
 20
-3.284418486942958
 30
0.0
 11
-0.0568914487570233
 21
-2.330970105480115
 31
0.0
  0
LINE
  5
35C
330
1F
100
AcDbEntity
  8
0
100
AcDbLine
 10
-0.0568914487570233
 20
-2.330970105480115
 30
0.0
 11
-0.8573441855722655
 21
-1.343369937482857
 31
0.0
  0
LINE
  5
35D
330
1F
100
AcDbEntity
  8
0
100
AcDbLine
 10
-0.8573441855722655
 20
-1.343369937482857
 30
0.0
 11
-1.616022227190155
 21
-0.3233276320508004
 31
0.0
  0
LINE
  5
35E
330
1F
100
AcDbEntity
  8
0
100
AcDbLine
 10
-1.616022227190155
 20
-0.3233276320508004
 30
0.0
 11
-2.33161221495241
 21
0.7273910006561799
 31
0.0
  0
LINE
  5
35F
330
1F
100
AcDbEntity
  8
0
100
AcDbLine
 10
-2.33161221495241
 20
0.7273910006561799
 30
0.0
 11
-3.002875380562242
 21
1.80696704624068
 31
0.0
  0
LINE
  5
360
330
1F
100
AcDbEntity
  8
0
100
AcDbLine
 10
-3.002875380562242
 20
1.80696704624068
 30
0.0
 11
-3.628649690531617
 21
2.913531634814728
 31
0.0
  0
LINE
  5
361
330
1F
100
AcDbEntity
  8
0
100
AcDbLine
 10
-3.628649690531617
 20
2.913531634814728
 30
0.0
 11
-4.207851857797531
 21
4.045169176229208
 31
0.0
  0
LINE
  5
362
330
1F
100
AcDbEntity
  8
0
100
AcDbLine
 10
-4.207851857797531
 20
4.045169176229208
 30
0.0
 11
-4.739479217013614
 21
5.199920676179018
 31
0.0
  0
LINE
  5
363
330
1F
100
AcDbEntity
  8
0
100
AcDbLine
 10
-4.944750805689967
 20
5.882140093654589
 30
0.0
 11
-4.739479217013614
 21
5.199920676179018
 31
0.0
  0
LINE
  5
364
330
1F
100
AcDbEntity
  8
0
100
AcDbLine
 10
-5.105455099035177
 20
6.576210615142948
 30
0.0
 11
-4.944750805689967
 21
5.882140093654589
 31
0.0
  0
LINE
  5
365
330
1F
100
AcDbEntity
  8
0
100
AcDbLine
 10
-5.220918740648944
 20
7.279224061788175
 30
0.0
 11
-5.105455099035177
 21
6.576210615142948
 31
0.0
  0
LINE
  5
366
330
1F
100
AcDbEntity
  8
0
100
AcDbLine
 10
-5.290657933984519
 20
7.988234783577044
 30
0.0
 11
-5.220918740648944
 21
7.279224061788175
 31
0.0
  0
LINE
  5
367
330
1F
100
AcDbEntity
  8
0
100
AcDbLine
 10
-57.69110602951123
 20
-32.56458978595293
 30
0.0
 11
-57.80099649426647
 21
-32.82988883633993
 31
0.0
  0
LINE
  5
368
330
1F
100
AcDbEntity
  8
0
100
AcDbLine
 10
-58.46892348881653
 20
-33.34240724525824
 30
0.0
 11
-58.75362443842941
 21
-33.37988883634016
 31
0.0
  0
LINE
  5
369
330
1F
100
AcDbEntity
  8
0
100
AcDbLine
 10
-58.75362443842941
 20
-33.37988883634016
 30
0.0
 11
-59.03832538804229
 21
-33.34240724525824
 31
0.0
  0
LINE
  5
36A
330
1F
100
AcDbEntity
  8
0
100
AcDbLine
 10
-5.314380469473815
 20
8.700272001711294
 30
0.0
 11
-5.290657933984519
 21
7.988234783577044
 31
0.0
  0
LINE
  5
36B
330
1F
100
AcDbEntity
  8
0
100
AcDbLine
 10
-95.62465434737626
 20
-70.01634848881886
 30
0.0
 11
-95.93531451915624
 21
-69.77797055492191
 31
0.0
  0
LINE
  5
36C
330
1F
100
AcDbEntity
  8
0
100
AcDbLine
 10
-5.291986948894579
 20
9.412352256271765
 30
0.0
 11
-5.314380469473815
 21
8.700272001711294
 31
0.0
  0
LINE
  5
36D
330
1F
100
AcDbEntity
  8
0
100
AcDbLine
 10
-59.03832538804229
 20
-33.34240724525824
 30
0.0
 11
-59.30362443842928
 21
-33.23251678050298
 31
0.0
  0
LINE
  5
36E
330
1F
100
AcDbEntity
  8
0
100
AcDbLine
 10
-59.30362443842928
 20
-33.23251678050298
 30
0.0
 11
-59.53144189773472
 21
-33.05770629564536
 31
0.0
  0
LINE
  5
36F
330
1F
100
AcDbEntity
  8
0
100
AcDbLine
 10
-59.53144189773472
 20
-33.05770629564536
 30
0.0
 11
-59.70625238259235
 21
-32.82988883634029
 31
0.0
  0
LINE
  5
370
330
1F
100
AcDbEntity
  8
0
100
AcDbLine
 10
-59.70625238259235
 20
-32.82988883634029
 30
0.0
 11
-59.81614284734759
 21
-32.56458978595293
 31
0.0
  0
LINE
  5
371
330
1F
100
AcDbEntity
  8
0
100
AcDbLine
 10
-93.42576560794274
 20
-69.10553895079599
 30
0.0
 11
-93.57561624169968
 21
-69.46731038314194
 31
0.0
  0
LINE
  5
372
330
1F
100
AcDbEntity
  8
0
100
AcDbLine
 10
-96.32354308681013
 20
-68.32908181548821
 30
0.0
 11
-96.17369245305319
 21
-67.96731038314228
 31
0.0
  0
LINE
  5
373
330
1F
100
AcDbEntity
  8
0
100
AcDbLine
 10
40.06468548084388
 20
-69.77797055492191
 30
0.0
 11
40.37534565262349
 21
-70.01634848881886
 31
0.0
  0
LINE
  5
374
330
1F
100
AcDbEntity
  8
0
100
AcDbLine
 10
-101.8746543473766
 20
64.65833396387586
 30
0.0
 11
-100.8934897194246
 21
64.0837033244954
 31
0.0
  0
LINE
  5
375
330
1F
100
AcDbEntity
  8
0
100
AcDbLine
 10
-5.223571201851559
 20
10.12149190701412
 30
0.0
 11
-5.291986948894579
 21
9.412352256271765
 31
0.0
  0
LINE
  5
376
330
1F
100
AcDbEntity
  8
0
100
AcDbLine
 10
-100.8934897194246
 20
64.0837033244954
 30
0.0
 11
-99.91953891703938
 21
63.49692889305371
 31
0.0
  0
LINE
  5
377
330
1F
100
AcDbEntity
  8
0
100
AcDbLine
 10
-99.91953891703938
 20
63.49692889305371
 30
0.0
 11
-98.95295223507024
 21
62.89810121742526
 31
0.0
  0
LINE
  5
378
330
1F
100
AcDbEntity
  8
0
100
AcDbLine
 10
-98.95295223507024
 20
62.89810121742526
 30
0.0
 11
-97.99387883197281
 21
62.28731270547452
 31
0.0
  0
LINE
  5
379
330
1F
100
AcDbEntity
  8
0
100
AcDbLine
 10
-97.99387883197281
 20
62.28731270547452
 30
0.0
 11
-97.04246670679531
 21
61.66465761079925
 31
0.0
  0
LINE
  5
37A
330
1F
100
AcDbEntity
  8
0
100
AcDbLine
 10
-97.04246670679531
 20
61.66465761079925
 30
0.0
 11
-96.09886267633867
 21
61.03023201818365
 31
0.0
  0
LINE
  5
37B
330
1F
100
AcDbEntity
  8
0
100
AcDbLine
 10
-96.09886267633867
 20
61.03023201818365
 30
0.0
 11
-95.16321235250047
 21
60.38413382877209
 31
0.0
  0
LINE
  5
37C
330
1F
100
AcDbEntity
  8
0
100
AcDbLine
 10
41.51357422027757
 20
-52.6661991225758
 30
0.0
 11
41.87534565262351
 21
-52.51634848881887
 31
0.0
  0
LINE
  5
37D
330
1F
100
AcDbEntity
  8
0
100
AcDbLine
 10
-95.16321235250047
 20
60.38413382877209
 30
0.0
 11
-94.23566011980472
 21
59.72646274496166
 31
0.0
  0
LINE
  5
37E
330
1F
100
AcDbEntity
  8
0
100
AcDbLine
 10
-94.23566011980472
 20
59.72646274496166
 30
0.0
 11
-93.3163491131222
 21
59.05732025501502
 31
0.0
  0
LINE
  5
37F
330
1F
100
AcDbEntity
  8
0
100
AcDbLine
 10
-94.1246543473766
 20
-65.91827227746532
 30
0.0
 11
-93.81399417559663
 21
-66.15665021136228
 31
0.0
  0
LINE
  5
380
330
1F
100
AcDbEntity
  8
0
100
AcDbLine
 10
-13.92751928490566
 20
-15.16835307076441
 30
0.0
 11
-13.87896207155459
 21
-15.53718172377889
 31
0.0
  0
LINE
  5
381
330
1F
100
AcDbEntity
  8
0
100
AcDbLine
 10
-96.32354308681013
 20
-67.60553895079597
 30
0.0
 11
-96.37465434737645
 21
-67.21731038314208
 31
0.0
  0
LINE
  5
382
330
1F
100
AcDbEntity
  8
0
100
AcDbLine
 10
-53.69241724599573
 20
19.89634933919604
 30
0.0
 11
-52.8919645091805
 21
18.90874917119878
 31
0.0
  0
LINE
  5
383
330
1F
100
AcDbEntity
  8
0
100
AcDbLine
 10
-91.50301693667853
 20
57.68503584486294
 30
0.0
 11
-90.60927559058304
 21
56.98210568820451
 31
0.0
  0
LINE
  5
384
330
1F
100
AcDbEntity
  8
0
100
AcDbLine
 10
41.87534565262351
 20
-52.51634848881887
 30
0.0
 11
42.18600582440348
 21
-52.27797055492191
 31
0.0
  0
LINE
  5
385
330
1F
100
AcDbEntity
  8
0
100
AcDbLine
 10
42.18600582440348
 20
-52.27797055492191
 30
0.0
 11
42.42438375830044
 21
-51.9673103831423
 31
0.0
  0
LINE
  5
386
330
1F
100
AcDbEntity
  8
0
100
AcDbLine
 10
39.82630754694691
 20
-69.46731038314194
 30
0.0
 11
40.06468548084388
 21
-69.77797055492191
 31
0.0
  0
LINE
  5
387
330
1F
100
AcDbEntity
  8
0
100
AcDbLine
 10
39.67645691318998
 20
-69.10553895079599
 30
0.0
 11
39.82630754694691
 21
-69.46731038314194
 31
0.0
  0
LINE
  5
388
330
1F
100
AcDbEntity
  8
0
100
AcDbLine
 10
39.62534565262366
 20
-68.7173103831421
 30
0.0
 11
39.67645691318998
 21
-69.10553895079599
 31
0.0
  0
LINE
  5
389
330
1F
100
AcDbEntity
  8
0
100
AcDbLine
 10
42.42438375830044
 20
-51.9673103831423
 30
0.0
 11
42.57423439205737
 21
-51.605538950796
 31
0.0
  0
LINE
  5
38A
330
1F
100
AcDbEntity
  8
0
100
AcDbLine
 10
42.57423439205737
 20
-51.605538950796
 30
0.0
 11
42.62534565262369
 21
-51.21731038314211
 31
0.0
  0
LINE
  5
38B
330
1F
100
AcDbEntity
  8
0
100
AcDbLine
 10
42.62534565262369
 20
-51.21731038314211
 30
0.0
 11
42.57423439205737
 21
-50.82908181548822
 31
0.0
  0
LINE
  5
38C
330
1F
100
AcDbEntity
  8
0
100
AcDbLine
 10
14.74962019766462
 20
41.60842138439597
 30
0.0
 11
14.97743765697006
 21
41.43361089953834
 31
0.0
  0
LINE
  5
38D
330
1F
100
AcDbEntity
  8
0
100
AcDbLine
 10
39.82630754694691
 20
-67.9673103831419
 30
0.0
 11
39.67645691318998
 21
-68.32908181548821
 31
0.0
  0
LINE
  5
38E
330
1F
100
AcDbEntity
  8
0
100
AcDbLine
 10
28.61230200806557
 20
63.18848824265186
 30
0.0
 11
28.25057811162879
 21
63.33845358680107
 31
0.0
  0
LINE
  5
38F
330
1F
100
AcDbEntity
  8
0
100
AcDbLine
 10
28.25057811162879
 20
63.33845358680107
 30
0.0
 11
27.93999354524592
 21
63.57693001922988
 31
0.0
  0
LINE
  5
390
330
1F
100
AcDbEntity
  8
0
100
AcDbLine
 10
39.67645691318998
 20
-67.60553895079597
 30
0.0
 11
39.82630754694691
 21
-67.9673103831419
 31
0.0
  0
LINE
  5
391
330
1F
100
AcDbEntity
  8
0
100
AcDbLine
 10
5.004315743676649
 20
48.74526807005586
 30
0.0
 11
4.719614794063772
 21
48.78274966113779
 31
0.0
  0
LINE
  5
392
330
1F
100
AcDbEntity
  8
0
100
AcDbLine
 10
5.289016693289527
 20
48.78274966113779
 30
0.0
 11
5.004315743676649
 21
48.74526807005586
 31
0.0
  0
LINE
  5
393
330
1F
100
AcDbEntity
  8
0
100
AcDbLine
 10
5.554315743676885
 20
48.89264012589304
 30
0.0
 11
5.289016693289527
 21
48.78274966113779
 31
0.0
  0
LINE
  5
394
330
1F
100
AcDbEntity
  8
0
100
AcDbLine
 10
4.454315743676775
 20
48.89264012589304
 30
0.0
 11
4.226498284371342
 21
49.06745061075067
 31
0.0
  0
LINE
  5
395
330
1F
100
AcDbEntity
  8
0
100
AcDbLine
 10
4.719614794063772
 20
48.78274966113779
 30
0.0
 11
4.454315743676775
 21
48.89264012589304
 31
0.0
  0
LINE
  5
396
330
1F
100
AcDbEntity
  8
0
100
AcDbLine
 10
4.051687799513714
 20
49.29526807005574
 30
0.0
 11
3.941797334758464
 21
49.5605671204431
 31
0.0
  0
LINE
  5
397
330
1F
100
AcDbEntity
  8
0
100
AcDbLine
 10
3.904315743676539
 20
49.84526807005597
 30
0.0
 11
3.941797334758464
 21
50.12996901966885
 31
0.0
  0
LINE
  5
398
330
1F
100
AcDbEntity
  8
0
100
AcDbLine
 10
-102.4864257797225
 20
-57.7684216437084
 30
0.0
 11
-102.1246543473766
 21
-57.91827227746533
 31
0.0
  0
LINE
  5
399
330
1F
100
AcDbEntity
  8
0
100
AcDbLine
 10
39.62534565262366
 20
-67.21731038314208
 30
0.0
 11
39.67645691318998
 21
-67.60553895079597
 31
0.0
  0
LINE
  5
39A
330
1F
100
AcDbEntity
  8
0
100
AcDbLine
 10
42.57423439205737
 20
-50.82908181548822
 30
0.0
 11
42.42438375830044
 21
-50.46731038314228
 31
0.0
  0
LINE
  5
39B
330
1F
100
AcDbEntity
  8
0
100
AcDbLine
 10
4.226498284371342
 20
50.62308552936128
 30
0.0
 11
4.454315743676414
 21
50.79789601421891
 31
0.0
  0
LINE
  5
39C
330
1F
100
AcDbEntity
  8
0
100
AcDbLine
 10
3.941797334758464
 20
49.5605671204431
 30
0.0
 11
3.904315743676539
 21
49.84526807005597
 31
0.0
  0
LINE
  5
39D
330
1F
100
AcDbEntity
  8
0
100
AcDbLine
 10
4.226498284371342
 20
49.06745061075067
 30
0.0
 11
4.051687799513714
 21
49.29526807005574
 31
0.0
  0
LINE
  5
39E
330
1F
100
AcDbEntity
  8
0
100
AcDbLine
 10
4.454315743676414
 20
50.79789601421891
 30
0.0
 11
4.719614794063772
 21
50.90778647897416
 31
0.0
  0
LINE
  5
39F
330
1F
100
AcDbEntity
  8
0
100
AcDbLine
 10
4.719614794063772
 20
50.90778647897416
 30
0.0
 11
5.004315743676649
 21
50.94526807005608
 31
0.0
  0
LINE
  5
3A0
330
1F
100
AcDbEntity
  8
0
100
AcDbLine
 10
5.004315743676649
 20
50.94526807005608
 30
0.0
 11
5.289016693289527
 21
50.90778647897416
 31
0.0
  0
LINE
  5
3A1
330
1F
100
AcDbEntity
  8
0
100
AcDbLine
 10
5.956943687839585
 20
50.39526807005621
 30
0.0
 11
6.066834152594835
 21
50.12996901966885
 31
0.0
  0
LINE
  5
3A2
330
1F
100
AcDbEntity
  8
0
100
AcDbLine
 10
5.554315743676525
 20
50.79789601421891
 30
0.0
 11
5.782133202981957
 21
50.62308552936128
 31
0.0
  0
LINE
  5
3A3
330
1F
100
AcDbEntity
  8
0
100
AcDbLine
 10
6.066834152594835
 20
49.5605671204431
 30
0.0
 11
5.956943687839585
 21
49.2952680700561
 31
0.0
  0
LINE
  5
3A4
330
1F
100
AcDbEntity
  8
0
100
AcDbLine
 10
5.782133202981957
 20
50.62308552936128
 30
0.0
 11
5.956943687839585
 21
50.39526807005621
 31
0.0
  0
LINE
  5
3A5
330
1F
100
AcDbEntity
  8
0
100
AcDbLine
 10
6.104315743676761
 20
49.84526807005597
 30
0.0
 11
6.066834152594835
 21
49.5605671204431
 31
0.0
  0
LINE
  5
3A6
330
1F
100
AcDbEntity
  8
0
100
AcDbLine
 10
6.066834152594835
 20
50.12996901966885
 30
0.0
 11
6.104315743676761
 21
49.84526807005597
 31
0.0
  0
LINE
  5
3A7
330
1F
100
AcDbEntity
  8
0
100
AcDbLine
 10
5.289016693289527
 20
50.90778647897416
 30
0.0
 11
5.554315743676525
 21
50.79789601421891
 31
0.0
  0
LINE
  5
3A8
330
1F
100
AcDbEntity
  8
0
100
AcDbLine
 10
5.782133202981957
 20
49.06745061075067
 30
0.0
 11
5.554315743676885
 21
48.89264012589304
 31
0.0
  0
LINE
  5
3A9
330
1F
100
AcDbEntity
  8
0
100
AcDbLine
 10
13.64962019766451
 20
41.60842138439597
 30
0.0
 11
13.91491924805187
 21
41.71831184915122
 31
0.0
  0
LINE
  5
3AA
330
1F
100
AcDbEntity
  8
0
100
AcDbLine
 10
14.48432114727763
 20
41.71831184915122
 30
0.0
 11
14.74962019766462
 21
41.60842138439597
 31
0.0
  0
LINE
  5
3AB
330
1F
100
AcDbEntity
  8
0
100
AcDbLine
 10
3.941797334758464
 20
50.12996901966885
 30
0.0
 11
4.051687799513714
 21
50.39526807005585
 31
0.0
  0
LINE
  5
3AC
330
1F
100
AcDbEntity
  8
0
100
AcDbLine
 10
13.91491924805187
 20
41.71831184915122
 30
0.0
 11
14.19962019766475
 21
41.75579344023315
 31
0.0
  0
LINE
  5
3AD
330
1F
100
AcDbEntity
  8
0
100
AcDbLine
 10
5.956943687839585
 20
49.2952680700561
 30
0.0
 11
5.782133202981957
 21
49.06745061075067
 31
0.0
  0
LINE
  5
3AE
330
1F
100
AcDbEntity
  8
0
100
AcDbLine
 10
14.19962019766475
 20
41.75579344023315
 30
0.0
 11
14.48432114727763
 21
41.71831184915122
 31
0.0
  0
LINE
  5
3AF
330
1F
100
AcDbEntity
  8
0
100
AcDbLine
 10
4.051687799513714
 20
50.39526807005585
 30
0.0
 11
4.226498284371342
 21
50.62308552936128
 31
0.0
  0
LINE
  5
3B0
330
1F
100
AcDbEntity
  8
0
100
AcDbLine
 10
39.67645691318998
 20
-49.3290818154882
 30
0.0
 11
39.62534565262366
 21
-49.71731038314209
 31
0.0
  0
LINE
  5
3B1
330
1F
100
AcDbEntity
  8
0
100
AcDbLine
 10
40.37534565262385
 20
-48.41827227746533
 30
0.0
 11
40.06468548084388
 21
-48.65665021136229
 31
0.0
  0
LINE
  5
3B2
330
1F
100
AcDbEntity
  8
0
100
AcDbLine
 10
39.82630754694691
 20
-48.9673103831419
 30
0.0
 11
39.67645691318998
 21
-49.3290818154882
 31
0.0
  0
LINE
  5
3B3
330
1F
100
AcDbEntity
  8
0
100
AcDbLine
 10
41.12534565262368
 20
-48.21731038314207
 30
0.0
 11
40.73711708496978
 21
-48.2684216437084
 31
0.0
  0
LINE
  5
3B4
330
1F
100
AcDbEntity
  8
0
100
AcDbLine
 10
40.06468548084388
 20
-48.65665021136229
 30
0.0
 11
39.82630754694691
 21
-48.9673103831419
 31
0.0
  0
LINE
  5
3B5
330
1F
100
AcDbEntity
  8
0
100
AcDbLine
 10
40.73711708496978
 20
-48.2684216437084
 30
0.0
 11
40.37534565262385
 21
-48.41827227746533
 31
0.0
  0
LINE
  5
3B6
330
1F
100
AcDbEntity
  8
0
100
AcDbLine
 10
41.87534565262386
 20
-48.41827227746533
 30
0.0
 11
41.51357422027757
 21
-48.2684216437084
 31
0.0
  0
LINE
  5
3B7
330
1F
100
AcDbEntity
  8
0
100
AcDbLine
 10
42.42438375830044
 20
-48.96731038314226
 30
0.0
 11
42.18600582440348
 21
-48.65665021136229
 31
0.0
  0
LINE
  5
3B8
330
1F
100
AcDbEntity
  8
0
100
AcDbLine
 10
42.57423439205737
 20
-49.3290818154882
 30
0.0
 11
42.42438375830044
 21
-48.96731038314226
 31
0.0
  0
LINE
  5
3B9
330
1F
100
AcDbEntity
  8
0
100
AcDbLine
 10
42.18600582440348
 20
-48.65665021136229
 30
0.0
 11
41.87534565262386
 21
-48.41827227746533
 31
0.0
  0
LINE
  5
3BA
330
1F
100
AcDbEntity
  8
0
100
AcDbLine
 10
41.51357422027757
 20
-48.2684216437084
 30
0.0
 11
41.12534565262368
 21
-48.21731038314207
 31
0.0
  0
LINE
  5
3BB
330
1F
100
AcDbEntity
  8
0
100
AcDbLine
 10
39.67645691318998
 20
-66.8290818154882
 30
0.0
 11
39.62534565262366
 21
-67.21731038314208
 31
0.0
  0
LINE
  5
3BC
330
1F
100
AcDbEntity
  8
0
100
AcDbLine
 10
42.62534565262369
 20
-49.71731038314209
 30
0.0
 11
42.57423439205737
 21
-49.3290818154882
 31
0.0
  0
LINE
  5
3BD
330
1F
100
AcDbEntity
  8
0
100
AcDbLine
 10
15.26213860658294
 20
40.37109249062016
 30
0.0
 11
15.15224814182769
 21
40.10579344023316
 31
0.0
  0
LINE
  5
3BE
330
1F
100
AcDbEntity
  8
0
100
AcDbLine
 10
15.15224814182769
 20
41.20579344023327
 30
0.0
 11
15.26213860658294
 21
40.94049438984592
 31
0.0
  0
LINE
  5
3BF
330
1F
100
AcDbEntity
  8
0
100
AcDbLine
 10
-66.88641048349932
 20
40.37109249062016
 30
0.0
 11
-66.8489288924174
 21
40.65579344023304
 31
0.0
  0
LINE
  5
3C0
330
1F
100
AcDbEntity
  8
0
100
AcDbLine
 10
-87.26288291503035
 20
75.33380087742432
 30
0.0
 11
-86.87465434737645
 21
75.282689616858
 31
0.0
  0
LINE
  5
3C1
330
1F
100
AcDbEntity
  8
0
100
AcDbLine
 10
-66.88641048349932
 20
40.94049438984592
 30
0.0
 11
-66.99630094825457
 21
41.20579344023291
 31
0.0
  0
LINE
  5
3C2
330
1F
100
AcDbEntity
  8
0
100
AcDbLine
 10
-66.8489288924174
 20
40.65579344023304
 30
0.0
 11
-66.88641048349932
 21
40.94049438984592
 31
0.0
  0
LINE
  5
3C3
330
1F
100
AcDbEntity
  8
0
100
AcDbLine
 10
-106.9990100003586
 20
83.78268961685824
 30
0.0
 11
-108.3976159154235
 21
80.4061562482935
 31
0.0
  0
LINE
  5
3C4
330
1F
100
AcDbEntity
  8
0
100
AcDbLine
 10
-66.99630094825457
 20
41.20579344023291
 30
0.0
 11
-67.1711114331122
 21
41.43361089953834
 31
0.0
  0
LINE
  5
3C5
330
1F
100
AcDbEntity
  8
0
100
AcDbLine
 10
-108.8746543473765
 20
76.78268961685802
 30
0.0
 11
-108.3976159154235
 21
73.15922298542255
 31
0.0
  0
LINE
  5
3C6
330
1F
100
AcDbEntity
  8
0
100
AcDbLine
 10
-104.774149283988
 20
86.68218455346961
 30
0.0
 11
-106.9990100003586
 21
83.78268961685824
 31
0.0
  0
LINE
  5
3C7
330
1F
100
AcDbEntity
  8
0
100
AcDbLine
 10
-87.87465434737622
 20
88.90704526984018
 30
0.0
 11
-91.25118771594096
 21
90.30565118490509
 31
0.0
  0
LINE
  5
3C8
330
1F
100
AcDbEntity
  8
0
100
AcDbLine
 10
-84.97515941076483
 20
86.68218455346961
 30
0.0
 11
-87.87465434737622
 21
88.90704526984018
 31
0.0
  0
LINE
  5
3C9
330
1F
100
AcDbEntity
  8
0
100
AcDbLine
 10
-95.62465434737626
 20
70.0817277225348
 30
0.0
 11
-95.93531451915624
 21
69.84334978863784
 31
0.0
  0
LINE
  5
3CA
330
1F
100
AcDbEntity
  8
0
100
AcDbLine
 10
-82.75029869439427
 20
83.78268961685787
 30
0.0
 11
-84.97515941076483
 21
86.68218455346961
 31
0.0
  0
LINE
  5
3CB
330
1F
100
AcDbEntity
  8
0
100
AcDbLine
 10
-94.87465434737643
 20
90.78268961685808
 30
0.0
 11
-98.49812097881191
 21
90.30565118490509
 31
0.0
  0
LINE
  5
3CC
330
1F
100
AcDbEntity
  8
0
100
AcDbLine
 10
-91.25118771594096
 20
90.30565118490509
 30
0.0
 11
-94.87465434737643
 21
90.78268961685808
 31
0.0
  0
LINE
  5
3CD
330
1F
100
AcDbEntity
  8
0
100
AcDbLine
 10
-101.8746543473763
 20
88.90704526984018
 30
0.0
 11
-104.774149283988
 21
86.68218455346961
 31
0.0
  0
LINE
  5
3CE
330
1F
100
AcDbEntity
  8
0
100
AcDbLine
 10
-98.49812097881191
 20
90.30565118490509
 30
0.0
 11
-101.8746543473763
 21
88.90704526984018
 31
0.0
  0
LINE
  5
3CF
330
1F
100
AcDbEntity
  8
0
100
AcDbLine
 10
-93.57561624169968
 20
87.03268961685785
 30
0.0
 11
-93.81399417559663
 21
87.34334978863782
 31
0.0
  0
LINE
  5
3D0
330
1F
100
AcDbEntity
  8
0
100
AcDbLine
 10
-108.3976159154235
 20
80.4061562482935
 30
0.0
 11
-108.8746543473765
 21
76.78268961685802
 31
0.0
  0
LINE
  5
3D1
330
1F
100
AcDbEntity
  8
0
100
AcDbLine
 10
-104.7628829150303
 20
78.2315783562917
 30
0.0
 11
-105.1246543473763
 21
78.08172772253478
 31
0.0
  0
LINE
  5
3D2
330
1F
100
AcDbEntity
  8
0
100
AcDbLine
 10
-93.42576560794274
 20
86.67091818451192
 30
0.0
 11
-93.57561624169968
 21
87.03268961685785
 31
0.0
  0
LINE
  5
3D3
330
1F
100
AcDbEntity
  8
0
100
AcDbLine
 10
-93.42576560794274
 20
85.17091818451189
 30
0.0
 11
-93.57561624169968
 21
85.53268961685784
 31
0.0
  0
LINE
  5
3D4
330
1F
100
AcDbEntity
  8
0
100
AcDbLine
 10
-94.1246543473766
 20
83.48365151118124
 30
0.0
 11
-93.81399417559663
 21
83.7220294450782
 31
0.0
  0
LINE
  5
3D5
330
1F
100
AcDbEntity
  8
0
100
AcDbLine
 10
-93.57561624169968
 20
85.53268961685784
 30
0.0
 11
-93.42576560794274
 21
85.89446104920412
 31
0.0
  0
LINE
  5
3D6
330
1F
100
AcDbEntity
  8
0
100
AcDbLine
 10
-93.57561624169968
 20
84.03268961685781
 30
0.0
 11
-93.42576560794274
 21
84.39446104920411
 31
0.0
  0
LINE
  5
3D7
330
1F
100
AcDbEntity
  8
0
100
AcDbLine
 10
-93.37465434737642
 20
86.28268961685802
 30
0.0
 11
-93.42576560794274
 21
86.67091818451192
 31
0.0
  0
LINE
  5
3D8
330
1F
100
AcDbEntity
  8
0
100
AcDbLine
 10
-96.32354308681013
 20
86.67091818451192
 30
0.0
 11
-96.37465434737645
 21
86.28268961685802
 31
0.0
  0
LINE
  5
3D9
330
1F
100
AcDbEntity
  8
0
100
AcDbLine
 10
-93.37465434737642
 20
84.78268961685801
 30
0.0
 11
-93.42576560794274
 21
85.17091818451189
 31
0.0
  0
LINE
  5
3DA
330
1F
100
AcDbEntity
  8
0
100
AcDbLine
 10
-95.62465434737662
 20
83.48365151118124
 30
0.0
 11
-95.26288291503033
 21
83.33380087742431
 31
0.0
  0
LINE
  5
3DB
330
1F
100
AcDbEntity
  8
0
100
AcDbLine
 10
-93.42576560794274
 20
84.39446104920411
 30
0.0
 11
-93.37465434737642
 21
84.78268961685801
 31
0.0
  0
LINE
  5
3DC
330
1F
100
AcDbEntity
  8
0
100
AcDbLine
 10
-96.17369245305319
 20
84.03268961685818
 30
0.0
 11
-95.93531451915624
 21
83.7220294450782
 31
0.0
  0
LINE
  5
3DD
330
1F
100
AcDbEntity
  8
0
100
AcDbLine
 10
-93.81399417559663
 20
83.7220294450782
 30
0.0
 11
-93.57561624169968
 21
84.03268961685781
 31
0.0
  0
LINE
  5
3DE
330
1F
100
AcDbEntity
  8
0
100
AcDbLine
 10
-96.17369245305319
 20
87.0326896168582
 30
0.0
 11
-96.32354308681013
 21
86.67091818451192
 31
0.0
  0
LINE
  5
3DF
330
1F
100
AcDbEntity
  8
0
100
AcDbLine
 10
-94.48642577972254
 20
83.33380087742431
 30
0.0
 11
-94.1246543473766
 21
83.48365151118124
 31
0.0
  0
LINE
  5
3E0
330
1F
100
AcDbEntity
  8
0
100
AcDbLine
 10
-95.93531451915624
 20
83.7220294450782
 30
0.0
 11
-95.62465434737662
 21
83.48365151118124
 31
0.0
  0
LINE
  5
3E1
330
1F
100
AcDbEntity
  8
0
100
AcDbLine
 10
-96.17369245305319
 20
85.53268961685819
 30
0.0
 11
-96.32354308681013
 21
85.17091818451189
 31
0.0
  0
LINE
  5
3E2
330
1F
100
AcDbEntity
  8
0
100
AcDbLine
 10
-94.87465434737643
 20
83.28268961685798
 30
0.0
 11
-94.48642577972254
 21
83.33380087742431
 31
0.0
  0
LINE
  5
3E3
330
1F
100
AcDbEntity
  8
0
100
AcDbLine
 10
-95.26288291503033
 20
83.33380087742431
 30
0.0
 11
-94.87465434737643
 21
83.28268961685798
 31
0.0
  0
LINE
  5
3E4
330
1F
100
AcDbEntity
  8
0
100
AcDbLine
 10
-96.37465434737645
 20
84.78268961685801
 30
0.0
 11
-96.32354308681013
 21
84.39446104920411
 31
0.0
  0
LINE
  5
3E5
330
1F
100
AcDbEntity
  8
0
100
AcDbLine
 10
-96.32354308681013
 20
85.89446104920412
 30
0.0
 11
-96.17369245305319
 21
85.53268961685819
 31
0.0
  0
LINE
  5
3E6
330
1F
100
AcDbEntity
  8
0
100
AcDbLine
 10
-96.32354308681013
 20
84.39446104920411
 30
0.0
 11
-96.17369245305319
 21
84.03268961685818
 31
0.0
  0
LINE
  5
3E7
330
1F
100
AcDbEntity
  8
0
100
AcDbLine
 10
-94.48642577972254
 20
87.73157835629172
 30
0.0
 11
-94.87465434737643
 21
87.78268961685804
 31
0.0
  0
LINE
  5
3E8
330
1F
100
AcDbEntity
  8
0
100
AcDbLine
 10
-96.32354308681013
 20
85.17091818451189
 30
0.0
 11
-96.37465434737645
 21
84.78268961685801
 31
0.0
  0
LINE
  5
3E9
330
1F
100
AcDbEntity
  8
0
100
AcDbLine
 10
-95.93531451915624
 20
87.34334978863782
 30
0.0
 11
-96.17369245305319
 21
87.0326896168582
 31
0.0
  0
LINE
  5
3EA
330
1F
100
AcDbEntity
  8
0
100
AcDbLine
 10
-95.26288291503033
 20
87.73157835629172
 30
0.0
 11
-95.62465434737626
 21
87.58172772253478
 31
0.0
  0
LINE
  5
3EB
330
1F
100
AcDbEntity
  8
0
100
AcDbLine
 10
-95.62465434737626
 20
87.58172772253478
 30
0.0
 11
-95.93531451915624
 21
87.34334978863782
 31
0.0
  0
LINE
  5
3EC
330
1F
100
AcDbEntity
  8
0
100
AcDbLine
 10
-94.87465434737643
 20
87.78268961685804
 30
0.0
 11
-95.26288291503033
 21
87.73157835629172
 31
0.0
  0
LINE
  5
3ED
330
1F
100
AcDbEntity
  8
0
100
AcDbLine
 10
-105.1246543473763
 20
78.08172772253478
 30
0.0
 11
-105.4353145191562
 21
77.84334978863782
 31
0.0
  0
LINE
  5
3EE
330
1F
100
AcDbEntity
  8
0
100
AcDbLine
 10
-105.6736924530532
 20
77.5326896168582
 30
0.0
 11
-105.8235430868101
 21
77.1709181845119
 31
0.0
  0
LINE
  5
3EF
330
1F
100
AcDbEntity
  8
0
100
AcDbLine
 10
-105.4353145191562
 20
77.84334978863782
 30
0.0
 11
-105.6736924530532
 21
77.5326896168582
 31
0.0
  0
LINE
  5
3F0
330
1F
100
AcDbEntity
  8
0
100
AcDbLine
 10
-101.5756162416997
 20
77.53268961685785
 30
0.0
 11
-101.8139941755966
 21
77.84334978863782
 31
0.0
  0
LINE
  5
3F1
330
1F
100
AcDbEntity
  8
0
100
AcDbLine
 10
-101.4257656079427
 20
77.1709181845119
 30
0.0
 11
-101.5756162416997
 21
77.53268961685785
 31
0.0
  0
LINE
  5
3F2
330
1F
100
AcDbEntity
  8
0
100
AcDbLine
 10
-102.8746543473764
 20
78.28268961685804
 30
0.0
 11
-103.2628829150303
 21
78.2315783562917
 31
0.0
  0
LINE
  5
3F3
330
1F
100
AcDbEntity
  8
0
100
AcDbLine
 10
-102.4864257797225
 20
78.2315783562917
 30
0.0
 11
-102.8746543473764
 21
78.28268961685804
 31
0.0
  0
LINE
  5
3F4
330
1F
100
AcDbEntity
  8
0
100
AcDbLine
 10
-103.6246543473763
 20
78.08172772253478
 30
0.0
 11
-103.9864257797226
 21
78.2315783562917
 31
0.0
  0
LINE
  5
3F5
330
1F
100
AcDbEntity
  8
0
100
AcDbLine
 10
-103.2628829150303
 20
78.2315783562917
 30
0.0
 11
-103.6246543473763
 21
78.08172772253478
 31
0.0
  0
LINE
  5
3F6
330
1F
100
AcDbEntity
  8
0
100
AcDbLine
 10
-102.1246543473762
 20
78.08172772253478
 30
0.0
 11
-102.4864257797225
 21
78.2315783562917
 31
0.0
  0
LINE
  5
3F7
330
1F
100
AcDbEntity
  8
0
100
AcDbLine
 10
-101.8139941755966
 20
77.84334978863782
 30
0.0
 11
-102.1246543473762
 21
78.08172772253478
 31
0.0
  0
LINE
  5
3F8
330
1F
100
AcDbEntity
  8
0
100
AcDbLine
 10
-104.3746543473764
 20
78.28268961685804
 30
0.0
 11
-104.7628829150303
 21
78.2315783562917
 31
0.0
  0
LINE
  5
3F9
330
1F
100
AcDbEntity
  8
0
100
AcDbLine
 10
-93.81399417559663
 20
87.34334978863782
 30
0.0
 11
-94.12465434737625
 21
87.58172772253478
 31
0.0
  0
LINE
  5
3FA
330
1F
100
AcDbEntity
  8
0
100
AcDbLine
 10
-94.12465434737625
 20
87.58172772253478
 30
0.0
 11
-94.48642577972254
 21
87.73157835629172
 31
0.0
  0
LINE
  5
3FB
330
1F
100
AcDbEntity
  8
0
100
AcDbLine
 10
-81.99988680638155
 20
63.33845358680107
 30
0.0
 11
-81.68930223999868
 21
63.57693001922988
 31
0.0
  0
LINE
  5
3FC
330
1F
100
AcDbEntity
  8
0
100
AcDbLine
 10
-43.13531451915633
 20
25.04334978863792
 30
0.0
 11
-43.37369245305329
 21
24.73268961685831
 31
0.0
  0
LINE
  5
3FD
330
1F
100
AcDbEntity
  8
0
100
AcDbLine
 10
-42.46288291503043
 20
25.4315783562918
 30
0.0
 11
-42.82465434737636
 21
25.28172772253488
 31
0.0
  0
LINE
  5
3FE
330
1F
100
AcDbEntity
  8
0
100
AcDbLine
 10
-108.3976159154235
 20
73.15922298542255
 30
0.0
 11
-106.9990100003586
 21
69.78268961685816
 31
0.0
  0
LINE
  5
3FF
330
1F
100
AcDbEntity
  8
0
100
AcDbLine
 10
-39.8217894098471
 20
32.73373230448033
 30
0.0
 11
-39.87034662319817
 21
33.10256095749481
 31
0.0
  0
LINE
  5
400
330
1F
100
AcDbEntity
  8
0
100
AcDbLine
 10
-31.27636530250371
 20
43.21917311759248
 30
0.0
 11
-22.47294339224905
 21
43.21917311759248
 31
0.0
  0
LINE
  5
401
330
1F
100
AcDbEntity
  8
0
100
AcDbLine
 10
-42.82465434737636
 20
25.28172772253488
 30
0.0
 11
-43.13531451915633
 21
25.04334978863792
 31
0.0
  0
LINE
  5
402
330
1F
100
AcDbEntity
  8
0
100
AcDbLine
 10
-40.01270916940652
 20
32.02121006163634
 30
0.0
 11
-39.87034662319817
 21
32.36490365146585
 31
0.0
  0
LINE
  5
403
330
1F
100
AcDbEntity
  8
0
100
AcDbLine
 10
-39.87034662319817
 20
32.36490365146585
 30
0.0
 11
-39.8217894098471
 21
32.73373230448033
 31
0.0
  0
LINE
  5
404
330
1F
100
AcDbEntity
  8
0
100
AcDbLine
 10
-106.9990100003586
 20
69.78268961685816
 30
0.0
 11
-104.774149283988
 21
66.88319468024642
 31
0.0
  0
LINE
  5
405
330
1F
100
AcDbEntity
  8
0
100
AcDbLine
 10
-104.774149283988
 20
66.88319468024642
 30
0.0
 11
-101.8746543473766
 21
64.65833396387586
 31
0.0
  0
LINE
  5
406
330
1F
100
AcDbEntity
  8
0
100
AcDbLine
 10
-35.46906456286682
 20
41.76525321278893
 30
0.0
 11
-36.29285278012296
 21
41.35284470261209
 31
0.0
  0
LINE
  5
407
330
1F
100
AcDbEntity
  8
0
100
AcDbLine
 10
-41.01399417559673
 20
22.92202944507831
 30
0.0
 11
-40.77561624169977
 21
23.23268961685792
 31
0.0
  0
LINE
  5
408
330
1F
100
AcDbEntity
  8
0
100
AcDbLine
 10
-42.82465434737672
 20
22.68365151118135
 30
0.0
 11
-42.46288291503043
 21
22.53380087742442
 31
0.0
  0
LINE
  5
409
330
1F
100
AcDbEntity
  8
0
100
AcDbLine
 10
-40.62576560794284
 20
23.59446104920422
 30
0.0
 11
-40.57465434737652
 21
23.98268961685811
 31
0.0
  0
LINE
  5
40A
330
1F
100
AcDbEntity
  8
0
100
AcDbLine
 10
-40.57465434737652
 20
23.98268961685811
 30
0.0
 11
-40.62576560794284
 21
24.370918184512
 31
0.0
  0
LINE
  5
40B
330
1F
100
AcDbEntity
  8
0
100
AcDbLine
 10
-43.52354308681023
 20
23.59446104920422
 30
0.0
 11
-43.37369245305329
 21
23.23268961685828
 31
0.0
  0
LINE
  5
40C
330
1F
100
AcDbEntity
  8
0
100
AcDbLine
 10
-31.27636530250371
 20
43.21917311759248
 30
0.0
 11
-33.41027189964483
 21
42.60051697688831
 31
0.0
  0
LINE
  5
40D
330
1F
100
AcDbEntity
  8
0
100
AcDbLine
 10
-33.41027189964483
 20
42.60051697688831
 30
0.0
 11
-35.46906456286682
 21
41.76525321278893
 31
0.0
  0
LINE
  5
40E
330
1F
100
AcDbEntity
  8
0
100
AcDbLine
 10
-43.37369245305329
 20
24.73268961685831
 30
0.0
 11
-43.52354308681023
 21
24.370918184512
 31
0.0
  0
LINE
  5
40F
330
1F
100
AcDbEntity
  8
0
100
AcDbLine
 10
-43.57465434737655
 20
23.98268961685811
 30
0.0
 11
-43.52354308681023
 21
23.59446104920422
 31
0.0
  0
LINE
  5
410
330
1F
100
AcDbEntity
  8
0
100
AcDbLine
 10
-41.68642577972264
 20
22.53380087742442
 30
0.0
 11
-41.3246543473767
 21
22.68365151118135
 31
0.0
  0
LINE
  5
411
330
1F
100
AcDbEntity
  8
0
100
AcDbLine
 10
-43.37369245305329
 20
23.23268961685828
 30
0.0
 11
-43.13531451915633
 21
22.92202944507831
 31
0.0
  0
LINE
  5
412
330
1F
100
AcDbEntity
  8
0
100
AcDbLine
 10
-43.13531451915633
 20
22.92202944507831
 30
0.0
 11
-42.82465434737672
 21
22.68365151118135
 31
0.0
  0
LINE
  5
413
330
1F
100
AcDbEntity
  8
0
100
AcDbLine
 10
-43.52354308681023
 20
24.370918184512
 30
0.0
 11
-43.57465434737655
 21
23.98268961685811
 31
0.0
  0
LINE
  5
414
330
1F
100
AcDbEntity
  8
0
100
AcDbLine
 10
-41.3246543473767
 20
22.68365151118135
 30
0.0
 11
-41.01399417559673
 21
22.92202944507831
 31
0.0
  0
LINE
  5
415
330
1F
100
AcDbEntity
  8
0
100
AcDbLine
 10
-40.77561624169977
 20
24.73268961685794
 30
0.0
 11
-41.01399417559673
 21
25.04334978863792
 31
0.0
  0
LINE
  5
416
330
1F
100
AcDbEntity
  8
0
100
AcDbLine
 10
-42.46288291503043
 20
22.53380087742442
 30
0.0
 11
-42.07465434737653
 21
22.48268961685809
 31
0.0
  0
LINE
  5
417
330
1F
100
AcDbEntity
  8
0
100
AcDbLine
 10
-42.07465434737653
 20
22.48268961685809
 30
0.0
 11
-41.68642577972264
 21
22.53380087742442
 31
0.0
  0
LINE
  5
418
330
1F
100
AcDbEntity
  8
0
100
AcDbLine
 10
-40.77561624169977
 20
23.23268961685792
 30
0.0
 11
-40.62576560794284
 21
23.59446104920422
 31
0.0
  0
LINE
  5
419
330
1F
100
AcDbEntity
  8
0
100
AcDbLine
 10
-42.07465434737653
 20
25.48268961685813
 30
0.0
 11
-42.46288291503043
 21
25.4315783562918
 31
0.0
  0
LINE
  5
41A
330
1F
100
AcDbEntity
  8
0
100
AcDbLine
 10
-41.68642577972264
 20
25.4315783562918
 30
0.0
 11
-42.07465434737653
 21
25.48268961685813
 31
0.0
  0
LINE
  5
41B
330
1F
100
AcDbEntity
  8
0
100
AcDbLine
 10
-40.62576560794284
 20
24.370918184512
 30
0.0
 11
-40.77561624169977
 21
24.73268961685794
 31
0.0
  0
LINE
  5
41C
330
1F
100
AcDbEntity
  8
0
100
AcDbLine
 10
-41.32465434737635
 20
25.28172772253488
 30
0.0
 11
-41.68642577972264
 21
25.4315783562918
 31
0.0
  0
LINE
  5
41D
330
1F
100
AcDbEntity
  8
0
100
AcDbLine
 10
-41.01399417559673
 20
25.04334978863792
 30
0.0
 11
-41.32465434737635
 21
25.28172772253488
 31
0.0
  0
LINE
  5
41E
330
1F
100
AcDbEntity
  8
0
100
AcDbLine
 10
-42.25449251485751
 20
31.7260736851579
 30
0.0
 11
-41.95935613837906
 21
31.49960757835177
 31
0.0
  0
LINE
  5
41F
330
1F
100
AcDbEntity
  8
0
100
AcDbLine
 10
-41.95935613837906
 20
31.49960757835177
 30
0.0
 11
-41.61566254854956
 21
31.35724503214342
 31
0.0
  0
LINE
  5
420
330
1F
100
AcDbEntity
  8
0
100
AcDbLine
 10
-40.23917527621265
 20
31.7260736851579
 30
0.0
 11
-40.01270916940652
 21
32.02121006163634
 31
0.0
  0
LINE
  5
421
330
1F
100
AcDbEntity
  8
0
100
AcDbLine
 10
-41.61566254854956
 20
31.35724503214342
 30
0.0
 11
-41.24683389553508
 21
31.30868781879235
 31
0.0
  0
LINE
  5
422
330
1F
100
AcDbEntity
  8
0
100
AcDbLine
 10
-42.62332116787199
 20
32.36490365146585
 30
0.0
 11
-42.48095862166363
 21
32.02121006163634
 31
0.0
  0
LINE
  5
423
330
1F
100
AcDbEntity
  8
0
100
AcDbLine
 10
-42.48095862166363
 20
32.02121006163634
 30
0.0
 11
-42.25449251485751
 21
31.7260736851579
 31
0.0
  0
LINE
  5
424
330
1F
100
AcDbEntity
  8
0
100
AcDbLine
 10
-40.53431165269109
 20
31.49960757835177
 30
0.0
 11
-40.23917527621265
 21
31.7260736851579
 31
0.0
  0
LINE
  5
425
330
1F
100
AcDbEntity
  8
0
100
AcDbLine
 10
-41.24683389553508
 20
31.30868781879235
 30
0.0
 11
-40.87800524252059
 21
31.35724503214342
 31
0.0
  0
LINE
  5
426
330
1F
100
AcDbEntity
  8
0
100
AcDbLine
 10
-42.67187838122305
 20
32.73373230448033
 30
0.0
 11
-42.62332116787199
 21
32.36490365146585
 31
0.0
  0
LINE
  5
427
330
1F
100
AcDbEntity
  8
0
100
AcDbLine
 10
-40.87800524252059
 20
31.35724503214342
 30
0.0
 11
-40.53431165269109
 21
31.49960757835177
 31
0.0
  0
LINE
  5
428
330
1F
100
AcDbEntity
  8
0
100
AcDbLine
 10
-42.48095862166363
 20
33.44625454732432
 30
0.0
 11
-42.62332116787199
 21
33.10256095749481
 31
0.0
  0
LINE
  5
429
330
1F
100
AcDbEntity
  8
0
100
AcDbLine
 10
-42.62332116787199
 20
33.10256095749481
 30
0.0
 11
-42.67187838122305
 21
32.73373230448033
 31
0.0
  0
LINE
  5
42A
330
1F
100
AcDbEntity
  8
0
100
AcDbLine
 10
-41.95935613837906
 20
33.96785703060888
 30
0.0
 11
-42.25449251485751
 21
33.74139092380276
 31
0.0
  0
LINE
  5
42B
330
1F
100
AcDbEntity
  8
0
100
AcDbLine
 10
-42.25449251485751
 20
33.74139092380276
 30
0.0
 11
-42.48095862166363
 21
33.44625454732432
 31
0.0
  0
LINE
  5
42C
330
1F
100
AcDbEntity
  8
0
100
AcDbLine
 10
-41.24683389553508
 20
34.1587767901683
 30
0.0
 11
-41.61566254854956
 21
34.11021957681724
 31
0.0
  0
LINE
  5
42D
330
1F
100
AcDbEntity
  8
0
100
AcDbLine
 10
-41.61566254854956
 20
34.11021957681724
 30
0.0
 11
-41.95935613837906
 21
33.96785703060888
 31
0.0
  0
LINE
  5
42E
330
1F
100
AcDbEntity
  8
0
100
AcDbLine
 10
-40.53431165269109
 20
33.96785703060888
 30
0.0
 11
-40.87800524252059
 21
34.11021957681724
 31
0.0
  0
LINE
  5
42F
330
1F
100
AcDbEntity
  8
0
100
AcDbLine
 10
-40.87800524252059
 20
34.11021957681724
 30
0.0
 11
-41.24683389553508
 21
34.1587767901683
 31
0.0
  0
LINE
  5
430
330
1F
100
AcDbEntity
  8
0
100
AcDbLine
 10
-40.01270916940652
 20
33.44625454732432
 30
0.0
 11
-40.23917527621265
 21
33.74139092380276
 31
0.0
  0
LINE
  5
431
330
1F
100
AcDbEntity
  8
0
100
AcDbLine
 10
-40.23917527621265
 20
33.74139092380276
 30
0.0
 11
-40.53431165269109
 21
33.96785703060888
 31
0.0
  0
LINE
  5
432
330
1F
100
AcDbEntity
  8
0
100
AcDbLine
 10
-39.87034662319817
 20
33.10256095749481
 30
0.0
 11
-40.01270916940652
 21
33.44625454732432
 31
0.0
  0
LINE
  5
433
330
1F
100
AcDbEntity
  8
0
100
AcDbLine
 10
-93.81399417559663
 20
-48.65665021136229
 30
0.0
 11
-93.57561624169968
 21
-48.9673103831419
 31
0.0
  0
LINE
  5
434
330
1F
100
AcDbEntity
  8
0
100
AcDbLine
 10
-93.42576560794274
 20
-49.3290818154882
 30
0.0
 11
-93.37465434737642
 21
-49.71731038314209
 31
0.0
  0
LINE
  5
435
330
1F
100
AcDbEntity
  8
0
100
AcDbLine
 10
-93.42576560794274
 20
-50.10553895079598
 30
0.0
 11
-93.57561624169968
 21
-50.46731038314192
 31
0.0
  0
LINE
  5
436
330
1F
100
AcDbEntity
  8
0
100
AcDbLine
 10
-93.42576560794274
 20
-50.82908181548822
 30
0.0
 11
-93.37465434737642
 21
-51.21731038314211
 31
0.0
  0
LINE
  5
437
330
1F
100
AcDbEntity
  8
0
100
AcDbLine
 10
-94.1246543473766
 20
-48.41827227746533
 30
0.0
 11
-93.81399417559663
 21
-48.65665021136229
 31
0.0
  0
LINE
  5
438
330
1F
100
AcDbEntity
  8
0
100
AcDbLine
 10
-93.57561624169968
 20
-48.9673103831419
 30
0.0
 11
-93.42576560794274
 21
-49.3290818154882
 31
0.0
  0
LINE
  5
439
330
1F
100
AcDbEntity
  8
0
100
AcDbLine
 10
-86.48642577972257
 20
75.33380087742432
 30
0.0
 11
-86.12465434737662
 21
75.48365151118125
 31
0.0
  0
LINE
  5
43A
330
1F
100
AcDbEntity
  8
0
100
AcDbLine
 10
-86.12465434737662
 20
75.48365151118125
 30
0.0
 11
-85.76288291503032
 21
75.33380087742432
 31
0.0
  0
LINE
  5
43B
330
1F
100
AcDbEntity
  8
0
100
AcDbLine
 10
-67.1711114331122
 20
39.87797598092773
 30
0.0
 11
-66.99630094825457
 21
40.1057934402328
 31
0.0
  0
LINE
  5
43C
330
1F
100
AcDbEntity
  8
0
100
AcDbLine
 10
-66.99630094825457
 20
40.1057934402328
 30
0.0
 11
-66.88641048349932
 21
40.37109249062016
 31
0.0
  0
LINE
  5
43D
330
1F
100
AcDbEntity
  8
0
100
AcDbLine
 10
-67.66422794280463
 20
39.59327503131485
 30
0.0
 11
-67.39892889241763
 21
39.7031654960701
 31
0.0
  0
LINE
  5
43E
330
1F
100
AcDbEntity
  8
0
100
AcDbLine
 10
-67.39892889241763
 20
39.7031654960701
 30
0.0
 11
-67.1711114331122
 21
39.87797598092773
 31
0.0
  0
LINE
  5
43F
330
1F
100
AcDbEntity
  8
0
100
AcDbLine
 10
-68.23362984203038
 20
39.59327503131485
 30
0.0
 11
-67.94892889241751
 21
39.55579344023293
 31
0.0
  0
LINE
  5
440
330
1F
100
AcDbEntity
  8
0
100
AcDbLine
 10
-67.94892889241751
 20
39.55579344023293
 30
0.0
 11
-67.66422794280463
 21
39.59327503131485
 31
0.0
  0
LINE
  5
441
330
1F
100
AcDbEntity
  8
0
100
AcDbLine
 10
-68.72674635172282
 20
39.87797598092773
 30
0.0
 11
-68.49892889241775
 21
39.7031654960701
 31
0.0
  0
LINE
  5
442
330
1F
100
AcDbEntity
  8
0
100
AcDbLine
 10
-68.49892889241775
 20
39.7031654960701
 30
0.0
 11
-68.23362984203038
 21
39.59327503131485
 31
0.0
  0
LINE
  5
443
330
1F
100
AcDbEntity
  8
0
100
AcDbLine
 10
-68.90155683658044
 20
40.10579344023316
 30
0.0
 11
-68.72674635172282
 21
39.87797598092773
 31
0.0
  0
LINE
  5
444
330
1F
100
AcDbEntity
  8
0
100
AcDbLine
 10
-69.01144730133569
 20
40.37109249062016
 30
0.0
 11
-68.90155683658044
 21
40.10579344023316
 31
0.0
  0
LINE
  5
445
330
1F
100
AcDbEntity
  8
0
100
AcDbLine
 10
-69.04892889241762
 20
40.65579344023304
 30
0.0
 11
-69.01144730133569
 21
40.37109249062016
 31
0.0
  0
LINE
  5
446
330
1F
100
AcDbEntity
  8
0
100
AcDbLine
 10
-69.01144730133569
 20
40.94049438984592
 30
0.0
 11
-69.04892889241762
 21
40.65579344023304
 31
0.0
  0
LINE
  5
447
330
1F
100
AcDbEntity
  8
0
100
AcDbLine
 10
-68.90155683658044
 20
41.20579344023327
 30
0.0
 11
-69.01144730133569
 21
40.94049438984592
 31
0.0
  0
LINE
  5
448
330
1F
100
AcDbEntity
  8
0
100
AcDbLine
 10
-68.72674635172282
 20
41.43361089953834
 30
0.0
 11
-68.90155683658044
 21
41.20579344023327
 31
0.0
  0
LINE
  5
449
330
1F
100
AcDbEntity
  8
0
100
AcDbLine
 10
-68.49892889241738
 20
41.60842138439597
 30
0.0
 11
-68.72674635172282
 21
41.43361089953834
 31
0.0
  0
LINE
  5
44A
330
1F
100
AcDbEntity
  8
0
100
AcDbLine
 10
-68.23362984203038
 20
41.71831184915122
 30
0.0
 11
-68.49892889241738
 21
41.60842138439597
 31
0.0
  0
LINE
  5
44B
330
1F
100
AcDbEntity
  8
0
100
AcDbLine
 10
-67.66422794280463
 20
41.71831184915122
 30
0.0
 11
-67.94892889241751
 21
41.75579344023315
 31
0.0
  0
LINE
  5
44C
330
1F
100
AcDbEntity
  8
0
100
AcDbLine
 10
-67.94892889241751
 20
41.75579344023315
 30
0.0
 11
-68.23362984203038
 21
41.71831184915122
 31
0.0
  0
LINE
  5
44D
330
1F
100
AcDbEntity
  8
0
100
AcDbLine
 10
-67.1711114331122
 20
41.43361089953834
 30
0.0
 11
-67.39892889241727
 21
41.60842138439597
 31
0.0
  0
LINE
  5
44E
330
1F
100
AcDbEntity
  8
0
100
AcDbLine
 10
-67.39892889241727
 20
41.60842138439597
 30
0.0
 11
-67.66422794280463
 21
41.71831184915122
 31
0.0
  0
LINE
  5
44F
330
1F
100
AcDbEntity
  8
0
100
AcDbLine
 10
-59.81614284734759
 20
49.5605671204431
 30
0.0
 11
-59.70625238259235
 21
49.2952680700561
 31
0.0
  0
LINE
  5
450
330
1F
100
AcDbEntity
  8
0
100
AcDbLine
 10
-59.70625238259235
 20
49.2952680700561
 30
0.0
 11
-59.53144189773472
 21
49.06745061075067
 31
0.0
  0
LINE
  5
451
330
1F
100
AcDbEntity
  8
0
100
AcDbLine
 10
-59.85362443842952
 20
49.84526807005597
 30
0.0
 11
-59.81614284734759
 21
49.5605671204431
 31
0.0
  0
LINE
  5
452
330
1F
100
AcDbEntity
  8
0
100
AcDbLine
 10
-59.81614284734759
 20
50.12996901966885
 30
0.0
 11
-59.85362443842952
 21
49.84526807005597
 31
0.0
  0
LINE
  5
453
330
1F
100
AcDbEntity
  8
0
100
AcDbLine
 10
-59.70625238259235
 20
50.39526807005621
 30
0.0
 11
-59.81614284734759
 21
50.12996901966885
 31
0.0
  0
LINE
  5
454
330
1F
100
AcDbEntity
  8
0
100
AcDbLine
 10
-59.53144189773472
 20
50.62308552936128
 30
0.0
 11
-59.70625238259235
 21
50.39526807005621
 31
0.0
  0
LINE
  5
455
330
1F
100
AcDbEntity
  8
0
100
AcDbLine
 10
-59.30362443842928
 20
50.79789601421891
 30
0.0
 11
-59.53144189773472
 21
50.62308552936128
 31
0.0
  0
LINE
  5
456
330
1F
100
AcDbEntity
  8
0
100
AcDbLine
 10
-59.03832538804229
 20
50.90778647897416
 30
0.0
 11
-59.30362443842928
 21
50.79789601421891
 31
0.0
  0
LINE
  5
457
330
1F
100
AcDbEntity
  8
0
100
AcDbLine
 10
-58.75362443842941
 20
50.94526807005608
 30
0.0
 11
-59.03832538804229
 21
50.90778647897416
 31
0.0
  0
LINE
  5
458
330
1F
100
AcDbEntity
  8
0
100
AcDbLine
 10
-58.46892348881653
 20
50.90778647897416
 30
0.0
 11
-58.75362443842941
 21
50.94526807005608
 31
0.0
  0
LINE
  5
459
330
1F
100
AcDbEntity
  8
0
100
AcDbLine
 10
-58.20362443842917
 20
50.79789601421891
 30
0.0
 11
-58.46892348881653
 21
50.90778647897416
 31
0.0
  0
LINE
  5
45A
330
1F
100
AcDbEntity
  8
0
100
AcDbLine
 10
-57.9758069791241
 20
50.62308552936128
 30
0.0
 11
-58.20362443842917
 21
50.79789601421891
 31
0.0
  0
LINE
  5
45B
330
1F
100
AcDbEntity
  8
0
100
AcDbLine
 10
-57.80099649426647
 20
50.39526807005585
 30
0.0
 11
-57.9758069791241
 21
50.62308552936128
 31
0.0
  0
LINE
  5
45C
330
1F
100
AcDbEntity
  8
0
100
AcDbLine
 10
-57.69110602951123
 20
50.12996901966885
 30
0.0
 11
-57.80099649426647
 21
50.39526807005585
 31
0.0
  0
LINE
  5
45D
330
1F
100
AcDbEntity
  8
0
100
AcDbLine
 10
-57.6536244384293
 20
49.84526807005597
 30
0.0
 11
-57.69110602951123
 21
50.12996901966885
 31
0.0
  0
LINE
  5
45E
330
1F
100
AcDbEntity
  8
0
100
AcDbLine
 10
-57.69110602951123
 20
49.5605671204431
 30
0.0
 11
-57.6536244384293
 21
49.84526807005597
 31
0.0
  0
LINE
  5
45F
330
1F
100
AcDbEntity
  8
0
100
AcDbLine
 10
-57.80099649426647
 20
49.29526807005574
 30
0.0
 11
-57.69110602951123
 21
49.5605671204431
 31
0.0
  0
LINE
  5
460
330
1F
100
AcDbEntity
  8
0
100
AcDbLine
 10
-58.20362443842954
 20
48.89264012589304
 30
0.0
 11
-57.9758069791241
 21
49.06745061075067
 31
0.0
  0
LINE
  5
461
330
1F
100
AcDbEntity
  8
0
100
AcDbLine
 10
-58.46892348881653
 20
48.78274966113779
 30
0.0
 11
-58.20362443842954
 21
48.89264012589304
 31
0.0
  0
LINE
  5
462
330
1F
100
AcDbEntity
  8
0
100
AcDbLine
 10
-58.75362443842941
 20
48.74526807005586
 30
0.0
 11
-58.46892348881653
 21
48.78274966113779
 31
0.0
  0
LINE
  5
463
330
1F
100
AcDbEntity
  8
0
100
AcDbLine
 10
-59.03832538804229
 20
48.78274966113779
 30
0.0
 11
-58.75362443842941
 21
48.74526807005586
 31
0.0
  0
LINE
  5
464
330
1F
100
AcDbEntity
  8
0
100
AcDbLine
 10
-59.30362443842964
 20
48.89264012589304
 30
0.0
 11
-59.03832538804229
 21
48.78274966113779
 31
0.0
  0
LINE
  5
465
330
1F
100
AcDbEntity
  8
0
100
AcDbLine
 10
-59.53144189773472
 20
49.06745061075067
 30
0.0
 11
-59.30362443842964
 21
48.89264012589304
 31
0.0
  0
LINE
  5
466
330
1F
100
AcDbEntity
  8
0
100
AcDbLine
 10
-82.36161070281834
 20
63.18848824265186
 30
0.0
 11
-81.99988680638155
 21
63.33845358680107
 31
0.0
  0
LINE
  5
467
330
1F
100
AcDbEntity
  8
0
100
AcDbLine
 10
-82.7498230435437
 20
63.13725387715603
 30
0.0
 11
-82.36161070281834
 21
63.18848824265186
 31
0.0
  0
LINE
  5
468
330
1F
100
AcDbEntity
  8
0
100
AcDbLine
 10
-83.13806779908839
 20
63.18824202765393
 30
0.0
 11
-82.7498230435437
 21
63.13725387715603
 31
0.0
  0
LINE
  5
469
330
1F
100
AcDbEntity
  8
0
100
AcDbLine
 10
-83.49988673096709
 20
63.33797793595049
 30
0.0
 11
-83.13806779908839
 21
63.18824202765393
 31
0.0
  0
LINE
  5
46A
330
1F
100
AcDbEntity
  8
0
100
AcDbLine
 10
-83.81062247690598
 20
63.57625734734598
 30
0.0
 11
-83.49988673096709
 21
63.33797793595049
 31
0.0
  0
LINE
  5
46B
330
1F
100
AcDbEntity
  8
0
100
AcDbLine
 10
-84.04909890933479
 20
63.88684191372885
 30
0.0
 11
-83.81062247690598
 21
63.57625734734598
 31
0.0
  0
LINE
  5
46C
330
1F
100
AcDbEntity
  8
0
100
AcDbLine
 10
-84.199064253484
 20
64.24856581016563
 30
0.0
 11
-84.04909890933479
 21
63.88684191372885
 31
0.0
  0
LINE
  5
46D
330
1F
100
AcDbEntity
  8
0
100
AcDbLine
 10
-84.25029861897983
 20
64.63677815089099
 30
0.0
 11
-84.199064253484
 21
64.24856581016563
 31
0.0
  0
LINE
  5
46E
330
1F
100
AcDbEntity
  8
0
100
AcDbLine
 10
-84.19931046848193
 20
65.0250229064357
 30
0.0
 11
-84.25029861897983
 21
64.63677815089099
 31
0.0
  0
LINE
  5
46F
330
1F
100
AcDbEntity
  8
0
100
AcDbLine
 10
-84.04957456018536
 20
65.3868418383144
 30
0.0
 11
-84.19931046848193
 21
65.0250229064357
 31
0.0
  0
LINE
  5
470
330
1F
100
AcDbEntity
  8
0
100
AcDbLine
 10
-83.81129514878987
 20
65.69757758425328
 30
0.0
 11
-84.04957456018536
 21
65.3868418383144
 31
0.0
  0
LINE
  5
471
330
1F
100
AcDbEntity
  8
0
100
AcDbLine
 10
-83.50071058240701
 20
65.93605401668208
 30
0.0
 11
-83.81129514878987
 21
65.69757758425328
 31
0.0
  0
LINE
  5
472
330
1F
100
AcDbEntity
  8
0
100
AcDbLine
 10
-83.13898668597022
 20
66.08601936083129
 30
0.0
 11
-83.50071058240701
 21
65.93605401668208
 31
0.0
  0
LINE
  5
473
330
1F
100
AcDbEntity
  8
0
100
AcDbLine
 10
-82.75077434524486
 20
66.13725372632712
 30
0.0
 11
-83.13898668597022
 21
66.08601936083129
 31
0.0
  0
LINE
  5
474
330
1F
100
AcDbEntity
  8
0
100
AcDbLine
 10
-82.36252958970016
 20
66.08626557582922
 30
0.0
 11
-82.75077434524486
 21
66.13725372632712
 31
0.0
  0
LINE
  5
475
330
1F
100
AcDbEntity
  8
0
100
AcDbLine
 10
-82.00071065782146
 20
65.93652966753267
 30
0.0
 11
-82.36252958970016
 21
66.08626557582922
 31
0.0
  0
LINE
  5
476
330
1F
100
AcDbEntity
  8
0
100
AcDbLine
 10
-81.68997491188257
 20
65.69825025613717
 30
0.0
 11
-82.00071065782146
 21
65.93652966753267
 31
0.0
  0
LINE
  5
477
330
1F
100
AcDbEntity
  8
0
100
AcDbLine
 10
-81.30153313530457
 20
65.02594179331751
 30
0.0
 11
-81.45149847945378
 21
65.3876656897543
 31
0.0
  0
LINE
  5
478
330
1F
100
AcDbEntity
  8
0
100
AcDbLine
 10
-81.45149847945378
 20
65.3876656897543
 30
0.0
 11
-81.68997491188257
 21
65.69825025613717
 31
0.0
  0
LINE
  5
479
330
1F
100
AcDbEntity
  8
0
100
AcDbLine
 10
-81.30128692030664
 20
64.24948469704746
 30
0.0
 11
-81.25029876980874
 21
64.63772945259215
 31
0.0
  0
LINE
  5
47A
330
1F
100
AcDbEntity
  8
0
100
AcDbLine
 10
-81.25029876980874
 20
64.63772945259215
 30
0.0
 11
-81.30153313530457
 21
65.02594179331751
 31
0.0
  0
LINE
  5
47B
330
1F
100
AcDbEntity
  8
0
100
AcDbLine
 10
-81.68930223999868
 20
63.57693001922988
 30
0.0
 11
-81.45102282860319
 21
63.88766576516876
 31
0.0
  0
LINE
  5
47C
330
1F
100
AcDbEntity
  8
0
100
AcDbLine
 10
-81.45102282860319
 20
63.88766576516876
 30
0.0
 11
-81.30128692030664
 21
64.24948469704746
 31
0.0
  0
LINE
  5
47D
330
1F
100
AcDbEntity
  8
0
100
AcDbLine
 10
-74.87107700832874
 20
72.46554274401392
 30
0.0
 11
-74.06207408719597
 21
71.50595613433812
 31
0.0
  0
LINE
  5
47E
330
1F
100
AcDbEntity
  8
0
100
AcDbLine
 10
-75.66522716064063
 20
73.43745720704742
 30
0.0
 11
-74.87107700832874
 21
72.46554274401392
 31
0.0
  0
LINE
  5
47F
330
1F
100
AcDbEntity
  8
0
100
AcDbLine
 10
-74.06207408719597
 20
71.50595613433812
 30
0.0
 11
-48.37316092591047
 21
45.83332974718579
 31
0.0
  0
LINE
  5
480
330
1F
100
AcDbEntity
  8
0
100
AcDbLine
 10
-77.20822140147456
 20
75.4173473412533
 30
0.0
 11
-76.44433671546678
 21
74.42146965079458
 31
0.0
  0
LINE
  5
481
330
1F
100
AcDbEntity
  8
0
100
AcDbLine
 10
-77.95670054824535
 20
76.42485473810929
 30
0.0
 11
-77.20822140147456
 21
75.4173473412533
 31
0.0
  0
LINE
  5
482
330
1F
100
AcDbEntity
  8
0
100
AcDbLine
 10
-78.68959712900666
 20
77.44375355044481
 30
0.0
 11
-77.95670054824535
 21
76.42485473810929
 31
0.0
  0
LINE
  5
483
330
1F
100
AcDbEntity
  8
0
100
AcDbLine
 10
-79.40673780250115
 20
78.47380279309793
 30
0.0
 11
-78.68959712900666
 21
77.44375355044481
 31
0.0
  0
LINE
  5
484
330
1F
100
AcDbEntity
  8
0
100
AcDbLine
 10
-80.10795295398475
 20
79.51475884365931
 30
0.0
 11
-79.40673780250115
 21
78.47380279309793
 31
0.0
  0
LINE
  5
485
330
1F
100
AcDbEntity
  8
0
100
AcDbLine
 10
-81.4619471043169
 20
81.6284040389651
 30
0.0
 11
-80.79307673534322
 21
80.56637550009255
 31
0.0
  0
LINE
  5
486
330
1F
100
AcDbEntity
  8
0
100
AcDbLine
 10
-82.1144058628277
 20
82.70059327427424
 30
0.0
 11
-81.4619471043169
 21
81.6284040389651
 31
0.0
  0
LINE
  5
487
330
1F
100
AcDbEntity
  8
0
100
AcDbLine
 10
-80.79307673534322
 20
80.56637550009255
 30
0.0
 11
-80.10795295398475
 21
79.51475884365931
 31
0.0
  0
LINE
  5
488
330
1F
100
AcDbEntity
  8
0
100
AcDbLine
 10
-76.44433671546678
 20
74.42146965079458
 30
0.0
 11
-75.66522716064063
 21
73.43745720704742
 31
0.0
  0
LINE
  5
489
330
1F
100
AcDbEntity
  8
0
100
AcDbLine
 10
-101.8139941755966
 20
75.72202944507822
 30
0.0
 11
-101.5756162416997
 21
76.03268961685782
 31
0.0
  0
LINE
  5
48A
330
1F
100
AcDbEntity
  8
0
100
AcDbLine
 10
-101.5756162416997
 20
76.03268961685782
 30
0.0
 11
-101.4257656079427
 21
76.39446104920412
 31
0.0
  0
LINE
  5
48B
330
1F
100
AcDbEntity
  8
0
100
AcDbLine
 10
-102.4864257797225
 20
75.33380087742432
 30
0.0
 11
-102.1246543473766
 21
75.48365151118125
 31
0.0
  0
LINE
  5
48C
330
1F
100
AcDbEntity
  8
0
100
AcDbLine
 10
-102.1246543473766
 20
75.48365151118125
 30
0.0
 11
-101.8139941755966
 21
75.72202944507822
 31
0.0
  0
LINE
  5
48D
330
1F
100
AcDbEntity
  8
0
100
AcDbLine
 10
-102.8746543473764
 20
75.282689616858
 30
0.0
 11
-102.4864257797225
 21
75.33380087742432
 31
0.0
  0
LINE
  5
48E
330
1F
100
AcDbEntity
  8
0
100
AcDbLine
 10
-103.2628829150303
 20
75.33380087742432
 30
0.0
 11
-102.8746543473764
 21
75.282689616858
 31
0.0
  0
LINE
  5
48F
330
1F
100
AcDbEntity
  8
0
100
AcDbLine
 10
-103.6246543473766
 20
75.48365151118125
 30
0.0
 11
-103.2628829150303
 21
75.33380087742432
 31
0.0
  0
LINE
  5
490
330
1F
100
AcDbEntity
  8
0
100
AcDbLine
 10
-103.9864257797226
 20
75.33380087742432
 30
0.0
 11
-103.6246543473766
 21
75.48365151118125
 31
0.0
  0
LINE
  5
491
330
1F
100
AcDbEntity
  8
0
100
AcDbLine
 10
-105.1246543473766
 20
75.48365151118125
 30
0.0
 11
-104.7628829150303
 21
75.33380087742432
 31
0.0
  0
LINE
  5
492
330
1F
100
AcDbEntity
  8
0
100
AcDbLine
 10
-104.7628829150303
 20
75.33380087742432
 30
0.0
 11
-104.3746543473764
 21
75.282689616858
 31
0.0
  0
LINE
  5
493
330
1F
100
AcDbEntity
  8
0
100
AcDbLine
 10
-105.6736924530532
 20
76.03268961685819
 30
0.0
 11
-105.4353145191562
 21
75.72202944507822
 31
0.0
  0
LINE
  5
494
330
1F
100
AcDbEntity
  8
0
100
AcDbLine
 10
-105.4353145191562
 20
75.72202944507822
 30
0.0
 11
-105.1246543473766
 21
75.48365151118125
 31
0.0
  0
LINE
  5
495
330
1F
100
AcDbEntity
  8
0
100
AcDbLine
 10
-105.8746543473765
 20
76.78268961685802
 30
0.0
 11
-105.8235430868101
 21
76.39446104920412
 31
0.0
  0
LINE
  5
496
330
1F
100
AcDbEntity
  8
0
100
AcDbLine
 10
-105.8235430868101
 20
76.39446104920412
 30
0.0
 11
-105.6736924530532
 21
76.03268961685819
 31
0.0
  0
LINE
  5
497
330
1F
100
AcDbEntity
  8
0
100
AcDbLine
 10
-94.12465434737625
 20
70.0817277225348
 30
0.0
 11
-94.48642577972254
 21
70.23157835629172
 31
0.0
  0
LINE
  5
498
330
1F
100
AcDbEntity
  8
0
100
AcDbLine
 10
-105.8235430868101
 20
77.1709181845119
 30
0.0
 11
-105.8746543473765
 21
76.78268961685802
 31
0.0
  0
LINE
  5
499
330
1F
100
AcDbEntity
  8
0
100
AcDbLine
 10
-93.57561624169968
 20
69.53268961685787
 30
0.0
 11
-93.81399417559663
 21
69.84334978863784
 31
0.0
  0
LINE
  5
49A
330
1F
100
AcDbEntity
  8
0
100
AcDbLine
 10
-93.81399417559663
 20
69.84334978863784
 30
0.0
 11
-94.12465434737625
 21
70.0817277225348
 31
0.0
  0
LINE
  5
49B
330
1F
100
AcDbEntity
  8
0
100
AcDbLine
 10
-93.37465434737642
 20
68.78268961685804
 30
0.0
 11
-93.42576560794274
 21
69.17091818451192
 31
0.0
  0
LINE
  5
49C
330
1F
100
AcDbEntity
  8
0
100
AcDbLine
 10
-93.42576560794274
 20
69.17091818451192
 30
0.0
 11
-93.57561624169968
 21
69.53268961685787
 31
0.0
  0
LINE
  5
49D
330
1F
100
AcDbEntity
  8
0
100
AcDbLine
 10
-93.57561624169968
 20
68.03268961685784
 30
0.0
 11
-93.42576560794274
 21
68.39446104920414
 31
0.0
  0
LINE
  5
49E
330
1F
100
AcDbEntity
  8
0
100
AcDbLine
 10
-93.42576560794274
 20
68.39446104920414
 30
0.0
 11
-93.37465434737642
 21
68.78268961685804
 31
0.0
  0
LINE
  5
49F
330
1F
100
AcDbEntity
  8
0
100
AcDbLine
 10
-93.42576560794274
 20
67.6709181845119
 30
0.0
 11
-93.57561624169968
 21
68.03268961685784
 31
0.0
  0
LINE
  5
4A0
330
1F
100
AcDbEntity
  8
0
100
AcDbLine
 10
-93.42576560794274
 20
66.89446104920412
 30
0.0
 11
-93.37465434737642
 21
67.28268961685801
 31
0.0
  0
LINE
  5
4A1
330
1F
100
AcDbEntity
  8
0
100
AcDbLine
 10
-93.57561624169968
 20
66.53268961685782
 30
0.0
 11
-93.42576560794274
 21
66.89446104920412
 31
0.0
  0
LINE
  5
4A2
330
1F
100
AcDbEntity
  8
0
100
AcDbLine
 10
-94.1246543473766
 20
65.98365151118125
 30
0.0
 11
-93.81399417559663
 21
66.2220294450782
 31
0.0
  0
LINE
  5
4A3
330
1F
100
AcDbEntity
  8
0
100
AcDbLine
 10
-93.81399417559663
 20
66.2220294450782
 30
0.0
 11
-93.57561624169968
 21
66.53268961685782
 31
0.0
  0
LINE
  5
4A4
330
1F
100
AcDbEntity
  8
0
100
AcDbLine
 10
-94.87465434737643
 20
65.782689616858
 30
0.0
 11
-94.48642577972254
 21
65.83380087742432
 31
0.0
  0
LINE
  5
4A5
330
1F
100
AcDbEntity
  8
0
100
AcDbLine
 10
-94.48642577972254
 20
65.83380087742432
 30
0.0
 11
-94.1246543473766
 21
65.98365151118125
 31
0.0
  0
LINE
  5
4A6
330
1F
100
AcDbEntity
  8
0
100
AcDbLine
 10
-95.62465434737662
 20
65.98365151118125
 30
0.0
 11
-95.26288291503033
 21
65.83380087742432
 31
0.0
  0
LINE
  5
4A7
330
1F
100
AcDbEntity
  8
0
100
AcDbLine
 10
-95.26288291503033
 20
65.83380087742432
 30
0.0
 11
-94.87465434737643
 21
65.782689616858
 31
0.0
  0
LINE
  5
4A8
330
1F
100
AcDbEntity
  8
0
100
AcDbLine
 10
-96.17369245305319
 20
66.53268961685818
 30
0.0
 11
-95.93531451915624
 21
66.2220294450782
 31
0.0
  0
LINE
  5
4A9
330
1F
100
AcDbEntity
  8
0
100
AcDbLine
 10
-82.75029869439427
 20
83.78268961685787
 30
0.0
 11
-82.1144058628277
 21
82.70059327427424
 31
0.0
  0
LINE
  5
4AA
330
1F
100
AcDbEntity
  8
0
100
AcDbLine
 10
-95.93531451915624
 20
66.2220294450782
 30
0.0
 11
-95.62465434737662
 21
65.98365151118125
 31
0.0
  0
LINE
  5
4AB
330
1F
100
AcDbEntity
  8
0
100
AcDbLine
 10
-96.37465434737645
 20
67.28268961685801
 30
0.0
 11
-96.32354308681013
 21
66.89446104920412
 31
0.0
  0
LINE
  5
4AC
330
1F
100
AcDbEntity
  8
0
100
AcDbLine
 10
-96.32354308681013
 20
66.89446104920412
 30
0.0
 11
-96.17369245305319
 21
66.53268961685818
 31
0.0
  0
LINE
  5
4AD
330
1F
100
AcDbEntity
  8
0
100
AcDbLine
 10
-96.32354308681013
 20
68.39446104920414
 30
0.0
 11
-96.17369245305319
 21
68.0326896168582
 31
0.0
  0
LINE
  5
4AE
330
1F
100
AcDbEntity
  8
0
100
AcDbLine
 10
-96.17369245305319
 20
68.0326896168582
 30
0.0
 11
-96.32354308681013
 21
67.6709181845119
 31
0.0
  0
LINE
  5
4AF
330
1F
100
AcDbEntity
  8
0
100
AcDbLine
 10
-96.32354308681013
 20
69.17091818451192
 30
0.0
 11
-96.37465434737645
 21
68.78268961685804
 31
0.0
  0
LINE
  5
4B0
330
1F
100
AcDbEntity
  8
0
100
AcDbLine
 10
-96.37465434737645
 20
68.78268961685804
 30
0.0
 11
-96.32354308681013
 21
68.39446104920414
 31
0.0
  0
LINE
  5
4B1
330
1F
100
AcDbEntity
  8
0
100
AcDbLine
 10
-95.93531451915624
 20
69.84334978863784
 30
0.0
 11
-96.17369245305319
 21
69.53268961685822
 31
0.0
  0
LINE
  5
4B2
330
1F
100
AcDbEntity
  8
0
100
AcDbLine
 10
-96.17369245305319
 20
69.53268961685822
 30
0.0
 11
-96.32354308681013
 21
69.17091818451192
 31
0.0
  0
LINE
  5
4B3
330
1F
100
AcDbEntity
  8
0
100
AcDbLine
 10
-94.87465434737643
 20
70.28268961685805
 30
0.0
 11
-95.26288291503033
 21
70.23157835629172
 31
0.0
  0
LINE
  5
4B4
330
1F
100
AcDbEntity
  8
0
100
AcDbLine
 10
-95.26288291503033
 20
70.23157835629172
 30
0.0
 11
-95.62465434737626
 21
70.0817277225348
 31
0.0
  0
LINE
  5
4B5
330
1F
100
AcDbEntity
  8
0
100
AcDbLine
 10
-88.17369245305322
 20
77.5326896168582
 30
0.0
 11
-88.32354308681015
 21
77.1709181845119
 31
0.0
  0
LINE
  5
4B6
330
1F
100
AcDbEntity
  8
0
100
AcDbLine
 10
-94.48642577972254
 20
70.23157835629172
 30
0.0
 11
-94.87465434737643
 21
70.28268961685805
 31
0.0
  0
LINE
  5
4B7
330
1F
100
AcDbEntity
  8
0
100
AcDbLine
 10
-87.62465434737628
 20
78.08172772253478
 30
0.0
 11
-87.93531451915625
 21
77.84334978863782
 31
0.0
  0
LINE
  5
4B8
330
1F
100
AcDbEntity
  8
0
100
AcDbLine
 10
-87.93531451915625
 20
77.84334978863782
 30
0.0
 11
-88.17369245305322
 21
77.5326896168582
 31
0.0
  0
LINE
  5
4B9
330
1F
100
AcDbEntity
  8
0
100
AcDbLine
 10
-86.87465434737645
 20
78.28268961685804
 30
0.0
 11
-87.26288291503035
 21
78.2315783562917
 31
0.0
  0
LINE
  5
4BA
330
1F
100
AcDbEntity
  8
0
100
AcDbLine
 10
-87.26288291503035
 20
78.2315783562917
 30
0.0
 11
-87.62465434737628
 21
78.08172772253478
 31
0.0
  0
LINE
  5
4BB
330
1F
100
AcDbEntity
  8
0
100
AcDbLine
 10
-86.12465434737626
 20
78.08172772253478
 30
0.0
 11
-86.48642577972257
 21
78.2315783562917
 31
0.0
  0
LINE
  5
4BC
330
1F
100
AcDbEntity
  8
0
100
AcDbLine
 10
-86.48642577972257
 20
78.2315783562917
 30
0.0
 11
-86.87465434737645
 21
78.28268961685804
 31
0.0
  0
LINE
  5
4BD
330
1F
100
AcDbEntity
  8
0
100
AcDbLine
 10
-85.76288291503032
 20
78.2315783562917
 30
0.0
 11
-86.12465434737626
 21
78.08172772253478
 31
0.0
  0
LINE
  5
4BE
330
1F
100
AcDbEntity
  8
0
100
AcDbLine
 10
-57.9758069791241
 20
49.06745061075067
 30
0.0
 11
-57.80099649426647
 21
49.29526807005574
 31
0.0
  0
LINE
  5
4BF
330
1F
100
AcDbEntity
  8
0
100
AcDbLine
 10
-84.62465434737624
 20
78.08172772253478
 30
0.0
 11
-84.98642577972254
 21
78.2315783562917
 31
0.0
  0
LINE
  5
4C0
330
1F
100
AcDbEntity
  8
0
100
AcDbLine
 10
-84.98642577972254
 20
78.2315783562917
 30
0.0
 11
-85.37465434737643
 21
78.28268961685804
 31
0.0
  0
LINE
  5
4C1
330
1F
100
AcDbEntity
  8
0
100
AcDbLine
 10
-84.07561624169966
 20
77.53268961685785
 30
0.0
 11
-84.31399417559663
 21
77.84334978863782
 31
0.0
  0
LINE
  5
4C2
330
1F
100
AcDbEntity
  8
0
100
AcDbLine
 10
-84.31399417559663
 20
77.84334978863782
 30
0.0
 11
-84.62465434737624
 21
78.08172772253478
 31
0.0
  0
LINE
  5
4C3
330
1F
100
AcDbEntity
  8
0
100
AcDbLine
 10
-83.8746543473764
 20
76.78268961685802
 30
0.0
 11
-83.92576560794274
 21
77.1709181845119
 31
0.0
  0
LINE
  5
4C4
330
1F
100
AcDbEntity
  8
0
100
AcDbLine
 10
-83.92576560794274
 20
77.1709181845119
 30
0.0
 11
-84.07561624169966
 21
77.53268961685785
 31
0.0
  0
LINE
  5
4C5
330
1F
100
AcDbEntity
  8
0
100
AcDbLine
 10
-84.07561624169966
 20
76.03268961685782
 30
0.0
 11
-83.92576560794274
 21
76.39446104920412
 31
0.0
  0
LINE
  5
4C6
330
1F
100
AcDbEntity
  8
0
100
AcDbLine
 10
-83.92576560794274
 20
76.39446104920412
 30
0.0
 11
-83.8746543473764
 21
76.78268961685802
 31
0.0
  0
LINE
  5
4C7
330
1F
100
AcDbEntity
  8
0
100
AcDbLine
 10
-84.6246543473766
 20
75.48365151118125
 30
0.0
 11
-84.31399417559663
 21
75.72202944507822
 31
0.0
  0
LINE
  5
4C8
330
1F
100
AcDbEntity
  8
0
100
AcDbLine
 10
-84.31399417559663
 20
75.72202944507822
 30
0.0
 11
-84.07561624169966
 21
76.03268961685782
 31
0.0
  0
LINE
  5
4C9
330
1F
100
AcDbEntity
  8
0
100
AcDbLine
 10
-85.37465434737643
 20
75.282689616858
 30
0.0
 11
-84.98642577972254
 21
75.33380087742432
 31
0.0
  0
LINE
  5
4CA
330
1F
100
AcDbEntity
  8
0
100
AcDbLine
 10
-84.98642577972254
 20
75.33380087742432
 30
0.0
 11
-84.6246543473766
 21
75.48365151118125
 31
0.0
  0
LINE
  5
4CB
330
1F
100
AcDbEntity
  8
0
100
AcDbLine
 10
-91.01095104221992
 20
75.74741343644789
 30
0.0
 11
-90.87465434737626
 21
76.78268961685802
 31
0.0
  0
LINE
  5
4CC
330
1F
100
AcDbEntity
  8
0
100
AcDbLine
 10
-92.04622722263005
 20
73.95426249211164
 30
0.0
 11
-91.41055273223851
 21
74.78268961685775
 31
0.0
  0
LINE
  5
4CD
330
1F
100
AcDbEntity
  8
0
100
AcDbLine
 10
-91.41055273223851
 20
74.78268961685775
 30
0.0
 11
-91.01095104221992
 21
75.74741343644789
 31
0.0
  0
LINE
  5
4CE
330
1F
100
AcDbEntity
  8
0
100
AcDbLine
 10
-92.87465434737653
 20
73.3185880017201
 30
0.0
 11
-92.04622722263005
 21
73.95426249211164
 31
0.0
  0
LINE
  5
4CF
330
1F
100
AcDbEntity
  8
0
100
AcDbLine
 10
-90.87465434737626
 20
76.78268961685802
 30
0.0
 11
-91.01095104221992
 21
77.81796579726816
 31
0.0
  0
LINE
  5
4D0
330
1F
100
AcDbEntity
  8
0
100
AcDbLine
 10
-91.01095104221992
 20
77.81796579726816
 30
0.0
 11
-91.41055273223851
 21
78.78268961685792
 31
0.0
  0
LINE
  5
4D1
330
1F
100
AcDbEntity
  8
0
100
AcDbLine
 10
-101.3746543473764
 20
76.78268961685802
 30
0.0
 11
-101.4257656079427
 21
77.1709181845119
 31
0.0
  0
LINE
  5
4D2
330
1F
100
AcDbEntity
  8
0
100
AcDbLine
 10
-101.4257656079427
 20
76.39446104920412
 30
0.0
 11
-101.3746543473764
 21
76.78268961685802
 31
0.0
  0
LINE
  5
4D3
330
1F
100
AcDbEntity
  8
0
100
AcDbLine
 10
-39.07465434737613
 20
16.78268961685795
 30
0.0
 11
-39.07465434737613
 21
0.7826896168579758
 31
0.0
  0
LINE
  5
4D4
330
1F
100
AcDbEntity
  8
0
100
AcDbLine
 10
-94.87465434737643
 20
72.78268961685784
 30
0.0
 11
-93.8393781669663
 21
72.9189863117015
 31
0.0
  0
LINE
  5
4D5
330
1F
100
AcDbEntity
  8
0
100
AcDbLine
 10
-36.87465434737627
 20
0.7826896168579758
 30
0.0
 11
-36.87465434737627
 21
16.78268961685795
 31
0.0
  0
LINE
  5
4D6
330
1F
100
AcDbEntity
  8
0
100
AcDbLine
 10
-93.8393781669663
 20
72.9189863117015
 30
0.0
 11
-92.87465434737653
 21
73.3185880017201
 31
0.0
  0
LINE
  5
4D7
330
1F
100
AcDbEntity
  8
0
100
AcDbLine
 10
-36.87465434737627
 20
16.78268961685795
 30
0.0
 11
-39.07465434737613
 21
16.78268961685795
 31
0.0
  0
LINE
  5
4D8
330
1F
100
AcDbEntity
  8
0
100
AcDbLine
 10
-94.87465434737643
 20
80.78268961685819
 30
0.0
 11
-95.90993052778657
 21
80.64639292201453
 31
0.0
  0
LINE
  5
4D9
330
1F
100
AcDbEntity
  8
0
100
AcDbLine
 10
-97.70308147212282
 20
79.61111674160439
 30
0.0
 11
-98.33875596251436
 21
78.78268961685828
 31
0.0
  0
LINE
  5
4DA
330
1F
100
AcDbEntity
  8
0
100
AcDbLine
 10
-95.90993052778657
 20
80.64639292201453
 30
0.0
 11
-96.87465434737634
 21
80.24679123199593
 31
0.0
  0
LINE
  5
4DB
330
1F
100
AcDbEntity
  8
0
100
AcDbLine
 10
-92.04622722263005
 20
79.61111674160439
 30
0.0
 11
-92.87465434737616
 21
80.24679123199593
 31
0.0
  0
LINE
  5
4DC
330
1F
100
AcDbEntity
  8
0
100
AcDbLine
 10
-96.87465434737634
 20
80.24679123199593
 30
0.0
 11
-97.70308147212282
 21
79.61111674160439
 31
0.0
  0
LINE
  5
4DD
330
1F
100
AcDbEntity
  8
0
100
AcDbLine
 10
-98.73835765253295
 20
77.81796579726816
 30
0.0
 11
-98.8746543473766
 21
76.78268961685802
 31
0.0
  0
LINE
  5
4DE
330
1F
100
AcDbEntity
  8
0
100
AcDbLine
 10
-92.87465434737616
 20
80.24679123199593
 30
0.0
 11
-93.8393781669663
 21
80.64639292201453
 31
0.0
  0
LINE
  5
4DF
330
1F
100
AcDbEntity
  8
0
100
AcDbLine
 10
-91.41055273223851
 20
78.78268961685792
 30
0.0
 11
-92.04622722263005
 21
79.61111674160439
 31
0.0
  0
LINE
  5
4E0
330
1F
100
AcDbEntity
  8
0
100
AcDbLine
 10
-93.8393781669663
 20
80.64639292201453
 30
0.0
 11
-94.87465434737643
 21
80.78268961685819
 31
0.0
  0
LINE
  5
4E1
330
1F
100
AcDbEntity
  8
0
100
AcDbLine
 10
-98.33875596251436
 20
78.78268961685828
 30
0.0
 11
-98.73835765253295
 21
77.81796579726816
 31
0.0
  0
LINE
  5
4E2
330
1F
100
AcDbEntity
  8
0
100
AcDbLine
 10
-98.73835765253295
 20
75.74741343644789
 30
0.0
 11
-98.33875596251436
 21
74.78268961685811
 31
0.0
  0
LINE
  5
4E3
330
1F
100
AcDbEntity
  8
0
100
AcDbLine
 10
-98.8746543473766
 20
76.78268961685802
 30
0.0
 11
-98.73835765253295
 21
75.74741343644789
 31
0.0
  0
LINE
  5
4E4
330
1F
100
AcDbEntity
  8
0
100
AcDbLine
 10
-97.70308147212282
 20
73.95426249211164
 30
0.0
 11
-96.8746543473767
 21
73.3185880017201
 31
0.0
  0
LINE
  5
4E5
330
1F
100
AcDbEntity
  8
0
100
AcDbLine
 10
-98.33875596251436
 20
74.78268961685811
 30
0.0
 11
-97.70308147212282
 21
73.95426249211164
 31
0.0
  0
LINE
  5
4E6
330
1F
100
AcDbEntity
  8
0
100
AcDbLine
 10
-95.90993052778657
 20
72.9189863117015
 30
0.0
 11
-94.87465434737643
 21
72.78268961685784
 31
0.0
  0
LINE
  5
4E7
330
1F
100
AcDbEntity
  8
0
100
AcDbLine
 10
-96.8746543473767
 20
73.3185880017201
 30
0.0
 11
-95.90993052778657
 21
72.9189863117015
 31
0.0
  0
LINE
  5
4E8
330
1F
100
AcDbEntity
  8
0
100
AcDbLine
 10
-88.37465434737648
 20
76.78268961685802
 30
0.0
 11
-88.32354308681015
 21
76.39446104920412
 31
0.0
  0
LINE
  5
4E9
330
1F
100
AcDbEntity
  8
0
100
AcDbLine
 10
-88.32354308681015
 20
77.1709181845119
 30
0.0
 11
-88.37465434737648
 21
76.78268961685802
 31
0.0
  0
LINE
  5
4EA
330
1F
100
AcDbEntity
  8
0
100
AcDbLine
 10
-88.17369245305322
 20
76.03268961685819
 30
0.0
 11
-87.93531451915625
 21
75.72202944507822
 31
0.0
  0
LINE
  5
4EB
330
1F
100
AcDbEntity
  8
0
100
AcDbLine
 10
-87.93531451915625
 20
75.72202944507822
 30
0.0
 11
-87.62465434737665
 21
75.48365151118125
 31
0.0
  0
LINE
  5
4EC
330
1F
100
AcDbEntity
  8
0
100
AcDbLine
 10
-86.87465434737645
 20
75.282689616858
 30
0.0
 11
-86.48642577972257
 21
75.33380087742432
 31
0.0
  0
LINE
  5
4ED
330
1F
100
AcDbEntity
  8
0
100
AcDbLine
 10
-88.32354308681015
 20
76.39446104920412
 30
0.0
 11
-88.17369245305322
 21
76.03268961685819
 31
0.0
  0
LINE
  5
4EE
330
1F
100
AcDbEntity
  8
0
100
AcDbLine
 10
-87.62465434737665
 20
75.48365151118125
 30
0.0
 11
-87.26288291503035
 21
75.33380087742432
 31
0.0
  0
LINE
  5
4EF
330
1F
100
AcDbEntity
  8
0
100
AcDbLine
 10
42.57423439205737
 20
66.89446104920412
 30
0.0
 11
42.42438375830044
 21
66.53268961685818
 31
0.0
  0
LINE
  5
4F0
330
1F
100
AcDbEntity
  8
0
100
AcDbLine
 10
42.62534565262369
 20
67.28268961685801
 30
0.0
 11
42.57423439205737
 21
66.89446104920412
 31
0.0
  0
LINE
  5
4F1
330
1F
100
AcDbEntity
  8
0
100
AcDbLine
 10
42.42438375830044
 20
66.53268961685818
 30
0.0
 11
42.18600582440348
 21
66.2220294450782
 31
0.0
  0
LINE
  5
4F2
330
1F
100
AcDbEntity
  8
0
100
AcDbLine
 10
42.42438375830044
 20
68.0326896168582
 30
0.0
 11
42.57423439205737
 21
67.6709181845119
 31
0.0
  0
LINE
  5
4F3
330
1F
100
AcDbEntity
  8
0
100
AcDbLine
 10
42.57423439205737
 20
68.39446104920414
 30
0.0
 11
42.42438375830044
 21
68.0326896168582
 31
0.0
  0
LINE
  5
4F4
330
1F
100
AcDbEntity
  8
0
100
AcDbLine
 10
42.62534565262369
 20
68.78268961685804
 30
0.0
 11
42.57423439205737
 21
68.39446104920414
 31
0.0
  0
LINE
  5
4F5
330
1F
100
AcDbEntity
  8
0
100
AcDbLine
 10
42.42438375830044
 20
69.53268961685822
 30
0.0
 11
42.57423439205737
 21
69.17091818451192
 31
0.0
  0
LINE
  5
4F6
330
1F
100
AcDbEntity
  8
0
100
AcDbLine
 10
42.57423439205737
 20
69.17091818451192
 30
0.0
 11
42.62534565262369
 21
68.78268961685804
 31
0.0
  0
LINE
  5
4F7
330
1F
100
AcDbEntity
  8
0
100
AcDbLine
 10
33.12534565262369
 20
78.28268961685804
 30
0.0
 11
33.51357422027758
 21
78.2315783562917
 31
0.0
  0
LINE
  5
4F8
330
1F
100
AcDbEntity
  8
0
100
AcDbLine
 10
33.51357422027758
 20
78.2315783562917
 30
0.0
 11
33.87534565262352
 21
78.08172772253478
 31
0.0
  0
LINE
  5
4F9
330
1F
100
AcDbEntity
  8
0
100
AcDbLine
 10
33.87534565262352
 20
78.08172772253478
 30
0.0
 11
34.18600582440349
 21
77.84334978863782
 31
0.0
  0
LINE
  5
4FA
330
1F
100
AcDbEntity
  8
0
100
AcDbLine
 10
34.18600582440349
 20
77.84334978863782
 30
0.0
 11
34.42438375830045
 21
77.5326896168582
 31
0.0
  0
LINE
  5
4FB
330
1F
100
AcDbEntity
  8
0
100
AcDbLine
 10
34.42438375830045
 20
77.5326896168582
 30
0.0
 11
34.57423439205738
 21
77.1709181845119
 31
0.0
  0
LINE
  5
4FC
330
1F
100
AcDbEntity
  8
0
100
AcDbLine
 10
34.57423439205738
 20
77.1709181845119
 30
0.0
 11
34.62534565262371
 21
76.78268961685802
 31
0.0
  0
LINE
  5
4FD
330
1F
100
AcDbEntity
  8
0
100
AcDbLine
 10
31.23711708496978
 20
78.2315783562917
 30
0.0
 11
31.62534565262367
 21
78.28268961685804
 31
0.0
  0
LINE
  5
4FE
330
1F
100
AcDbEntity
  8
0
100
AcDbLine
 10
32.01357422027756
 20
78.2315783562917
 30
0.0
 11
32.3753456526235
 21
78.08172772253478
 31
0.0
  0
LINE
  5
4FF
330
1F
100
AcDbEntity
  8
0
100
AcDbLine
 10
32.3753456526235
 20
78.08172772253478
 30
0.0
 11
32.7371170849698
 21
78.2315783562917
 31
0.0
  0
LINE
  5
500
330
1F
100
AcDbEntity
  8
0
100
AcDbLine
 10
32.7371170849698
 20
78.2315783562917
 30
0.0
 11
33.12534565262369
 21
78.28268961685804
 31
0.0
  0
LINE
  5
501
330
1F
100
AcDbEntity
  8
0
100
AcDbLine
 10
30.87534565262348
 20
78.08172772253478
 30
0.0
 11
31.23711708496978
 21
78.2315783562917
 31
0.0
  0
LINE
  5
502
330
1F
100
AcDbEntity
  8
0
100
AcDbLine
 10
30.56468548084387
 20
77.84334978863782
 30
0.0
 11
30.87534565262348
 21
78.08172772253478
 31
0.0
  0
LINE
  5
503
330
1F
100
AcDbEntity
  8
0
100
AcDbLine
 10
30.32630754694691
 20
77.53268961685785
 30
0.0
 11
30.56468548084387
 21
77.84334978863782
 31
0.0
  0
LINE
  5
504
330
1F
100
AcDbEntity
  8
0
100
AcDbLine
 10
30.17645691318998
 20
77.1709181845119
 30
0.0
 11
30.32630754694691
 21
77.53268961685785
 31
0.0
  0
LINE
  5
505
330
1F
100
AcDbEntity
  8
0
100
AcDbLine
 10
30.12534565262365
 20
76.78268961685802
 30
0.0
 11
30.17645691318998
 21
77.1709181845119
 31
0.0
  0
LINE
  5
506
330
1F
100
AcDbEntity
  8
0
100
AcDbLine
 10
30.17645691318998
 20
76.39446104920412
 30
0.0
 11
30.12534565262365
 21
76.78268961685802
 31
0.0
  0
LINE
  5
507
330
1F
100
AcDbEntity
  8
0
100
AcDbLine
 10
30.32630754694691
 20
76.03268961685782
 30
0.0
 11
30.17645691318998
 21
76.39446104920412
 31
0.0
  0
LINE
  5
508
330
1F
100
AcDbEntity
  8
0
100
AcDbLine
 10
30.56468548084387
 20
75.72202944507822
 30
0.0
 11
30.32630754694691
 21
76.03268961685782
 31
0.0
  0
LINE
  5
509
330
1F
100
AcDbEntity
  8
0
100
AcDbLine
 10
30.87534565262384
 20
75.48365151118125
 30
0.0
 11
30.56468548084387
 21
75.72202944507822
 31
0.0
  0
LINE
  5
50A
330
1F
100
AcDbEntity
  8
0
100
AcDbLine
 10
31.23711708496978
 20
75.33380087742432
 30
0.0
 11
30.87534565262384
 21
75.48365151118125
 31
0.0
  0
LINE
  5
50B
330
1F
100
AcDbEntity
  8
0
100
AcDbLine
 10
31.62534565262367
 20
75.282689616858
 30
0.0
 11
31.23711708496978
 21
75.33380087742432
 31
0.0
  0
LINE
  5
50C
330
1F
100
AcDbEntity
  8
0
100
AcDbLine
 10
32.37534565262386
 20
75.48365151118125
 30
0.0
 11
32.01357422027756
 21
75.33380087742432
 31
0.0
  0
LINE
  5
50D
330
1F
100
AcDbEntity
  8
0
100
AcDbLine
 10
32.7371170849698
 20
75.33380087742432
 30
0.0
 11
32.37534565262386
 21
75.48365151118125
 31
0.0
  0
LINE
  5
50E
330
1F
100
AcDbEntity
  8
0
100
AcDbLine
 10
33.12534565262369
 20
75.282689616858
 30
0.0
 11
32.7371170849698
 21
75.33380087742432
 31
0.0
  0
LINE
  5
50F
330
1F
100
AcDbEntity
  8
0
100
AcDbLine
 10
33.51357422027758
 20
75.33380087742432
 30
0.0
 11
33.12534565262369
 21
75.282689616858
 31
0.0
  0
LINE
  5
510
330
1F
100
AcDbEntity
  8
0
100
AcDbLine
 10
33.87534565262388
 20
75.48365151118125
 30
0.0
 11
33.51357422027758
 21
75.33380087742432
 31
0.0
  0
LINE
  5
511
330
1F
100
AcDbEntity
  8
0
100
AcDbLine
 10
34.18600582440349
 20
75.72202944507822
 30
0.0
 11
33.87534565262388
 21
75.48365151118125
 31
0.0
  0
LINE
  5
512
330
1F
100
AcDbEntity
  8
0
100
AcDbLine
 10
34.42438375830045
 20
76.03268961685819
 30
0.0
 11
34.18600582440349
 21
75.72202944507822
 31
0.0
  0
LINE
  5
513
330
1F
100
AcDbEntity
  8
0
100
AcDbLine
 10
34.57423439205738
 20
76.39446104920412
 30
0.0
 11
34.42438375830045
 21
76.03268961685819
 31
0.0
  0
LINE
  5
514
330
1F
100
AcDbEntity
  8
0
100
AcDbLine
 10
-13.87896207155459
 20
33.10256095749481
 30
0.0
 11
-13.73659952534624
 21
33.44625454732432
 31
0.0
  0
LINE
  5
515
330
1F
100
AcDbEntity
  8
0
100
AcDbLine
 10
-13.92751928490566
 20
32.73373230448033
 30
0.0
 11
-13.87896207155459
 21
33.10256095749481
 31
0.0
  0
LINE
  5
516
330
1F
100
AcDbEntity
  8
0
100
AcDbLine
 10
-13.87896207155459
 20
32.36490365146585
 30
0.0
 11
-13.92751928490566
 21
32.73373230448033
 31
0.0
  0
LINE
  5
517
330
1F
100
AcDbEntity
  8
0
100
AcDbLine
 10
-13.73659952534624
 20
32.02121006163634
 30
0.0
 11
-13.87896207155459
 21
32.36490365146585
 31
0.0
  0
LINE
  5
518
330
1F
100
AcDbEntity
  8
0
100
AcDbLine
 10
-13.51013341854011
 20
31.7260736851579
 30
0.0
 11
-13.73659952534624
 21
32.02121006163634
 31
0.0
  0
LINE
  5
519
330
1F
100
AcDbEntity
  8
0
100
AcDbLine
 10
-13.21499704206167
 20
31.49960757835177
 30
0.0
 11
-13.51013341854011
 21
31.7260736851579
 31
0.0
  0
LINE
  5
51A
330
1F
100
AcDbEntity
  8
0
100
AcDbLine
 10
-12.87130345223216
 20
31.35724503214342
 30
0.0
 11
-13.21499704206167
 21
31.49960757835177
 31
0.0
  0
LINE
  5
51B
330
1F
100
AcDbEntity
  8
0
100
AcDbLine
 10
-12.50247479921768
 20
31.30868781879235
 30
0.0
 11
-12.87130345223216
 21
31.35724503214342
 31
0.0
  0
LINE
  5
51C
330
1F
100
AcDbEntity
  8
0
100
AcDbLine
 10
-12.1336461462032
 20
31.35724503214342
 30
0.0
 11
-12.50247479921768
 21
31.30868781879235
 31
0.0
  0
LINE
  5
51D
330
1F
100
AcDbEntity
  8
0
100
AcDbLine
 10
-11.7899525563737
 20
31.49960757835177
 30
0.0
 11
-12.1336461462032
 21
31.35724503214342
 31
0.0
  0
LINE
  5
51E
330
1F
100
AcDbEntity
  8
0
100
AcDbLine
 10
-11.49481617989525
 20
31.7260736851579
 30
0.0
 11
-11.7899525563737
 21
31.49960757835177
 31
0.0
  0
LINE
  5
51F
330
1F
100
AcDbEntity
  8
0
100
AcDbLine
 10
-11.26835007308913
 20
32.02121006163634
 30
0.0
 11
-11.49481617989525
 21
31.7260736851579
 31
0.0
  0
LINE
  5
520
330
1F
100
AcDbEntity
  8
0
100
AcDbLine
 10
-11.12598752688077
 20
32.36490365146585
 30
0.0
 11
-11.26835007308913
 21
32.02121006163634
 31
0.0
  0
LINE
  5
521
330
1F
100
AcDbEntity
  8
0
100
AcDbLine
 10
-11.07743031352971
 20
32.73373230448033
 30
0.0
 11
-11.12598752688077
 21
32.36490365146585
 31
0.0
  0
LINE
  5
522
330
1F
100
AcDbEntity
  8
0
100
AcDbLine
 10
-11.12598752688077
 20
33.10256095749481
 30
0.0
 11
-11.07743031352971
 21
32.73373230448033
 31
0.0
  0
LINE
  5
523
330
1F
100
AcDbEntity
  8
0
100
AcDbLine
 10
-11.26835007308913
 20
33.44625454732432
 30
0.0
 11
-11.12598752688077
 21
33.10256095749481
 31
0.0
  0
LINE
  5
524
330
1F
100
AcDbEntity
  8
0
100
AcDbLine
 10
-11.49481617989525
 20
33.74139092380276
 30
0.0
 11
-11.26835007308913
 21
33.44625454732432
 31
0.0
  0
LINE
  5
525
330
1F
100
AcDbEntity
  8
0
100
AcDbLine
 10
-11.7899525563737
 20
33.96785703060888
 30
0.0
 11
-11.49481617989525
 21
33.74139092380276
 31
0.0
  0
LINE
  5
526
330
1F
100
AcDbEntity
  8
0
100
AcDbLine
 10
-12.1336461462032
 20
34.11021957681724
 30
0.0
 11
-11.7899525563737
 21
33.96785703060888
 31
0.0
  0
LINE
  5
527
330
1F
100
AcDbEntity
  8
0
100
AcDbLine
 10
-12.50247479921768
 20
34.1587767901683
 30
0.0
 11
-12.1336461462032
 21
34.11021957681724
 31
0.0
  0
LINE
  5
528
330
1F
100
AcDbEntity
  8
0
100
AcDbLine
 10
-12.87130345223216
 20
34.11021957681724
 30
0.0
 11
-12.50247479921768
 21
34.1587767901683
 31
0.0
  0
LINE
  5
529
330
1F
100
AcDbEntity
  8
0
100
AcDbLine
 10
-13.21499704206167
 20
33.96785703060888
 30
0.0
 11
-12.87130345223216
 21
34.11021957681724
 31
0.0
  0
LINE
  5
52A
330
1F
100
AcDbEntity
  8
0
100
AcDbLine
 10
-13.51013341854011
 20
33.74139092380276
 30
0.0
 11
-13.21499704206167
 21
33.96785703060888
 31
0.0
  0
LINE
  5
52B
330
1F
100
AcDbEntity
  8
0
100
AcDbLine
 10
-13.73659952534624
 20
33.44625454732432
 30
0.0
 11
-13.51013341854011
 21
33.74139092380276
 31
0.0
  0
LINE
  5
52C
330
1F
100
AcDbEntity
  8
0
100
AcDbLine
 10
34.62534565262371
 20
76.78268961685802
 30
0.0
 11
34.57423439205738
 21
76.39446104920412
 31
0.0
  0
LINE
  5
52D
330
1F
100
AcDbEntity
  8
0
100
AcDbLine
 10
41.87534565262351
 20
70.0817277225348
 30
0.0
 11
42.18600582440348
 21
69.84334978863784
 31
0.0
  0
LINE
  5
52E
330
1F
100
AcDbEntity
  8
0
100
AcDbLine
 10
41.51357422027757
 20
70.23157835629172
 30
0.0
 11
41.87534565262351
 21
70.0817277225348
 31
0.0
  0
LINE
  5
52F
330
1F
100
AcDbEntity
  8
0
100
AcDbLine
 10
42.18600582440348
 20
69.84334978863784
 30
0.0
 11
42.42438375830044
 21
69.53268961685822
 31
0.0
  0
LINE
  5
530
330
1F
100
AcDbEntity
  8
0
100
AcDbLine
 10
42.18600582440348
 20
66.2220294450782
 30
0.0
 11
41.87534565262386
 21
65.98365151118125
 31
0.0
  0
LINE
  5
531
330
1F
100
AcDbEntity
  8
0
100
AcDbLine
 10
41.87534565262386
 20
65.98365151118125
 30
0.0
 11
41.51357422027757
 21
65.83380087742432
 31
0.0
  0
LINE
  5
532
330
1F
100
AcDbEntity
  8
0
100
AcDbLine
 10
41.12534565262368
 20
70.28268961685805
 30
0.0
 11
41.51357422027757
 21
70.23157835629172
 31
0.0
  0
LINE
  5
533
330
1F
100
AcDbEntity
  8
0
100
AcDbLine
 10
40.73711708496978
 20
70.23157835629172
 30
0.0
 11
41.12534565262368
 21
70.28268961685805
 31
0.0
  0
LINE
  5
534
330
1F
100
AcDbEntity
  8
0
100
AcDbLine
 10
41.12534565262368
 20
72.78268961685784
 30
0.0
 11
40.09006947221354
 21
72.9189863117015
 31
0.0
  0
LINE
  5
535
330
1F
100
AcDbEntity
  8
0
100
AcDbLine
 10
40.09006947221354
 20
72.9189863117015
 30
0.0
 11
39.12534565262377
 21
73.3185880017201
 31
0.0
  0
LINE
  5
536
330
1F
100
AcDbEntity
  8
0
100
AcDbLine
 10
39.12534565262377
 20
73.3185880017201
 30
0.0
 11
38.2969185278773
 21
73.95426249211164
 31
0.0
  0
LINE
  5
537
330
1F
100
AcDbEntity
  8
0
100
AcDbLine
 10
38.2969185278773
 20
73.95426249211164
 30
0.0
 11
37.66124403748576
 21
74.78268961685775
 31
0.0
  0
LINE
  5
538
330
1F
100
AcDbEntity
  8
0
100
AcDbLine
 10
37.66124403748576
 20
74.78268961685775
 30
0.0
 11
37.26164234746716
 21
75.74741343644789
 31
0.0
  0
LINE
  5
539
330
1F
100
AcDbEntity
  8
0
100
AcDbLine
 10
37.26164234746716
 20
75.74741343644789
 30
0.0
 11
37.1253456526235
 21
76.78268961685802
 31
0.0
  0
LINE
  5
53A
330
1F
100
AcDbEntity
  8
0
100
AcDbLine
 10
37.1253456526235
 20
76.78268961685802
 30
0.0
 11
37.26164234746716
 21
77.81796579726816
 31
0.0
  0
LINE
  5
53B
330
1F
100
AcDbEntity
  8
0
100
AcDbLine
 10
37.26164234746716
 20
77.81796579726816
 30
0.0
 11
37.66124403748576
 21
78.78268961685792
 31
0.0
  0
LINE
  5
53C
330
1F
100
AcDbEntity
  8
0
100
AcDbLine
 10
37.66124403748576
 20
78.78268961685792
 30
0.0
 11
38.2969185278773
 21
79.61111674160439
 31
0.0
  0
LINE
  5
53D
330
1F
100
AcDbEntity
  8
0
100
AcDbLine
 10
38.2969185278773
 20
79.61111674160439
 30
0.0
 11
39.12534565262341
 21
80.24679123199593
 31
0.0
  0
LINE
  5
53E
330
1F
100
AcDbEntity
  8
0
100
AcDbLine
 10
39.12534565262341
 20
80.24679123199593
 30
0.0
 11
40.09006947221354
 21
80.64639292201453
 31
0.0
  0
LINE
  5
53F
330
1F
100
AcDbEntity
  8
0
100
AcDbLine
 10
40.09006947221354
 20
80.64639292201453
 30
0.0
 11
41.12534565262368
 21
80.78268961685819
 31
0.0
  0
LINE
  5
540
330
1F
100
AcDbEntity
  8
0
100
AcDbLine
 10
41.12534565262368
 20
80.78268961685819
 30
0.0
 11
42.16062183303382
 21
80.64639292201453
 31
0.0
  0
LINE
  5
541
330
1F
100
AcDbEntity
  8
0
100
AcDbLine
 10
42.16062183303382
 20
80.64639292201453
 30
0.0
 11
43.12534565262358
 21
80.24679123199593
 31
0.0
  0
LINE
  5
542
330
1F
100
AcDbEntity
  8
0
100
AcDbLine
 10
43.12534565262358
 20
80.24679123199593
 30
0.0
 11
43.95377277737006
 21
79.61111674160439
 31
0.0
  0
LINE
  5
543
330
1F
100
AcDbEntity
  8
0
100
AcDbLine
 10
43.95377277737006
 20
79.61111674160439
 30
0.0
 11
44.58944726776159
 21
78.78268961685828
 31
0.0
  0
LINE
  5
544
330
1F
100
AcDbEntity
  8
0
100
AcDbLine
 10
44.58944726776159
 20
78.78268961685828
 30
0.0
 11
44.98904895778019
 21
77.81796579726816
 31
0.0
  0
LINE
  5
545
330
1F
100
AcDbEntity
  8
0
100
AcDbLine
 10
44.98904895778019
 20
77.81796579726816
 30
0.0
 11
45.12534565262385
 21
76.78268961685802
 31
0.0
  0
LINE
  5
546
330
1F
100
AcDbEntity
  8
0
100
AcDbLine
 10
45.12534565262385
 20
76.78268961685802
 30
0.0
 11
44.98904895778019
 21
75.74741343644789
 31
0.0
  0
LINE
  5
547
330
1F
100
AcDbEntity
  8
0
100
AcDbLine
 10
44.98904895778019
 20
75.74741343644789
 30
0.0
 11
44.58944726776159
 21
74.78268961685811
 31
0.0
  0
LINE
  5
548
330
1F
100
AcDbEntity
  8
0
100
AcDbLine
 10
44.58944726776159
 20
74.78268961685811
 30
0.0
 11
43.95377277737006
 21
73.95426249211164
 31
0.0
  0
LINE
  5
549
330
1F
100
AcDbEntity
  8
0
100
AcDbLine
 10
43.95377277737006
 20
73.95426249211164
 30
0.0
 11
43.12534565262394
 21
73.3185880017201
 31
0.0
  0
LINE
  5
54A
330
1F
100
AcDbEntity
  8
0
100
AcDbLine
 10
43.12534565262394
 20
73.3185880017201
 30
0.0
 11
42.16062183303382
 21
72.9189863117015
 31
0.0
  0
LINE
  5
54B
330
1F
100
AcDbEntity
  8
0
100
AcDbLine
 10
42.16062183303382
 20
72.9189863117015
 30
0.0
 11
41.12534565262368
 21
72.78268961685784
 31
0.0
  0
LINE
  5
54C
330
1F
100
AcDbEntity
  8
0
100
AcDbLine
 10
52.1253456526237
 20
76.78268961685802
 30
0.0
 11
52.07423439205737
 21
76.39446104920412
 31
0.0
  0
LINE
  5
54D
330
1F
100
AcDbEntity
  8
0
100
AcDbLine
 10
52.07423439205737
 20
76.39446104920412
 30
0.0
 11
51.92438375830044
 21
76.03268961685819
 31
0.0
  0
LINE
  5
54E
330
1F
100
AcDbEntity
  8
0
100
AcDbLine
 10
51.92438375830044
 20
76.03268961685819
 30
0.0
 11
51.68600582440348
 21
75.72202944507822
 31
0.0
  0
LINE
  5
54F
330
1F
100
AcDbEntity
  8
0
100
AcDbLine
 10
51.68600582440348
 20
75.72202944507822
 30
0.0
 11
51.37534565262387
 21
75.48365151118125
 31
0.0
  0
LINE
  5
550
330
1F
100
AcDbEntity
  8
0
100
AcDbLine
 10
51.37534565262387
 20
75.48365151118125
 30
0.0
 11
51.01357422027757
 21
75.33380087742432
 31
0.0
  0
LINE
  5
551
330
1F
100
AcDbEntity
  8
0
100
AcDbLine
 10
51.01357422027757
 20
75.33380087742432
 30
0.0
 11
50.62534565262368
 21
75.282689616858
 31
0.0
  0
LINE
  5
552
330
1F
100
AcDbEntity
  8
0
100
AcDbLine
 10
50.23711708496979
 20
75.33380087742432
 30
0.0
 11
49.87534565262385
 21
75.48365151118125
 31
0.0
  0
LINE
  5
553
330
1F
100
AcDbEntity
  8
0
100
AcDbLine
 10
49.87534565262385
 20
75.48365151118125
 30
0.0
 11
49.51357422027755
 21
75.33380087742432
 31
0.0
  0
LINE
  5
554
330
1F
100
AcDbEntity
  8
0
100
AcDbLine
 10
49.51357422027755
 20
75.33380087742432
 30
0.0
 11
49.12534565262366
 21
75.282689616858
 31
0.0
  0
LINE
  5
555
330
1F
100
AcDbEntity
  8
0
100
AcDbLine
 10
49.12534565262366
 20
75.282689616858
 30
0.0
 11
48.73711708496977
 21
75.33380087742432
 31
0.0
  0
LINE
  5
556
330
1F
100
AcDbEntity
  8
0
100
AcDbLine
 10
48.73711708496977
 20
75.33380087742432
 30
0.0
 11
48.37534565262384
 21
75.48365151118125
 31
0.0
  0
LINE
  5
557
330
1F
100
AcDbEntity
  8
0
100
AcDbLine
 10
48.37534565262384
 20
75.48365151118125
 30
0.0
 11
48.06468548084386
 21
75.72202944507822
 31
0.0
  0
LINE
  5
558
330
1F
100
AcDbEntity
  8
0
100
AcDbLine
 10
48.06468548084386
 20
75.72202944507822
 30
0.0
 11
47.8263075469469
 21
76.03268961685782
 31
0.0
  0
LINE
  5
559
330
1F
100
AcDbEntity
  8
0
100
AcDbLine
 10
47.8263075469469
 20
76.03268961685782
 30
0.0
 11
47.67645691318997
 21
76.39446104920412
 31
0.0
  0
LINE
  5
55A
330
1F
100
AcDbEntity
  8
0
100
AcDbLine
 10
47.67645691318997
 20
76.39446104920412
 30
0.0
 11
47.62534565262364
 21
76.78268961685802
 31
0.0
  0
LINE
  5
55B
330
1F
100
AcDbEntity
  8
0
100
AcDbLine
 10
47.62534565262364
 20
76.78268961685802
 30
0.0
 11
47.67645691318997
 21
77.1709181845119
 31
0.0
  0
LINE
  5
55C
330
1F
100
AcDbEntity
  8
0
100
AcDbLine
 10
47.67645691318997
 20
77.1709181845119
 30
0.0
 11
47.8263075469469
 21
77.53268961685785
 31
0.0
  0
LINE
  5
55D
330
1F
100
AcDbEntity
  8
0
100
AcDbLine
 10
47.8263075469469
 20
77.53268961685785
 30
0.0
 11
48.06468548084386
 21
77.84334978863782
 31
0.0
  0
LINE
  5
55E
330
1F
100
AcDbEntity
  8
0
100
AcDbLine
 10
48.06468548084386
 20
77.84334978863782
 30
0.0
 11
48.37534565262347
 21
78.08172772253478
 31
0.0
  0
LINE
  5
55F
330
1F
100
AcDbEntity
  8
0
100
AcDbLine
 10
48.37534565262347
 20
78.08172772253478
 30
0.0
 11
48.73711708496977
 21
78.2315783562917
 31
0.0
  0
LINE
  5
560
330
1F
100
AcDbEntity
  8
0
100
AcDbLine
 10
48.73711708496977
 20
78.2315783562917
 30
0.0
 11
49.12534565262366
 21
78.28268961685804
 31
0.0
  0
LINE
  5
561
330
1F
100
AcDbEntity
  8
0
100
AcDbLine
 10
49.12534565262366
 20
78.28268961685804
 30
0.0
 11
49.51357422027755
 21
78.2315783562917
 31
0.0
  0
LINE
  5
562
330
1F
100
AcDbEntity
  8
0
100
AcDbLine
 10
49.51357422027755
 20
78.2315783562917
 30
0.0
 11
49.87534565262349
 21
78.08172772253478
 31
0.0
  0
LINE
  5
563
330
1F
100
AcDbEntity
  8
0
100
AcDbLine
 10
49.87534565262349
 20
78.08172772253478
 30
0.0
 11
50.23711708496979
 21
78.2315783562917
 31
0.0
  0
LINE
  5
564
330
1F
100
AcDbEntity
  8
0
100
AcDbLine
 10
50.62534565262368
 20
78.28268961685804
 30
0.0
 11
51.01357422027757
 21
78.2315783562917
 31
0.0
  0
LINE
  5
565
330
1F
100
AcDbEntity
  8
0
100
AcDbLine
 10
51.01357422027757
 20
78.2315783562917
 30
0.0
 11
51.37534565262351
 21
78.08172772253478
 31
0.0
  0
LINE
  5
566
330
1F
100
AcDbEntity
  8
0
100
AcDbLine
 10
51.37534565262351
 20
78.08172772253478
 30
0.0
 11
51.68600582440348
 21
77.84334978863782
 31
0.0
  0
LINE
  5
567
330
1F
100
AcDbEntity
  8
0
100
AcDbLine
 10
51.68600582440348
 20
77.84334978863782
 30
0.0
 11
51.92438375830044
 21
77.5326896168582
 31
0.0
  0
LINE
  5
568
330
1F
100
AcDbEntity
  8
0
100
AcDbLine
 10
51.92438375830044
 20
77.5326896168582
 30
0.0
 11
52.07423439205737
 21
77.1709181845119
 31
0.0
  0
LINE
  5
569
330
1F
100
AcDbEntity
  8
0
100
AcDbLine
 10
52.07423439205737
 20
77.1709181845119
 30
0.0
 11
52.1253456526237
 21
76.78268961685802
 31
0.0
  0
LINE
  5
56A
330
1F
100
AcDbEntity
  8
0
100
AcDbLine
 10
41.12534565262368
 20
87.78268961685804
 30
0.0
 11
41.51357422027757
 21
87.73157835629172
 31
0.0
  0
LINE
  5
56B
330
1F
100
AcDbEntity
  8
0
100
AcDbLine
 10
41.51357422027757
 20
87.73157835629172
 30
0.0
 11
41.87534565262351
 21
87.58172772253478
 31
0.0
  0
LINE
  5
56C
330
1F
100
AcDbEntity
  8
0
100
AcDbLine
 10
41.87534565262351
 20
87.58172772253478
 30
0.0
 11
42.18600582440348
 21
87.34334978863782
 31
0.0
  0
LINE
  5
56D
330
1F
100
AcDbEntity
  8
0
100
AcDbLine
 10
42.18600582440348
 20
87.34334978863782
 30
0.0
 11
42.42438375830044
 21
87.0326896168582
 31
0.0
  0
LINE
  5
56E
330
1F
100
AcDbEntity
  8
0
100
AcDbLine
 10
42.42438375830044
 20
87.0326896168582
 30
0.0
 11
42.57423439205737
 21
86.67091818451192
 31
0.0
  0
LINE
  5
56F
330
1F
100
AcDbEntity
  8
0
100
AcDbLine
 10
42.57423439205737
 20
86.67091818451192
 30
0.0
 11
42.62534565262369
 21
86.28268961685802
 31
0.0
  0
LINE
  5
570
330
1F
100
AcDbEntity
  8
0
100
AcDbLine
 10
42.57423439205737
 20
85.89446104920412
 30
0.0
 11
42.42438375830044
 21
85.53268961685819
 31
0.0
  0
LINE
  5
571
330
1F
100
AcDbEntity
  8
0
100
AcDbLine
 10
42.42438375830044
 20
85.53268961685819
 30
0.0
 11
42.57423439205737
 21
85.17091818451189
 31
0.0
  0
LINE
  5
572
330
1F
100
AcDbEntity
  8
0
100
AcDbLine
 10
42.57423439205737
 20
85.17091818451189
 30
0.0
 11
42.62534565262369
 21
84.78268961685801
 31
0.0
  0
LINE
  5
573
330
1F
100
AcDbEntity
  8
0
100
AcDbLine
 10
42.62534565262369
 20
84.78268961685801
 30
0.0
 11
42.57423439205737
 21
84.39446104920411
 31
0.0
  0
LINE
  5
574
330
1F
100
AcDbEntity
  8
0
100
AcDbLine
 10
42.57423439205737
 20
84.39446104920411
 30
0.0
 11
42.42438375830044
 21
84.03268961685818
 31
0.0
  0
LINE
  5
575
330
1F
100
AcDbEntity
  8
0
100
AcDbLine
 10
42.42438375830044
 20
84.03268961685818
 30
0.0
 11
42.18600582440348
 21
83.7220294450782
 31
0.0
  0
LINE
  5
576
330
1F
100
AcDbEntity
  8
0
100
AcDbLine
 10
42.18600582440348
 20
83.7220294450782
 30
0.0
 11
41.87534565262386
 21
83.48365151118124
 31
0.0
  0
LINE
  5
577
330
1F
100
AcDbEntity
  8
0
100
AcDbLine
 10
41.87534565262386
 20
83.48365151118124
 30
0.0
 11
41.51357422027757
 21
83.33380087742431
 31
0.0
  0
LINE
  5
578
330
1F
100
AcDbEntity
  8
0
100
AcDbLine
 10
41.51357422027757
 20
83.33380087742431
 30
0.0
 11
41.12534565262368
 21
83.28268961685798
 31
0.0
  0
LINE
  5
579
330
1F
100
AcDbEntity
  8
0
100
AcDbLine
 10
41.12534565262368
 20
83.28268961685798
 30
0.0
 11
40.73711708496978
 21
83.33380087742431
 31
0.0
  0
LINE
  5
57A
330
1F
100
AcDbEntity
  8
0
100
AcDbLine
 10
40.73711708496978
 20
83.33380087742431
 30
0.0
 11
40.37534565262385
 21
83.48365151118124
 31
0.0
  0
LINE
  5
57B
330
1F
100
AcDbEntity
  8
0
100
AcDbLine
 10
40.37534565262385
 20
83.48365151118124
 30
0.0
 11
40.06468548084388
 21
83.7220294450782
 31
0.0
  0
LINE
  5
57C
330
1F
100
AcDbEntity
  8
0
100
AcDbLine
 10
40.06468548084388
 20
83.7220294450782
 30
0.0
 11
39.82630754694691
 21
84.03268961685781
 31
0.0
  0
LINE
  5
57D
330
1F
100
AcDbEntity
  8
0
100
AcDbLine
 10
39.82630754694691
 20
84.03268961685781
 30
0.0
 11
39.67645691318998
 21
84.39446104920411
 31
0.0
  0
LINE
  5
57E
330
1F
100
AcDbEntity
  8
0
100
AcDbLine
 10
39.67645691318998
 20
84.39446104920411
 30
0.0
 11
39.62534565262366
 21
84.78268961685801
 31
0.0
  0
LINE
  5
57F
330
1F
100
AcDbEntity
  8
0
100
AcDbLine
 10
39.62534565262366
 20
84.78268961685801
 30
0.0
 11
39.67645691318998
 21
85.17091818451189
 31
0.0
  0
LINE
  5
580
330
1F
100
AcDbEntity
  8
0
100
AcDbLine
 10
39.67645691318998
 20
85.17091818451189
 30
0.0
 11
39.82630754694691
 21
85.53268961685784
 31
0.0
  0
LINE
  5
581
330
1F
100
AcDbEntity
  8
0
100
AcDbLine
 10
39.82630754694691
 20
66.53268961685782
 30
0.0
 11
39.67645691318998
 21
66.89446104920412
 31
0.0
  0
LINE
  5
582
330
1F
100
AcDbEntity
  8
0
100
AcDbLine
 10
40.06468548084388
 20
66.2220294450782
 30
0.0
 11
39.82630754694691
 21
66.53268961685782
 31
0.0
  0
LINE
  5
583
330
1F
100
AcDbEntity
  8
0
100
AcDbLine
 10
40.37534565262385
 20
65.98365151118125
 30
0.0
 11
40.06468548084388
 21
66.2220294450782
 31
0.0
  0
LINE
  5
584
330
1F
100
AcDbEntity
  8
0
100
AcDbLine
 10
40.73711708496978
 20
65.83380087742432
 30
0.0
 11
40.37534565262385
 21
65.98365151118125
 31
0.0
  0
LINE
  5
585
330
1F
100
AcDbEntity
  8
0
100
AcDbLine
 10
41.12534565262368
 20
65.782689616858
 30
0.0
 11
40.73711708496978
 21
65.83380087742432
 31
0.0
  0
LINE
  5
586
330
1F
100
AcDbEntity
  8
0
100
AcDbLine
 10
41.51357422027757
 20
65.83380087742432
 30
0.0
 11
41.12534565262368
 21
65.782689616858
 31
0.0
  0
LINE
  5
587
330
1F
100
AcDbEntity
  8
0
100
AcDbLine
 10
39.82630754694691
 20
85.53268961685784
 30
0.0
 11
39.67645691318998
 21
85.89446104920412
 31
0.0
  0
LINE
  5
588
330
1F
100
AcDbEntity
  8
0
100
AcDbLine
 10
39.62534565262366
 20
86.28268961685802
 30
0.0
 11
39.67645691318998
 21
86.67091818451192
 31
0.0
  0
LINE
  5
589
330
1F
100
AcDbEntity
  8
0
100
AcDbLine
 10
39.67645691318998
 20
86.67091818451192
 30
0.0
 11
39.82630754694691
 21
87.03268961685785
 31
0.0
  0
LINE
  5
58A
330
1F
100
AcDbEntity
  8
0
100
AcDbLine
 10
39.82630754694691
 20
87.03268961685785
 30
0.0
 11
40.06468548084388
 21
87.34334978863782
 31
0.0
  0
LINE
  5
58B
330
1F
100
AcDbEntity
  8
0
100
AcDbLine
 10
40.06468548084388
 20
87.34334978863782
 30
0.0
 11
40.37534565262349
 21
87.58172772253478
 31
0.0
  0
LINE
  5
58C
330
1F
100
AcDbEntity
  8
0
100
AcDbLine
 10
40.37534565262349
 20
87.58172772253478
 30
0.0
 11
40.73711708496978
 21
87.73157835629172
 31
0.0
  0
LINE
  5
58D
330
1F
100
AcDbEntity
  8
0
100
AcDbLine
 10
40.73711708496978
 20
87.73157835629172
 30
0.0
 11
41.12534565262368
 21
87.78268961685804
 31
0.0
  0
LINE
  5
58E
330
1F
100
AcDbEntity
  8
0
100
AcDbLine
 10
27.93999354524592
 20
63.57693001922988
 30
0.0
 11
27.70171413385043
 21
63.88766576516876
 31
0.0
  0
LINE
  5
58F
330
1F
100
AcDbEntity
  8
0
100
AcDbLine
 10
27.70171413385043
 20
63.88766576516876
 30
0.0
 11
27.55197822555387
 21
64.24948469704746
 31
0.0
  0
LINE
  5
590
330
1F
100
AcDbEntity
  8
0
100
AcDbLine
 10
27.55197822555387
 20
64.24948469704746
 30
0.0
 11
27.50099007505597
 21
64.63772945259215
 31
0.0
  0
LINE
  5
591
330
1F
100
AcDbEntity
  8
0
100
AcDbLine
 10
27.50099007505597
 20
64.63772945259215
 30
0.0
 11
27.5522244405518
 21
65.02594179331751
 31
0.0
  0
LINE
  5
592
330
1F
100
AcDbEntity
  8
0
100
AcDbLine
 10
27.5522244405518
 20
65.02594179331751
 30
0.0
 11
27.70218978470101
 21
65.3876656897543
 31
0.0
  0
LINE
  5
593
330
1F
100
AcDbEntity
  8
0
100
AcDbLine
 10
27.70218978470101
 20
65.3876656897543
 30
0.0
 11
27.94066621712981
 21
65.69825025613717
 31
0.0
  0
LINE
  5
594
330
1F
100
AcDbEntity
  8
0
100
AcDbLine
 10
27.94066621712981
 20
65.69825025613717
 30
0.0
 11
28.2514019630687
 21
65.93652966753267
 31
0.0
  0
LINE
  5
595
330
1F
100
AcDbEntity
  8
0
100
AcDbLine
 10
28.2514019630687
 20
65.93652966753267
 30
0.0
 11
28.6132208949474
 21
66.08626557582922
 31
0.0
  0
LINE
  5
596
330
1F
100
AcDbEntity
  8
0
100
AcDbLine
 10
28.6132208949474
 20
66.08626557582922
 30
0.0
 11
29.0014656504921
 21
66.13725372632712
 31
0.0
  0
LINE
  5
597
330
1F
100
AcDbEntity
  8
0
100
AcDbLine
 10
29.0014656504921
 20
66.13725372632712
 30
0.0
 11
29.38967799121746
 21
66.08601936083129
 31
0.0
  0
LINE
  5
598
330
1F
100
AcDbEntity
  8
0
100
AcDbLine
 10
29.38967799121746
 20
66.08601936083129
 30
0.0
 11
29.75140188765425
 21
65.93605401668208
 31
0.0
  0
LINE
  5
599
330
1F
100
AcDbEntity
  8
0
100
AcDbLine
 10
29.75140188765425
 20
65.93605401668208
 30
0.0
 11
30.06198645403711
 21
65.69757758425328
 31
0.0
  0
LINE
  5
59A
330
1F
100
AcDbEntity
  8
0
100
AcDbLine
 10
30.06198645403711
 20
65.69757758425328
 30
0.0
 11
30.3002658654326
 21
65.3868418383144
 31
0.0
  0
LINE
  5
59B
330
1F
100
AcDbEntity
  8
0
100
AcDbLine
 10
30.3002658654326
 20
65.3868418383144
 30
0.0
 11
30.45000177372916
 21
65.0250229064357
 31
0.0
  0
LINE
  5
59C
330
1F
100
AcDbEntity
  8
0
100
AcDbLine
 10
30.45000177372916
 20
65.0250229064357
 30
0.0
 11
30.50098992422706
 21
64.63677815089099
 31
0.0
  0
LINE
  5
59D
330
1F
100
AcDbEntity
  8
0
100
AcDbLine
 10
30.50098992422706
 20
64.63677815089099
 30
0.0
 11
30.44975555873123
 21
64.24856581016563
 31
0.0
  0
LINE
  5
59E
330
1F
100
AcDbEntity
  8
0
100
AcDbLine
 10
30.44975555873123
 20
64.24856581016563
 30
0.0
 11
30.29979021458202
 21
63.88684191372885
 31
0.0
  0
LINE
  5
59F
330
1F
100
AcDbEntity
  8
0
100
AcDbLine
 10
30.29979021458202
 20
63.88684191372885
 30
0.0
 11
30.06131378215322
 21
63.57625734734598
 31
0.0
  0
LINE
  5
5A0
330
1F
100
AcDbEntity
  8
0
100
AcDbLine
 10
30.06131378215322
 20
63.57625734734598
 30
0.0
 11
29.75057803621433
 21
63.33797793595049
 31
0.0
  0
LINE
  5
5A1
330
1F
100
AcDbEntity
  8
0
100
AcDbLine
 10
39.62534565262366
 20
68.78268961685804
 30
0.0
 11
39.67645691318998
 21
69.17091818451192
 31
0.0
  0
LINE
  5
5A2
330
1F
100
AcDbEntity
  8
0
100
AcDbLine
 10
39.67645691318998
 20
69.17091818451192
 30
0.0
 11
39.82630754694691
 21
69.53268961685787
 31
0.0
  0
LINE
  5
5A3
330
1F
100
AcDbEntity
  8
0
100
AcDbLine
 10
39.82630754694691
 20
69.53268961685787
 30
0.0
 11
40.06468548084388
 21
69.84334978863784
 31
0.0
  0
LINE
  5
5A4
330
1F
100
AcDbEntity
  8
0
100
AcDbLine
 10
40.06468548084388
 20
69.84334978863784
 30
0.0
 11
40.37534565262349
 21
70.0817277225348
 31
0.0
  0
LINE
  5
5A5
330
1F
100
AcDbEntity
  8
0
100
AcDbLine
 10
39.67645691318998
 20
66.89446104920412
 30
0.0
 11
39.62534565262366
 21
67.28268961685801
 31
0.0
  0
LINE
  5
5A6
330
1F
100
AcDbEntity
  8
0
100
AcDbLine
 10
39.67645691318998
 20
67.6709181845119
 30
0.0
 11
39.82630754694691
 21
68.03268961685784
 31
0.0
  0
LINE
  5
5A7
330
1F
100
AcDbEntity
  8
0
100
AcDbLine
 10
39.82630754694691
 20
68.03268961685784
 30
0.0
 11
39.67645691318998
 21
68.39446104920414
 31
0.0
  0
LINE
  5
5A8
330
1F
100
AcDbEntity
  8
0
100
AcDbLine
 10
39.67645691318998
 20
68.39446104920414
 30
0.0
 11
39.62534565262366
 21
68.78268961685804
 31
0.0
  0
LINE
  5
5A9
330
1F
100
AcDbEntity
  8
0
100
AcDbLine
 10
29.75057803621433
 20
63.33797793595049
 30
0.0
 11
29.38875910433563
 21
63.18824202765393
 31
0.0
  0
LINE
  5
5AA
330
1F
100
AcDbEntity
  8
0
100
AcDbLine
 10
29.38875910433563
 20
63.18824202765393
 30
0.0
 11
29.00051434879094
 21
63.13725387715603
 31
0.0
  0
LINE
  5
5AB
330
1F
100
AcDbEntity
  8
0
100
AcDbLine
 10
40.37534565262349
 20
70.0817277225348
 30
0.0
 11
40.73711708496978
 21
70.23157835629172
 31
0.0
  0
LINE
  5
5AC
330
1F
100
AcDbEntity
  8
0
100
AcDbLine
 10
39.67645691318998
 20
-50.10553895079598
 30
0.0
 11
39.62534565262366
 21
-49.71731038314209
 31
0.0
  0
LINE
  5
5AD
330
1F
100
AcDbEntity
  8
0
100
AcDbLine
 10
-96.32354308681013
 20
-68.32908181548821
 30
0.0
 11
-96.37465434737645
 21
-68.7173103831421
 31
0.0
  0
LINE
  5
5AE
330
1F
100
AcDbEntity
  8
0
100
AcDbLine
 10
-93.37465434737642
 20
-68.7173103831421
 30
0.0
 11
-93.42576560794274
 21
-68.32908181548821
 31
0.0
  0
LINE
  5
5AF
330
1F
100
AcDbEntity
  8
0
100
AcDbLine
 10
-103.9864257797226
 20
-57.7684216437084
 30
0.0
 11
-104.3746543473764
 21
-57.71731038314208
 31
0.0
  0
LINE
  5
5B0
330
1F
100
AcDbEntity
  8
0
100
AcDbLine
 10
50.62534565262368
 20
-57.71731038314208
 30
0.0
 11
50.23711708496979
 21
-57.7684216437084
 31
0.0
  0
LINE
  5
5B1
330
1F
100
AcDbEntity
  8
0
100
AcDbLine
 10
-85.76288291503032
 20
-60.66619912257579
 30
0.0
 11
-85.37465434737643
 21
-60.71731038314211
 31
0.0
  0
LINE
  5
5B2
330
1F
100
AcDbEntity
  8
0
100
AcDbLine
 10
50.23711708496979
 20
-60.66619912257579
 30
0.0
 11
50.62534565262368
 21
-60.71731038314211
 31
0.0
  0
LINE
  5
5B3
330
1F
100
AcDbEntity
  8
0
100
AcDbLine
 10
-103.9864257797226
 20
-60.66619912257579
 30
0.0
 11
-104.3746543473764
 21
-60.71731038314211
 31
0.0
  0
LINE
  5
5B4
330
1F
100
AcDbEntity
  8
0
100
AcDbLine
 10
-96.37465434737645
 20
-49.71731038314209
 30
0.0
 11
-96.32354308681013
 21
-50.10553895079598
 31
0.0
  0
LINE
  5
5B5
330
1F
100
AcDbEntity
  8
0
100
AcDbLine
 10
42.62534565262369
 20
-68.7173103831421
 30
0.0
 11
42.57423439205737
 21
-68.32908181548821
 31
0.0
  0
LINE
  5
5B6
330
1F
100
AcDbEntity
  8
0
100
AcDbLine
 10
-85.37465434737643
 20
-57.71731038314208
 30
0.0
 11
-85.76288291503032
 21
-57.7684216437084
 31
0.0
  0
LINE
  5
5B7
330
1F
100
AcDbEntity
  8
0
100
AcDbLine
 10
32.01357422027756
 20
-57.7684216437084
 30
0.0
 11
31.62534565262367
 21
-57.71731038314208
 31
0.0
  0
LINE
  5
5B8
330
1F
100
AcDbEntity
  8
0
100
AcDbLine
 10
31.62534565262367
 20
-60.71731038314211
 30
0.0
 11
32.01357422027756
 21
-60.66619912257579
 31
0.0
  0
LINE
  5
5B9
330
1F
100
AcDbEntity
  8
0
100
AcDbLine
 10
39.62534565262366
 20
-68.7173103831421
 30
0.0
 11
39.67645691318998
 21
-68.32908181548821
 31
0.0
  0
LINE
  5
5BA
330
1F
100
AcDbEntity
  8
0
100
AcDbLine
 10
42.62534565262369
 20
-49.71731038314209
 30
0.0
 11
42.57423439205737
 21
-50.10553895079598
 31
0.0
  0
LINE
  5
5BB
330
1F
100
AcDbEntity
  8
0
100
AcDbLine
 10
-104.3746543473764
 20
78.28268961685804
 30
0.0
 11
-103.9864257797226
 21
78.2315783562917
 31
0.0
  0
LINE
  5
5BC
330
1F
100
AcDbEntity
  8
0
100
AcDbLine
 10
-93.37465434737642
 20
86.28268961685802
 30
0.0
 11
-93.42576560794274
 21
85.89446104920412
 31
0.0
  0
LINE
  5
5BD
330
1F
100
AcDbEntity
  8
0
100
AcDbLine
 10
-96.32354308681013
 20
85.89446104920412
 30
0.0
 11
-96.37465434737645
 21
86.28268961685802
 31
0.0
  0
LINE
  5
5BE
330
1F
100
AcDbEntity
  8
0
100
AcDbLine
 10
-93.37465434737642
 20
-49.71731038314209
 30
0.0
 11
-93.42576560794274
 21
-50.10553895079598
 31
0.0
  0
LINE
  5
5BF
330
1F
100
AcDbEntity
  8
0
100
AcDbLine
 10
-103.9864257797226
 20
75.33380087742432
 30
0.0
 11
-104.3746543473764
 21
75.282689616858
 31
0.0
  0
LINE
  5
5C0
330
1F
100
AcDbEntity
  8
0
100
AcDbLine
 10
-93.42576560794274
 20
67.6709181845119
 30
0.0
 11
-93.37465434737642
 21
67.28268961685801
 31
0.0
  0
LINE
  5
5C1
330
1F
100
AcDbEntity
  8
0
100
AcDbLine
 10
-96.32354308681013
 20
67.6709181845119
 30
0.0
 11
-96.37465434737645
 21
67.28268961685801
 31
0.0
  0
LINE
  5
5C2
330
1F
100
AcDbEntity
  8
0
100
AcDbLine
 10
-85.76288291503032
 20
78.2315783562917
 30
0.0
 11
-85.37465434737643
 21
78.28268961685804
 31
0.0
  0
LINE
  5
5C3
330
1F
100
AcDbEntity
  8
0
100
AcDbLine
 10
-85.76288291503032
 20
75.33380087742432
 30
0.0
 11
-85.37465434737643
 21
75.282689616858
 31
0.0
  0
LINE
  5
5C4
330
1F
100
AcDbEntity
  8
0
100
AcDbLine
 10
42.62534565262369
 20
67.28268961685801
 30
0.0
 11
42.57423439205737
 21
67.6709181845119
 31
0.0
  0
LINE
  5
5C5
330
1F
100
AcDbEntity
  8
0
100
AcDbLine
 10
31.62534565262367
 20
78.28268961685804
 30
0.0
 11
32.01357422027756
 21
78.2315783562917
 31
0.0
  0
LINE
  5
5C6
330
1F
100
AcDbEntity
  8
0
100
AcDbLine
 10
31.62534565262367
 20
75.282689616858
 30
0.0
 11
32.01357422027756
 21
75.33380087742432
 31
0.0
  0
LINE
  5
5C7
330
1F
100
AcDbEntity
  8
0
100
AcDbLine
 10
50.62534565262368
 20
75.282689616858
 30
0.0
 11
50.23711708496979
 21
75.33380087742432
 31
0.0
  0
LINE
  5
5C8
330
1F
100
AcDbEntity
  8
0
100
AcDbLine
 10
50.23711708496979
 20
78.2315783562917
 30
0.0
 11
50.62534565262368
 21
78.28268961685804
 31
0.0
  0
LINE
  5
5C9
330
1F
100
AcDbEntity
  8
0
100
AcDbLine
 10
42.62534565262369
 20
86.28268961685802
 30
0.0
 11
42.57423439205737
 21
85.89446104920412
 31
0.0
  0
LINE
  5
5CA
330
1F
100
AcDbEntity
  8
0
100
AcDbLine
 10
39.67645691318998
 20
85.89446104920412
 30
0.0
 11
39.62534565262366
 21
86.28268961685802
 31
0.0
  0
LINE
  5
5CB
330
1F
100
AcDbEntity
  8
0
100
AcDbLine
 10
39.62534565262366
 20
67.28268961685801
 30
0.0
 11
39.67645691318998
 21
67.6709181845119
 31
0.0
  0
ENDSEC
  0
SECTION
  2
OBJECTS
  0
DICTIONARY
  5
C
330
0
100
AcDbDictionary
281
     1
  3
ACAD_DETAILVIEWSTYLE
350
5D0
  3
ACAD_GROUP
350
D
  3
ACAD_LAYOUT
350
1A
  3
ACAD_MATERIAL
350
43
  3
ACAD_MLEADERSTYLE
350
5CF
  3
ACAD_MLINESTYLE
350
17
  3
ACAD_PLOTSETTINGS
350
19
  3
ACAD_PLOTSTYLENAME
350
E
  3
ACAD_SCALELIST
350
47
  3
ACAD_SECTIONVIEWSTYLE
350
5D1
  3
ACAD_TABLESTYLE
350
5CE
  3
ACAD_VISUALSTYLE
350
2A
  3
AcDbVariableDictionary
350
5CC
  0
SUN
  5
69
330
29
100
AcDbSun
 90
        1
290
     0
 63
     7
421
 16777215
 40
1.0
291
     1
 91
  2455826
 92
 54000000
292
     0
 70
     2
 71
   256
280
     1
  0
DICTIONARY
  5
5D0
102
{ACAD_REACTORS
330
C
102
}
330
C
100
AcDbDictionary
281
     1
  0
DICTIONARY
  5
D
102
{ACAD_REACTORS
330
C
102
}
330
C
100
AcDbDictionary
281
     1
  0
DICTIONARY
  5
1A
102
{ACAD_REACTORS
330
C
102
}
330
C
100
AcDbDictionary
281
     1
  3
Layout1
350
1E
  3
Layout2
350
26
  3
Model
350
22
  0
DICTIONARY
  5
43
102
{ACAD_REACTORS
330
C
102
}
330
C
100
AcDbDictionary
281
     1
  3
ByBlock
350
45
  3
ByLayer
350
44
  3
Global
350
46
  0
DICTIONARY
  5
5CF
102
{ACAD_REACTORS
330
C
102
}
330
C
100
AcDbDictionary
281
     1
  0
DICTIONARY
  5
17
102
{ACAD_REACTORS
330
C
102
}
330
C
100
AcDbDictionary
281
     1
  3
Standard
350
18
  0
DICTIONARY
  5
19
102
{ACAD_REACTORS
330
C
102
}
330
C
100
AcDbDictionary
281
     1
  0
ACDBDICTIONARYWDFLT
  5
E
102
{ACAD_REACTORS
330
C
102
}
330
C
100
AcDbDictionary
281
     1
  3
Normal
350
F
100
AcDbDictionaryWithDefault
340
F
  0
DICTIONARY
  5
47
102
{ACAD_REACTORS
330
C
102
}
330
C
100
AcDbDictionary
281
     1
  3
A0
350
48
  3
A1
350
49
  3
A2
350
4A
  3
A3
350
4B
  3
A4
350
4C
  3
A5
350
4D
  3
A6
350
4E
  3
A7
350
4F
  3
A8
350
50
  3
A9
350
51
  3
B0
350
52
  3
B1
350
53
  3
B2
350
54
  3
B3
350
55
  3
B4
350
56
  3
B5
350
57
  3
B6
350
58
  3
B7
350
59
  3
B8
350
5A
  3
B9
350
5B
  3
C0
350
5C
  3
C1
350
5D
  3
C2
350
5E
  3
C3
350
5F
  3
C4
350
60
  3
C5
350
61
  3
C6
350
62
  3
C7
350
63
  3
C8
350
64
  3
C9
350
65
  3
D0
350
66
  3
D1
350
67
  3
D2
350
68
  0
DICTIONARY
  5
5D1
102
{ACAD_REACTORS
330
C
102
}
330
C
100
AcDbDictionary
281
     1
  0
DICTIONARY
  5
5CE
102
{ACAD_REACTORS
330
C
102
}
330
C
100
AcDbDictionary
281
     1
  0
DICTIONARY
  5
2A
102
{ACAD_REACTORS
330
C
102
}
330
C
100
AcDbDictionary
281
     1
  3
2dWireframe
350
2F
  3
Basic
350
32
  3
Brighten
350
36
  3
ColorChange
350
3A
  3
Conceptual
350
34
  3
Dim
350
35
  3
EdgeColorOff
350
3D
  3
Facepattern
350
39
  3
Flat
350
2B
  3
FlatWithEdges
350
2C
  3
Gouraud
350
2D
  3
GouraudWithEdges
350
2E
  3
Hidden
350
31
  3
JitterOff
350
3B
  3
Linepattern
350
38
  3
OverhangOff
350
3C
  3
Realistic
350
33
  3
Shaded
350
42
  3
Shaded with edges
350
41
  3
Shades of Gray
350
3E
  3
Sketchy
350
3F
  3
Thicken
350
37
  3
Wireframe
350
30
  3
X-Ray
350
40
  0
DICTIONARY
  5
5CC
102
{ACAD_REACTORS
330
C
102
}
330
C
100
AcDbDictionary
281
     1
  3
CANNOSCALE
350
5CD
  0
LAYOUT
  5
1E
102
{ACAD_REACTORS
330
1A
102
}
330
1A
100
AcDbPlotSettings
  1

  2
none_device
  4

  6

 40
0.0
 41
0.0
 42
0.0
 43
0.0
 44
0.0
 45
0.0
 46
0.0
 47
0.0
 48
0.0
 49
0.0
140
0.0
141
0.0
142
1.0
143
1.0
 70
   688
 72
     0
 73
     0
 74
     5
  7

 75
    16
 76
     0
 77
     2
 78
   300
147
1.0
148
0.0
149
0.0
100
AcDbLayout
  1
Layout1
 70
     1
 71
     1
 10
0.0
 20
0.0
 11
12.0
 21
9.0
 12
0.0
 22
0.0
 32
0.0
 14
1.000000000000000E+20
 24
1.000000000000000E+20
 34
1.000000000000000E+20
 15
-1.000000000000000E+20
 25
-1.000000000000000E+20
 35
-1.000000000000000E+20
146
0.0
 13
0.0
 23
0.0
 33
0.0
 16
1.0
 26
0.0
 36
0.0
 17
0.0
 27
1.0
 37
0.0
 76
     0
330
1B
  0
LAYOUT
  5
26
102
{ACAD_REACTORS
330
1A
102
}
330
1A
100
AcDbPlotSettings
  1

  2
none_device
  4

  6

 40
0.0
 41
0.0
 42
0.0
 43
0.0
 44
0.0
 45
0.0
 46
0.0
 47
0.0
 48
0.0
 49
0.0
140
0.0
141
0.0
142
1.0
143
1.0
 70
   688
 72
     0
 73
     0
 74
     5
  7

 75
    16
 76
     0
 77
     2
 78
   300
147
1.0
148
0.0
149
0.0
100
AcDbLayout
  1
Layout2
 70
     1
 71
     2
 10
0.0
 20
0.0
 11
0.0
 21
0.0
 12
0.0
 22
0.0
 32
0.0
 14
0.0
 24
0.0
 34
0.0
 15
0.0
 25
0.0
 35
0.0
146
0.0
 13
0.0
 23
0.0
 33
0.0
 16
1.0
 26
0.0
 36
0.0
 17
0.0
 27
1.0
 37
0.0
 76
     0
330
23
  0
LAYOUT
  5
22
102
{ACAD_REACTORS
330
1A
102
}
330
1A
100
AcDbPlotSettings
  1

  2
none_device
  4
Letter_(8.50_x_11.00_Inches)
  6

 40
6.35
 41
6.35
 42
6.35000508
 43
6.35000508
 44
215.9
 45
279.4
 46
0.0
 47
0.0
 48
0.0
 49
0.0
140
0.0
141
0.0
142
1.0
143
1.0
 70
  1712
 72
     0
 73
     0
 74
     0
  7

 75
     0
 76
     0
 77
     2
 78
   300
147
1.0
148
0.0
149
0.0
100
AcDbLayout
  1
Model
 70
     1
 71
     0
 10
0.0
 20
0.0
 11
12.0
 21
9.0
 12
0.0
 22
0.0
 32
0.0
 14
1.000000000000000E+20
 24
1.000000000000000E+20
 34
1.000000000000000E+20
 15
-1.000000000000000E+20
 25
-1.000000000000000E+20
 35
-1.000000000000000E+20
146
0.0
 13
0.0
 23
0.0
 33
0.0
 16
1.0
 26
0.0
 36
0.0
 17
0.0
 27
1.0
 37
0.0
 76
     0
330
1F
331
29
  0
MATERIAL
  5
45
102
{ACAD_REACTORS
330
43
102
}
330
43
100
AcDbMaterial
  1
ByBlock
 72
     1
 94
      127
  0
MATERIAL
  5
44
102
{ACAD_REACTORS
330
43
102
}
330
43
100
AcDbMaterial
  1
ByLayer
 72
     1
 94
      127
  0
MATERIAL
  5
46
102
{ACAD_REACTORS
330
43
102
}
330
43
100
AcDbMaterial
  1
Global
 72
     1
 94
      127
  0
MLINESTYLE
  5
18
102
{ACAD_REACTORS
330
17
102
}
330
17
100
AcDbMlineStyle
  2
Standard
 70
     0
  3

 62
   256
 51
90.0
 52
90.0
 71
     2
 49
0.5
 62
   256
  6
BYLAYER
 49
-0.5
 62
   256
  6
BYLAYER
  0
ACDBPLACEHOLDER
  5
F
102
{ACAD_REACTORS
330
E
102
}
330
E
  0
SCALE
  5
48
102
{ACAD_REACTORS
330
47
102
}
330
47
100
AcDbScale
 70
     0
300
1:1
140
1.0
141
1.0
290
     1
  0
SCALE
  5
49
102
{ACAD_REACTORS
330
47
102
}
330
47
100
AcDbScale
 70
     0
300
1:2
140
1.0
141
2.0
290
     0
  0
SCALE
  5
4A
102
{ACAD_REACTORS
330
47
102
}
330
47
100
AcDbScale
 70
     0
300
1:4
140
1.0
141
4.0
290
     0
  0
SCALE
  5
4B
102
{ACAD_REACTORS
330
47
102
}
330
47
100
AcDbScale
 70
     0
300
1:5
140
1.0
141
5.0
290
     0
  0
SCALE
  5
4C
102
{ACAD_REACTORS
330
47
102
}
330
47
100
AcDbScale
 70
     0
300
1:8
140
1.0
141
8.0
290
     0
  0
SCALE
  5
4D
102
{ACAD_REACTORS
330
47
102
}
330
47
100
AcDbScale
 70
     0
300
1:10
140
1.0
141
10.0
290
     0
  0
SCALE
  5
4E
102
{ACAD_REACTORS
330
47
102
}
330
47
100
AcDbScale
 70
     0
300
1:16
140
1.0
141
16.0
290
     0
  0
SCALE
  5
4F
102
{ACAD_REACTORS
330
47
102
}
330
47
100
AcDbScale
 70
     0
300
1:20
140
1.0
141
20.0
290
     0
  0
SCALE
  5
50
102
{ACAD_REACTORS
330
47
102
}
330
47
100
AcDbScale
 70
     0
300
1:30
140
1.0
141
30.0
290
     0
  0
SCALE
  5
51
102
{ACAD_REACTORS
330
47
102
}
330
47
100
AcDbScale
 70
     0
300
1:40
140
1.0
141
40.0
290
     0
  0
SCALE
  5
52
102
{ACAD_REACTORS
330
47
102
}
330
47
100
AcDbScale
 70
     0
300
1:50
140
1.0
141
50.0
290
     0
  0
SCALE
  5
53
102
{ACAD_REACTORS
330
47
102
}
330
47
100
AcDbScale
 70
     0
300
1:100
140
1.0
141
100.0
290
     0
  0
SCALE
  5
54
102
{ACAD_REACTORS
330
47
102
}
330
47
100
AcDbScale
 70
     0
300
2:1
140
2.0
141
1.0
290
     0
  0
SCALE
  5
55
102
{ACAD_REACTORS
330
47
102
}
330
47
100
AcDbScale
 70
     0
300
4:1
140
4.0
141
1.0
290
     0
  0
SCALE
  5
56
102
{ACAD_REACTORS
330
47
102
}
330
47
100
AcDbScale
 70
     0
300
8:1
140
8.0
141
1.0
290
     0
  0
SCALE
  5
57
102
{ACAD_REACTORS
330
47
102
}
330
47
100
AcDbScale
 70
     0
300
10:1
140
10.0
141
1.0
290
     0
  0
SCALE
  5
58
102
{ACAD_REACTORS
330
47
102
}
330
47
100
AcDbScale
 70
     0
300
100:1
140
100.0
141
1.0
290
     0
  0
SCALE
  5
59
102
{ACAD_REACTORS
330
47
102
}
330
47
100
AcDbScale
 70
     0
300
1/128" = 1'-0"
140
0.0078125
141
12.0
290
     0
  0
SCALE
  5
5A
102
{ACAD_REACTORS
330
47
102
}
330
47
100
AcDbScale
 70
     0
300
1/64" = 1'-0"
140
0.015625
141
12.0
290
     0
  0
SCALE
  5
5B
102
{ACAD_REACTORS
330
47
102
}
330
47
100
AcDbScale
 70
     0
300
1/32" = 1'-0"
140
0.03125
141
12.0
290
     0
  0
SCALE
  5
5C
102
{ACAD_REACTORS
330
47
102
}
330
47
100
AcDbScale
 70
     0
300
1/16" = 1'-0"
140
0.0625
141
12.0
290
     0
  0
SCALE
  5
5D
102
{ACAD_REACTORS
330
47
102
}
330
47
100
AcDbScale
 70
     0
300
3/32" = 1'-0"
140
0.09375
141
12.0
290
     0
  0
SCALE
  5
5E
102
{ACAD_REACTORS
330
47
102
}
330
47
100
AcDbScale
 70
     0
300
1/8" = 1'-0"
140
0.125
141
12.0
290
     0
  0
SCALE
  5
5F
102
{ACAD_REACTORS
330
47
102
}
330
47
100
AcDbScale
 70
     0
300
3/16" = 1'-0"
140
0.1875
141
12.0
290
     0
  0
SCALE
  5
60
102
{ACAD_REACTORS
330
47
102
}
330
47
100
AcDbScale
 70
     0
300
1/4" = 1'-0"
140
0.25
141
12.0
290
     0
  0
SCALE
  5
61
102
{ACAD_REACTORS
330
47
102
}
330
47
100
AcDbScale
 70
     0
300
3/8" = 1'-0"
140
0.375
141
12.0
290
     0
  0
SCALE
  5
62
102
{ACAD_REACTORS
330
47
102
}
330
47
100
AcDbScale
 70
     0
300
1/2" = 1'-0"
140
0.5
141
12.0
290
     0
  0
SCALE
  5
63
102
{ACAD_REACTORS
330
47
102
}
330
47
100
AcDbScale
 70
     0
300
3/4" = 1'-0"
140
0.75
141
12.0
290
     0
  0
SCALE
  5
64
102
{ACAD_REACTORS
330
47
102
}
330
47
100
AcDbScale
 70
     0
300
1" = 1'-0"
140
1.0
141
12.0
290
     0
  0
SCALE
  5
65
102
{ACAD_REACTORS
330
47
102
}
330
47
100
AcDbScale
 70
     0
300
1-1/2" = 1'-0"
140
1.5
141
12.0
290
     0
  0
SCALE
  5
66
102
{ACAD_REACTORS
330
47
102
}
330
47
100
AcDbScale
 70
     0
300
3" = 1'-0"
140
3.0
141
12.0
290
     0
  0
SCALE
  5
67
102
{ACAD_REACTORS
330
47
102
}
330
47
100
AcDbScale
 70
     0
300
6" = 1'-0"
140
6.0
141
12.0
290
     0
  0
SCALE
  5
68
102
{ACAD_REACTORS
330
47
102
}
330
47
100
AcDbScale
 70
     0
300
1'-0" = 1'-0"
140
12.0
141
12.0
290
     0
  0
VISUALSTYLE
  5
2F
102
{ACAD_REACTORS
330
2A
102
}
330
2A
100
AcDbVisualStyle
  2
2dWireframe
 70
     4
177
     3
291
     0
 70
    58
 90
        0
176
     1
 90
        2
176
     1
 90
        0
176
     1
 90
        0
176
     1
 40
0.6
176
     1
 40
30.0
176
     1
 62
     7
420
 16777215
176
     1
 90
        1
176
     1
 90
        4
176
     1
 62
     7
176
     1
 62
   257
176
     1
 90
        1
176
     1
 90
        1
176
     1
 40
1.0
176
     1
 90
        0
176
     1
 62
   257
176
     1
 40
1.0
176
     1
 90
        1
176
     1
 90
        6
176
     1
 90
        2
176
     1
 62
     7
176
     1
 90
        5
176
     1
 90
        0
176
     1
 90
        0
176
     1
290
     0
176
     1
 90
        1
176
     1
 40
0.0
176
     1
 90
        0
176
     1
290
     1
176
     1
290
     1
176
     1
290
     0
176
     1
290
     0
176
     1
290
     0
176
     1
290
     0
176
     1
290
     0
176
     1
290
     0
176
     1
290
     0
176
     1
 90
       50
176
     1
 40
0.0
176
     1
 40
1.0
176
     1
 90
        0
176
     1
 62
    18
420
        0
176
     1
 90
       50
176
     1
 90
        3
176
     1
 62
     5
420
      255
176
     1
290
     0
176
     1
 90
       50
176
     1
 90
       50
176
     1
 90
       50
176
     1
290
     0
176
     1
 90
       50
176
     1
 62
   256
176
     0
 40
1.0
176
     0
 90
        2
176
     1
  1
strokes_ogs.tif
176
     1
290
     0
176
     1
 40
1.0
176
     1
 40
1.0
176
     1
  0
VISUALSTYLE
  5
32
102
{ACAD_REACTORS
330
2A
102
}
330
2A
100
AcDbVisualStyle
  2
Basic
 70
     7
177
     3
291
     1
 70
    58
 90
        1
176
     1
 90
        0
176
     1
 90
        1
176
     1
 90
        0
176
     1
 40
0.6
176
     1
 40
30.0
176
     1
 62
     7
420
 16777215
176
     1
 90
        0
176
     1
 90
        4
176
     1
 62
     7
176
     1
 62
   257
176
     1
 90
        1
176
     1
 90
        1
176
     1
 40
1.0
176
     1
 90
        8
176
     1
 62
     7
176
     1
 40
1.0
176
     1
 90
        1
176
     1
 90
        6
176
     1
 90
        2
176
     1
 62
     7
176
     1
 90
        5
176
     1
 90
        0
176
     1
 90
        0
176
     1
290
     0
176
     1
 90
        1
176
     1
 40
0.0
176
     1
 90
        0
176
     1
290
     0
176
     1
290
     1
176
     1
290
     1
176
     1
290
     0
176
     1
290
     0
176
     1
290
     0
176
     1
290
     0
176
     1
290
     0
176
     1
290
     0
176
     1
 90
       50
176
     1
 40
0.0
176
     1
 40
1.0
176
     1
 90
        0
176
     1
 62
    18
420
        0
176
     1
 90
       50
176
     1
 90
        3
176
     1
 62
     5
420
      255
176
     1
290
     0
176
     1
 90
       50
176
     1
 90
       50
176
     1
 90
       50
176
     1
290
     0
176
     1
 90
       50
176
     1
 62
   256
176
     0
 40
1.0
176
     0
 90
        2
176
     1
  1
strokes_ogs.tif
176
     1
290
     0
176
     1
 40
1.0
176
     1
 40
1.0
176
     1
  0
VISUALSTYLE
  5
36
102
{ACAD_REACTORS
330
2A
102
}
330
2A
100
AcDbVisualStyle
  2
Brighten
 70
    12
177
     3
291
     1
 70
    58
 90
        2
176
     1
 90
        2
176
     1
 90
        0
176
     1
 90
        0
176
     1
 40
0.6
176
     1
 40
30.0
176
     1
 62
     7
420
 16777215
176
     1
 90
        1
176
     1
 90
        4
176
     1
 62
     7
176
     1
 62
   257
176
     1
 90
        1
176
     1
 90
        1
176
     1
 40
1.0
176
     1
 90
        8
176
     1
 62
     7
176
     1
 40
1.0
176
     1
 90
        1
176
     1
 90
        6
176
     1
 90
        2
176
     1
 62
     7
176
     1
 90
        5
176
     1
 90
        0
176
     1
 90
        0
176
     1
290
     0
176
     1
 90
        1
176
     1
 40
50.0
176
     1
 90
        0
176
     1
290
     0
176
     1
290
     1
176
     1
290
     1
176
     1
290
     0
176
     1
290
     0
176
     1
290
     0
176
     1
290
     0
176
     1
290
     0
176
     1
290
     0
176
     1
 90
       50
176
     1
 40
0.0
176
     1
 40
1.0
176
     1
 90
        0
176
     1
 62
    18
420
        0
176
     1
 90
       50
176
     1
 90
        3
176
     1
 62
     5
420
      255
176
     1
290
     0
176
     1
 90
       50
176
     1
 90
       50
176
     1
 90
       50
176
     1
290
     0
176
     1
 90
       50
176
     1
 62
   256
176
     0
 40
1.0
176
     0
 90
        2
176
     1
  1
strokes_ogs.tif
176
     1
290
     0
176
     1
 40
1.0
176
     1
 40
1.0
176
     1
  0
VISUALSTYLE
  5
3A
102
{ACAD_REACTORS
330
2A
102
}
330
2A
100
AcDbVisualStyle
  2
ColorChange
 70
    16
177
     3
291
     1
 70
    58
 90
        2
176
     1
 90
        2
176
     1
 90
        3
176
     1
 90
        0
176
     1
 40
0.6
176
     1
 40
30.0
176
     1
 62
     8
420
  8421504
176
     1
 90
        1
176
     1
 90
        4
176
     1
 62
     7
176
     1
 62
   257
176
     1
 90
        1
176
     1
 90
        1
176
     1
 40
1.0
176
     1
 90
        8
176
     1
 62
     8
420
  8421504
176
     1
 40
1.0
176
     1
 90
        1
176
     1
 90
        6
176
     1
 90
        2
176
     1
 62
     7
176
     1
 90
        5
176
     1
 90
        0
176
     1
 90
        0
176
     1
290
     0
176
     1
 90
        1
176
     1
 40
0.0
176
     1
 90
        0
176
     1
290
     0
176
     1
290
     1
176
     1
290
     1
176
     1
290
     0
176
     1
290
     0
176
     1
290
     0
176
     1
290
     0
176
     1
290
     0
176
     1
290
     0
176
     1
 90
       50
176
     1
 40
0.0
176
     1
 40
1.0
176
     1
 90
        0
176
     1
 62
    18
420
        0
176
     1
 90
       50
176
     1
 90
        3
176
     1
 62
     5
420
      255
176
     1
290
     0
176
     1
 90
       50
176
     1
 90
       50
176
     1
 90
       50
176
     1
290
     0
176
     1
 90
       50
176
     1
 62
   256
176
     0
 40
1.0
176
     0
 90
        2
176
     1
  1
strokes_ogs.tif
176
     1
290
     0
176
     1
 40
1.0
176
     1
 40
1.0
176
     1
  0
VISUALSTYLE
  5
34
102
{ACAD_REACTORS
330
2A
102
}
330
2A
100
AcDbVisualStyle
  2
Conceptual
 70
     9
177
     3
291
     0
 70
    58
 90
        3
176
     1
 90
        2
176
     1
 90
        0
176
     1
 90
        0
176
     1
 40
0.6
176
     1
 40
30.0
176
     1
 62
     7
420
 16777215
176
     1
 90
        2
176
     1
 90
        2
176
     1
 62
     7
176
     1
 62
   257
176
     1
 90
        1
176
     1
 90
        1
176
     1
 40
179.0
176
     1
 90
        8
176
     1
 62
     7
176
     1
 40
1.0
176
     1
 90
        1
176
     1
 90
        6
176
     1
 90
        2
176
     1
 62
     7
176
     1
 90
        3
176
     1
 90
        0
176
     1
 90
        0
176
     1
290
     0
176
     1
 90
        1
176
     1
 40
0.0
176
     1
 90
        0
176
     1
290
     0
176
     1
290
     1
176
     1
290
     1
176
     1
290
     0
176
     1
290
     0
176
     1
290
     0
176
     1
290
     0
176
     1
290
     0
176
     1
290
     0
176
     1
 90
       50
176
     1
 40
0.0
176
     1
 40
1.0
176
     1
 90
        0
176
     1
 62
    18
420
        0
176
     1
 90
       50
176
     1
 90
        3
176
     1
 62
     5
420
      255
176
     1
290
     0
176
     1
 90
       50
176
     1
 90
       50
176
     1
 90
       50
176
     1
290
     0
176
     1
 90
       50
176
     1
 62
   256
176
     0
 40
1.0
176
     0
 90
        2
176
     1
  1
strokes_ogs.tif
176
     1
290
     0
176
     1
 40
1.0
176
     1
 40
1.0
176
     1
  0
VISUALSTYLE
  5
35
102
{ACAD_REACTORS
330
2A
102
}
330
2A
100
AcDbVisualStyle
  2
Dim
 70
    11
177
     3
291
     1
 70
    58
 90
        2
176
     1
 90
        2
176
     1
 90
        0
176
     1
 90
        0
176
     1
 40
0.6
176
     1
 40
30.0
176
     1
 62
     7
420
 16777215
176
     1
 90
        1
176
     1
 90
        4
176
     1
 62
     7
176
     1
 62
   257
176
     1
 90
        1
176
     1
 90
        1
176
     1
 40
1.0
176
     1
 90
        8
176
     1
 62
     7
176
     1
 40
1.0
176
     1
 90
        1
176
     1
 90
        6
176
     1
 90
        2
176
     1
 62
     7
176
     1
 90
        5
176
     1
 90
        0
176
     1
 90
        0
176
     1
290
     0
176
     1
 90
        1
176
     1
 40
-50.0
176
     1
 90
        0
176
     1
290
     0
176
     1
290
     1
176
     1
290
     1
176
     1
290
     0
176
     1
290
     0
176
     1
290
     0
176
     1
290
     0
176
     1
290
     0
176
     1
290
     0
176
     1
 90
       50
176
     1
 40
0.0
176
     1
 40
1.0
176
     1
 90
        0
176
     1
 62
    18
420
        0
176
     1
 90
       50
176
     1
 90
        3
176
     1
 62
     5
420
      255
176
     1
290
     0
176
     1
 90
       50
176
     1
 90
       50
176
     1
 90
       50
176
     1
290
     0
176
     1
 90
       50
176
     1
 62
   256
176
     0
 40
1.0
176
     0
 90
        2
176
     1
  1
strokes_ogs.tif
176
     1
290
     0
176
     1
 40
1.0
176
     1
 40
1.0
176
     1
  0
VISUALSTYLE
  5
3D
102
{ACAD_REACTORS
330
2A
102
}
330
2A
100
AcDbVisualStyle
  2
EdgeColorOff
 70
    22
177
     3
291
     1
 70
    58
 90
        2
176
     0
 90
        2
176
     0
 90
        0
176
     0
 90
        0
176
     0
 40
0.6
176
     0
 40
30.0
176
     0
 62
     7
420
 16777215
176
     0
 90
        1
176
     0
 90
        4
176
     0
 62
     7
176
     0
 62
   257
176
     0
 90
        1
176
     0
 90
        1
176
     0
 40
1.0
176
     0
 90
        8
176
     2
 62
     7
176
     0
 40
1.0
176
     0
 90
        1
176
     0
 90
        6
176
     0
 90
        2
176
     0
 62
     7
176
     0
 90
        5
176
     0
 90
        0
176
     0
 90
        0
176
     0
290
     0
176
     0
 90
        1
176
     0
 40
0.0
176
     0
 90
        0
176
     0
290
     0
176
     0
290
     1
176
     0
290
     1
176
     0
290
     0
176
     0
290
     0
176
     0
290
     0
176
     0
290
     0
176
     0
290
     0
176
     0
290
     0
176
     0
 90
       50
176
     0
 40
0.0
176
     0
 40
1.0
176
     0
 90
        0
176
     0
 62
    18
420
        0
176
     0
 90
       50
176
     0
 90
        3
176
     0
 62
     5
420
      255
176
     0
290
     0
176
     0
 90
       50
176
     0
 90
       50
176
     0
 90
       50
176
     0
290
     0
176
     0
 90
       50
176
     0
 62
   256
176
     0
 40
1.0
176
     0
 90
        2
176
     0
  1
strokes_ogs.tif
176
     0
290
     0
176
     0
 40
1.0
176
     0
 40
1.0
176
     0
  0
VISUALSTYLE
  5
39
102
{ACAD_REACTORS
330
2A
102
}
330
2A
100
AcDbVisualStyle
  2
Facepattern
 70
    15
177
     3
291
     1
 70
    58
 90
        2
176
     1
 90
        2
176
     1
 90
        0
176
     1
 90
        0
176
     1
 40
0.6
176
     1
 40
30.0
176
     1
 62
     7
420
 16777215
176
     1
 90
        1
176
     1
 90
        4
176
     1
 62
     7
176
     1
 62
   257
176
     1
 90
        1
176
     1
 90
        1
176
     1
 40
1.0
176
     1
 90
        8
176
     1
 62
     7
176
     1
 40
1.0
176
     1
 90
        1
176
     1
 90
        6
176
     1
 90
        2
176
     1
 62
     7
176
     1
 90
        5
176
     1
 90
        0
176
     1
 90
        0
176
     1
290
     0
176
     1
 90
        1
176
     1
 40
0.0
176
     1
 90
        0
176
     1
290
     0
176
     1
290
     1
176
     1
290
     1
176
     1
290
     0
176
     1
290
     0
176
     1
290
     0
176
     1
290
     0
176
     1
290
     0
176
     1
290
     0
176
     1
 90
       50
176
     1
 40
0.0
176
     1
 40
1.0
176
     1
 90
        0
176
     1
 62
    18
420
        0
176
     1
 90
       50
176
     1
 90
        3
176
     1
 62
     5
420
      255
176
     1
290
     0
176
     1
 90
       50
176
     1
 90
       50
176
     1
 90
       50
176
     1
290
     0
176
     1
 90
       50
176
     1
 62
   256
176
     0
 40
1.0
176
     0
 90
        2
176
     1
  1
strokes_ogs.tif
176
     1
290
     0
176
     1
 40
1.0
176
     1
 40
1.0
176
     1
  0
VISUALSTYLE
  5
2B
102
{ACAD_REACTORS
330
2A
102
}
330
2A
100
AcDbVisualStyle
  2
Flat
 70
     0
177
     3
291
     1
 70
    58
 90
        2
176
     1
 90
        1
176
     1
 90
        1
176
     1
 90
        2
176
     1
 40
0.6
176
     1
 40
30.0
176
     1
 62
     7
420
 16777215
176
     1
 90
        0
176
     1
 90
        0
176
     1
 62
     7
176
     1
 62
   257
176
     1
 90
        1
176
     1
 90
        1
176
     1
 40
1.0
176
     1
 90
        8
176
     1
 62
     7
176
     1
 40
1.0
176
     1
 90
        1
176
     1
 90
        6
176
     1
 90
        2
176
     1
 62
     7
176
     1
 90
        5
176
     1
 90
        0
176
     1
 90
        0
176
     1
290
     0
176
     1
 90
       13
176
     1
 40
0.0
176
     1
 90
        0
176
     1
290
     0
176
     1
290
     1
176
     1
290
     1
176
     1
290
     0
176
     1
290
     0
176
     1
290
     0
176
     1
290
     0
176
     1
290
     0
176
     1
290
     0
176
     1
 90
       50
176
     1
 40
0.0
176
     1
 40
1.0
176
     1
 90
        0
176
     1
 62
    18
420
        0
176
     1
 90
       50
176
     1
 90
        3
176
     1
 62
     5
420
      255
176
     1
290
     0
176
     1
 90
       50
176
     1
 90
       50
176
     1
 90
       50
176
     1
290
     0
176
     1
 90
       50
176
     1
 62
   256
176
     0
 40
1.0
176
     0
 90
        2
176
     1
  1
strokes_ogs.tif
176
     1
290
     0
176
     1
 40
1.0
176
     1
 40
1.0
176
     1
  0
VISUALSTYLE
  5
2C
102
{ACAD_REACTORS
330
2A
102
}
330
2A
100
AcDbVisualStyle
  2
FlatWithEdges
 70
     1
177
     3
291
     1
 70
    58
 90
        2
176
     1
 90
        1
176
     1
 90
        1
176
     1
 90
        2
176
     1
 40
0.6
176
     1
 40
30.0
176
     1
 62
     7
420
 16777215
176
     1
 90
        1
176
     1
 90
        0
176
     1
 62
     7
176
     1
 62
   257
176
     1
 90
        1
176
     1
 90
        1
176
     1
 40
1.0
176
     1
 90
        0
176
     1
 62
   257
176
     1
 40
1.0
176
     1
 90
        1
176
     1
 90
        6
176
     1
 90
        2
176
     1
 62
     7
176
     1
 90
        5
176
     1
 90
        0
176
     1
 90
        0
176
     1
290
     0
176
     1
 90
       13
176
     1
 40
0.0
176
     1
 90
        0
176
     1
290
     0
176
     1
290
     1
176
     1
290
     1
176
     1
290
     0
176
     1
290
     0
176
     1
290
     0
176
     1
290
     0
176
     1
290
     0
176
     1
290
     0
176
     1
 90
       50
176
     1
 40
0.0
176
     1
 40
1.0
176
     1
 90
        0
176
     1
 62
    18
420
        0
176
     1
 90
       50
176
     1
 90
        3
176
     1
 62
     5
420
      255
176
     1
290
     0
176
     1
 90
       50
176
     1
 90
       50
176
     1
 90
       50
176
     1
290
     0
176
     1
 90
       50
176
     1
 62
   256
176
     0
 40
1.0
176
     0
 90
        2
176
     1
  1
strokes_ogs.tif
176
     1
290
     0
176
     1
 40
1.0
176
     1
 40
1.0
176
     1
  0
VISUALSTYLE
  5
2D
102
{ACAD_REACTORS
330
2A
102
}
330
2A
100
AcDbVisualStyle
  2
Gouraud
 70
     2
177
     3
291
     1
 70
    58
 90
        2
176
     1
 90
        2
176
     1
 90
        1
176
     1
 90
        2
176
     1
 40
0.6
176
     1
 40
30.0
176
     1
 62
     7
420
 16777215
176
     1
 90
        0
176
     1
 90
        0
176
     1
 62
     7
176
     1
 62
   257
176
     1
 90
        1
176
     1
 90
        1
176
     1
 40
1.0
176
     1
 90
        0
176
     1
 62
     7
176
     1
 40
1.0
176
     1
 90
        1
176
     1
 90
        6
176
     1
 90
        2
176
     1
 62
     7
176
     1
 90
        5
176
     1
 90
        0
176
     1
 90
        0
176
     1
290
     0
176
     1
 90
       13
176
     1
 40
0.0
176
     1
 90
        0
176
     1
290
     0
176
     1
290
     1
176
     1
290
     1
176
     1
290
     0
176
     1
290
     0
176
     1
290
     0
176
     1
290
     0
176
     1
290
     0
176
     1
290
     0
176
     1
 90
       50
176
     1
 40
0.0
176
     1
 40
1.0
176
     1
 90
        0
176
     1
 62
    18
420
        0
176
     1
 90
       50
176
     1
 90
        3
176
     1
 62
     5
420
      255
176
     1
290
     0
176
     1
 90
       50
176
     1
 90
       50
176
     1
 90
       50
176
     1
290
     0
176
     1
 90
       50
176
     1
 62
   256
176
     0
 40
1.0
176
     0
 90
        2
176
     1
  1
strokes_ogs.tif
176
     1
290
     0
176
     1
 40
1.0
176
     1
 40
1.0
176
     1
  0
VISUALSTYLE
  5
2E
102
{ACAD_REACTORS
330
2A
102
}
330
2A
100
AcDbVisualStyle
  2
GouraudWithEdges
 70
     3
177
     3
291
     1
 70
    58
 90
        2
176
     1
 90
        2
176
     1
 90
        1
176
     1
 90
        2
176
     1
 40
0.6
176
     1
 40
30.0
176
     1
 62
     7
420
 16777215
176
     1
 90
        1
176
     1
 90
        0
176
     1
 62
     7
176
     1
 62
   257
176
     1
 90
        1
176
     1
 90
        1
176
     1
 40
1.0
176
     1
 90
        0
176
     1
 62
   257
176
     1
 40
1.0
176
     1
 90
        1
176
     1
 90
        6
176
     1
 90
        2
176
     1
 62
     7
176
     1
 90
        5
176
     1
 90
        0
176
     1
 90
        0
176
     1
290
     0
176
     1
 90
       13
176
     1
 40
0.0
176
     1
 90
        0
176
     1
290
     0
176
     1
290
     1
176
     1
290
     1
176
     1
290
     0
176
     1
290
     0
176
     1
290
     0
176
     1
290
     0
176
     1
290
     0
176
     1
290
     0
176
     1
 90
       50
176
     1
 40
0.0
176
     1
 40
1.0
176
     1
 90
        0
176
     1
 62
    18
420
        0
176
     1
 90
       50
176
     1
 90
        3
176
     1
 62
     5
420
      255
176
     1
290
     0
176
     1
 90
       50
176
     1
 90
       50
176
     1
 90
       50
176
     1
290
     0
176
     1
 90
       50
176
     1
 62
   256
176
     0
 40
1.0
176
     0
 90
        2
176
     1
  1
strokes_ogs.tif
176
     1
290
     0
176
     1
 40
1.0
176
     1
 40
1.0
176
     1
  0
VISUALSTYLE
  5
31
102
{ACAD_REACTORS
330
2A
102
}
330
2A
100
AcDbVisualStyle
  2
Hidden
 70
     6
177
     3
291
     0
 70
    58
 90
        1
176
     1
 90
        2
176
     1
 90
        2
176
     1
 90
        0
176
     1
 40
0.6
176
     1
 40
30.0
176
     1
 62
     7
420
 16777215
176
     1
 90
        2
176
     1
 90
        2
176
     1
 62
     7
176
     1
 62
   257
176
     1
 90
        2
176
     1
 90
        1
176
     1
 40
40.0
176
     1
 90
        0
176
     1
 62
   257
176
     1
 40
1.0
176
     1
 90
        1
176
     1
 90
        6
176
     1
 90
        2
176
     1
 62
     7
176
     1
 90
        3
176
     1
 90
        0
176
     1
 90
        0
176
     1
290
     0
176
     1
 90
        1
176
     1
 40
0.0
176
     1
 90
        0
176
     1
290
     0
176
     1
290
     1
176
     1
290
     1
176
     1
290
     0
176
     1
290
     0
176
     1
290
     0
176
     1
290
     0
176
     1
290
     0
176
     1
290
     0
176
     1
 90
       50
176
     1
 40
0.0
176
     1
 40
1.0
176
     1
 90
        0
176
     1
 62
    18
420
        0
176
     1
 90
       50
176
     1
 90
        3
176
     1
 62
     5
420
      255
176
     1
290
     0
176
     1
 90
       50
176
     1
 90
       50
176
     1
 90
       50
176
     1
290
     0
176
     1
 90
       50
176
     1
 62
   256
176
     0
 40
1.0
176
     0
 90
        2
176
     1
  1
strokes_ogs.tif
176
     1
290
     0
176
     1
 40
1.0
176
     1
 40
1.0
176
     1
  0
VISUALSTYLE
  5
3B
102
{ACAD_REACTORS
330
2A
102
}
330
2A
100
AcDbVisualStyle
  2
JitterOff
 70
    20
177
     3
291
     1
 70
    58
 90
        2
176
     0
 90
        2
176
     0
 90
        0
176
     0
 90
        0
176
     0
 40
0.6
176
     0
 40
30.0
176
     0
 62
     7
420
 16777215
176
     0
 90
        1
176
     0
 90
        4
176
     0
 62
     7
176
     0
 62
   257
176
     0
 90
        1
176
     0
 90
        1
176
     0
 40
1.0
176
     0
 90
       10
176
     2
 62
     7
176
     0
 40
1.0
176
     0
 90
        1
176
     0
 90
        6
176
     0
 90
        2
176
     0
 62
     7
176
     0
 90
        5
176
     0
 90
        0
176
     0
 90
        0
176
     0
290
     0
176
     0
 90
        1
176
     0
 40
0.0
176
     0
 90
        0
176
     0
290
     0
176
     0
290
     1
176
     0
290
     1
176
     0
290
     0
176
     0
290
     0
176
     0
290
     0
176
     0
290
     0
176
     0
290
     0
176
     0
290
     0
176
     0
 90
       50
176
     0
 40
0.0
176
     0
 40
1.0
176
     0
 90
        0
176
     0
 62
    18
420
        0
176
     0
 90
       50
176
     0
 90
        3
176
     0
 62
     5
420
      255
176
     0
290
     0
176
     0
 90
       50
176
     0
 90
       50
176
     0
 90
       50
176
     0
290
     0
176
     0
 90
       50
176
     0
 62
   256
176
     0
 40
1.0
176
     0
 90
        2
176
     0
  1
strokes_ogs.tif
176
     0
290
     0
176
     0
 40
1.0
176
     0
 40
1.0
176
     0
  0
VISUALSTYLE
  5
38
102
{ACAD_REACTORS
330
2A
102
}
330
2A
100
AcDbVisualStyle
  2
Linepattern
 70
    14
177
     3
291
     1
 70
    58
 90
        2
176
     1
 90
        2
176
     1
 90
        0
176
     1
 90
        0
176
     1
 40
0.6
176
     1
 40
30.0
176
     1
 62
     7
420
 16777215
176
     1
 90
        1
176
     1
 90
        4
176
     1
 62
     7
176
     1
 62
   257
176
     1
 90
        7
176
     1
 90
        7
176
     1
 40
1.0
176
     1
 90
        8
176
     1
 62
     7
176
     1
 40
1.0
176
     1
 90
        1
176
     1
 90
        6
176
     1
 90
        2
176
     1
 62
     7
176
     1
 90
        5
176
     1
 90
        0
176
     1
 90
        0
176
     1
290
     0
176
     1
 90
        1
176
     1
 40
0.0
176
     1
 90
        0
176
     1
290
     0
176
     1
290
     1
176
     1
290
     1
176
     1
290
     0
176
     1
290
     0
176
     1
290
     0
176
     1
290
     0
176
     1
290
     0
176
     1
290
     0
176
     1
 90
       50
176
     1
 40
0.0
176
     1
 40
1.0
176
     1
 90
        0
176
     1
 62
    18
420
        0
176
     1
 90
       50
176
     1
 90
        3
176
     1
 62
     5
420
      255
176
     1
290
     0
176
     1
 90
       50
176
     1
 90
       50
176
     1
 90
       50
176
     1
290
     0
176
     1
 90
       50
176
     1
 62
   256
176
     0
 40
1.0
176
     0
 90
        2
176
     1
  1
strokes_ogs.tif
176
     1
290
     0
176
     1
 40
1.0
176
     1
 40
1.0
176
     1
  0
VISUALSTYLE
  5
3C
102
{ACAD_REACTORS
330
2A
102
}
330
2A
100
AcDbVisualStyle
  2
OverhangOff
 70
    21
177
     3
291
     1
 70
    58
 90
        2
176
     0
 90
        2
176
     0
 90
        0
176
     0
 90
        0
176
     0
 40
0.6
176
     0
 40
30.0
176
     0
 62
     7
420
 16777215
176
     0
 90
        1
176
     0
 90
        4
176
     0
 62
     7
176
     0
 62
   257
176
     0
 90
        1
176
     0
 90
        1
176
     0
 40
1.0
176
     0
 90
        9
176
     2
 62
     7
176
     0
 40
1.0
176
     0
 90
        1
176
     0
 90
        6
176
     0
 90
        2
176
     0
 62
     7
176
     0
 90
        5
176
     0
 90
        0
176
     0
 90
        0
176
     0
290
     0
176
     0
 90
        1
176
     0
 40
0.0
176
     0
 90
        0
176
     0
290
     0
176
     0
290
     1
176
     0
290
     1
176
     0
290
     0
176
     0
290
     0
176
     0
290
     0
176
     0
290
     0
176
     0
290
     0
176
     0
290
     0
176
     0
 90
       50
176
     0
 40
0.0
176
     0
 40
1.0
176
     0
 90
        0
176
     0
 62
    18
420
        0
176
     0
 90
       50
176
     0
 90
        3
176
     0
 62
     5
420
      255
176
     0
290
     0
176
     0
 90
       50
176
     0
 90
       50
176
     0
 90
       50
176
     0
290
     0
176
     0
 90
       50
176
     0
 62
   256
176
     0
 40
1.0
176
     0
 90
        2
176
     0
  1
strokes_ogs.tif
176
     0
290
     0
176
     0
 40
1.0
176
     0
 40
1.0
176
     0
  0
VISUALSTYLE
  5
33
102
{ACAD_REACTORS
330
2A
102
}
330
2A
100
AcDbVisualStyle
  2
Realistic
 70
     8
177
     3
291
     0
 70
    58
 90
        2
176
     1
 90
        3
176
     1
 90
        0
176
     1
 90
        2
176
     1
 40
0.6
176
     1
 40
30.0
176
     1
 62
     7
420
 16777215
176
     1
 90
        0
176
     1
 90
        0
176
     1
 62
     7
176
     1
 62
   257
176
     1
 90
        1
176
     1
 90
        1
176
     1
 40
1.0
176
     1
 90
        8
176
     1
 62
   257
176
     1
 40
1.0
176
     1
 90
        1
176
     1
 90
        6
176
     1
 90
        2
176
     1
 62
     7
176
     1
 90
        3
176
     1
 90
        0
176
     1
 90
        0
176
     1
290
     0
176
     1
 90
       13
176
     1
 40
0.0
176
     1
 90
        0
176
     1
290
     0
176
     1
290
     1
176
     1
290
     1
176
     1
290
     0
176
     1
290
     0
176
     1
290
     0
176
     1
290
     0
176
     1
290
     0
176
     1
290
     0
176
     1
 90
       50
176
     1
 40
0.0
176
     1
 40
1.0
176
     1
 90
        0
176
     1
 62
    18
420
        0
176
     1
 90
       50
176
     1
 90
        3
176
     1
 62
     5
420
      255
176
     1
290
     0
176
     1
 90
       50
176
     1
 90
       50
176
     1
 90
       50
176
     1
290
     0
176
     1
 90
       50
176
     1
 62
   256
176
     0
 40
1.0
176
     0
 90
        2
176
     1
  1
strokes_ogs.tif
176
     1
290
     0
176
     1
 40
1.0
176
     1
 40
1.0
176
     1
  0
VISUALSTYLE
  5
42
102
{ACAD_REACTORS
330
2A
102
}
330
2A
100
AcDbVisualStyle
  2
Shaded
 70
    27
177
     3
291
     0
 70
    58
 90
        2
176
     1
 90
        2
176
     1
 90
        1
176
     1
 90
        2
176
     1
 40
0.6
176
     1
 40
30.0
176
     1
 62
     7
420
 16777215
176
     1
 90
        0
176
     1
 90
        4
176
     1
 62
     7
176
     1
 62
   257
176
     1
 90
        1
176
     1
 90
        1
176
     1
 40
1.0
176
     1
 90
        8
176
     1
 62
   257
176
     1
 40
1.0
176
     1
 90
        1
176
     1
 90
        6
176
     1
 90
        2
176
     1
 62
     8
420
  7895160
176
     1
 90
        3
176
     1
 90
        0
176
     1
 90
        0
176
     1
290
     0
176
     1
 90
        5
176
     1
 40
0.0
176
     1
 90
        0
176
     1
290
     0
176
     1
290
     1
176
     1
290
     1
176
     1
290
     0
176
     1
290
     0
176
     1
290
     0
176
     1
290
     0
176
     1
290
     0
176
     1
290
     0
176
     1
 90
       50
176
     1
 40
0.0
176
     1
 40
1.0
176
     1
 90
        0
176
     1
 62
    18
420
        0
176
     1
 90
       50
176
     1
 90
        3
176
     1
 62
     5
420
      255
176
     1
290
     0
176
     1
 90
       50
176
     1
 90
       50
176
     1
 90
       50
176
     1
290
     0
176
     1
 90
       50
176
     1
 62
   256
176
     0
 40
1.0
176
     0
 90
        2
176
     1
  1
strokes_ogs.tif
176
     1
290
     0
176
     1
 40
1.0
176
     1
 40
1.0
176
     1
  0
VISUALSTYLE
  5
41
102
{ACAD_REACTORS
330
2A
102
}
330
2A
100
AcDbVisualStyle
  2
Shaded with edges
 70
    26
177
     3
291
     0
 70
    58
 90
        2
176
     1
 90
        2
176
     1
 90
        1
176
     1
 90
        2
176
     1
 40
0.6
176
     1
 40
30.0
176
     1
 62
     7
420
 16777215
176
     1
 90
        1
176
     1
 90
       10
176
     1
 62
     7
176
     1
 62
   257
176
     1
 90
        2
176
     1
 90
        1
176
     1
 40
1.0
176
     1
 90
        8
176
     1
 62
   257
176
     1
 40
1.0
176
     1
 90
        1
176
     1
 90
        6
176
     1
 90
        2
176
     1
 62
     7
176
     1
 90
        3
176
     1
 90
        0
176
     1
 90
        0
176
     1
290
     0
176
     1
 90
        5
176
     1
 40
0.0
176
     1
 90
        0
176
     1
290
     0
176
     1
290
     1
176
     1
290
     1
176
     1
290
     0
176
     1
290
     0
176
     1
290
     0
176
     1
290
     0
176
     1
290
     0
176
     1
290
     0
176
     1
 90
       50
176
     1
 40
0.0
176
     1
 40
1.0
176
     1
 90
        0
176
     1
 62
    18
420
        0
176
     1
 90
       50
176
     1
 90
        3
176
     1
 62
     5
420
      255
176
     1
290
     0
176
     1
 90
       50
176
     1
 90
       50
176
     1
 90
       50
176
     1
290
     0
176
     1
 90
       50
176
     1
 62
   256
176
     0
 40
1.0
176
     0
 90
        2
176
     1
  1
strokes_ogs.tif
176
     1
290
     0
176
     1
 40
1.0
176
     1
 40
1.0
176
     1
  0
VISUALSTYLE
  5
3E
102
{ACAD_REACTORS
330
2A
102
}
330
2A
100
AcDbVisualStyle
  2
Shades of Gray
 70
    23
177
     3
291
     0
 70
    58
 90
        2
176
     1
 90
        2
176
     1
 90
        3
176
     1
 90
        0
176
     1
 40
0.6
176
     1
 40
30.0
176
     1
 62
     7
420
 16777215
176
     1
 90
        2
176
     1
 90
        2
176
     1
 62
     7
176
     1
 62
     7
176
     1
 90
        1
176
     1
 90
        1
176
     1
 40
40.0
176
     1
 90
        8
176
     1
 62
     7
176
     1
 40
1.0
176
     1
 90
        1
176
     1
 90
        6
176
     1
 90
        2
176
     1
 62
     7
176
     1
 90
        3
176
     1
 90
        0
176
     1
 90
        0
176
     1
290
     0
176
     1
 90
        1
176
     1
 40
0.0
176
     1
 90
        0
176
     1
290
     0
176
     1
290
     1
176
     1
290
     1
176
     1
290
     0
176
     1
290
     0
176
     1
290
     0
176
     1
290
     0
176
     1
290
     0
176
     1
290
     0
176
     1
 90
       50
176
     1
 40
0.0
176
     1
 40
1.0
176
     1
 90
        0
176
     1
 62
    18
420
        0
176
     1
 90
       50
176
     1
 90
        3
176
     1
 62
     5
420
      255
176
     1
290
     0
176
     1
 90
       50
176
     1
 90
       50
176
     1
 90
       50
176
     1
290
     0
176
     1
 90
       50
176
     1
 62
   256
176
     0
 40
1.0
176
     0
 90
        2
176
     1
  1
strokes_ogs.tif
176
     1
290
     0
176
     1
 40
1.0
176
     1
 40
1.0
176
     1
  0
VISUALSTYLE
  5
3F
102
{ACAD_REACTORS
330
2A
102
}
330
2A
100
AcDbVisualStyle
  2
Sketchy
 70
    24
177
     3
291
     0
 70
    58
 90
        1
176
     1
 90
        2
176
     1
 90
        2
176
     1
 90
        0
176
     1
 40
0.6
176
     1
 40
30.0
176
     1
 62
     7
420
 16777215
176
     1
 90
        2
176
     1
 90
        2
176
     1
 62
     7
176
     1
 62
     7
176
     1
 90
        1
176
     1
 90
        1
176
     1
 40
40.0
176
     1
 90
       11
176
     1
 62
     7
176
     1
 40
1.0
176
     1
 90
        1
176
     1
 90
        6
176
     1
 90
        2
176
     1
 62
     7
176
     1
 90
        6
176
     1
 90
        0
176
     1
 90
        0
176
     1
290
     0
176
     1
 90
        1
176
     1
 40
0.0
176
     1
 90
        0
176
     1
290
     0
176
     1
290
     1
176
     1
290
     1
176
     1
290
     0
176
     1
290
     0
176
     1
290
     0
176
     1
290
     0
176
     1
290
     0
176
     1
290
     0
176
     1
 90
       50
176
     1
 40
0.0
176
     1
 40
1.0
176
     1
 90
        0
176
     1
 62
    18
420
        0
176
     1
 90
       50
176
     1
 90
        3
176
     1
 62
     5
420
      255
176
     1
290
     0
176
     1
 90
       50
176
     1
 90
       50
176
     1
 90
       50
176
     1
290
     0
176
     1
 90
       50
176
     1
 62
   256
176
     0
 40
1.0
176
     0
 90
        2
176
     1
  1
strokes_ogs.tif
176
     1
290
     0
176
     1
 40
1.0
176
     1
 40
1.0
176
     1
  0
VISUALSTYLE
  5
37
102
{ACAD_REACTORS
330
2A
102
}
330
2A
100
AcDbVisualStyle
  2
Thicken
 70
    13
177
     3
291
     1
 70
    58
 90
        2
176
     1
 90
        2
176
     1
 90
        0
176
     1
 90
        0
176
     1
 40
0.6
176
     1
 40
30.0
176
     1
 62
     7
420
 16777215
176
     1
 90
        1
176
     1
 90
        4
176
     1
 62
     7
176
     1
 62
   257
176
     1
 90
        1
176
     1
 90
        1
176
     1
 40
1.0
176
     1
 90
       12
176
     1
 62
     7
176
     1
 40
1.0
176
     1
 90
        1
176
     1
 90
        6
176
     1
 90
        2
176
     1
 62
     7
176
     1
 90
        5
176
     1
 90
        0
176
     1
 90
        0
176
     1
290
     0
176
     1
 90
        1
176
     1
 40
0.0
176
     1
 90
        0
176
     1
290
     0
176
     1
290
     1
176
     1
290
     1
176
     1
290
     0
176
     1
290
     0
176
     1
290
     0
176
     1
290
     0
176
     1
290
     0
176
     1
290
     0
176
     1
 90
       50
176
     1
 40
0.0
176
     1
 40
1.0
176
     1
 90
        0
176
     1
 62
    18
420
        0
176
     1
 90
       50
176
     1
 90
        3
176
     1
 62
     5
420
      255
176
     1
290
     0
176
     1
 90
       50
176
     1
 90
       50
176
     1
 90
       50
176
     1
290
     0
176
     1
 90
       50
176
     1
 62
   256
176
     0
 40
1.0
176
     0
 90
        2
176
     1
  1
strokes_ogs.tif
176
     1
290
     0
176
     1
 40
1.0
176
     1
 40
1.0
176
     1
  0
VISUALSTYLE
  5
30
102
{ACAD_REACTORS
330
2A
102
}
330
2A
100
AcDbVisualStyle
  2
Wireframe
 70
     5
177
     3
291
     0
 70
    58
 90
        0
176
     1
 90
        2
176
     1
 90
        0
176
     1
 90
        0
176
     1
 40
0.6
176
     1
 40
30.0
176
     1
 62
     7
420
 16777215
176
     1
 90
        1
176
     1
 90
        4
176
     1
 62
     7
176
     1
 62
   257
176
     1
 90
        1
176
     1
 90
        1
176
     1
 40
1.0
176
     1
 90
        0
176
     1
 62
   257
176
     1
 40
1.0
176
     1
 90
        1
176
     1
 90
        6
176
     1
 90
        2
176
     1
 62
     7
176
     1
 90
        3
176
     1
 90
        0
176
     1
 90
        0
176
     1
290
     0
176
     1
 90
        1
176
     1
 40
0.0
176
     1
 90
        0
176
     1
290
     0
176
     1
290
     1
176
     1
290
     1
176
     1
290
     0
176
     1
290
     0
176
     1
290
     0
176
     1
290
     0
176
     1
290
     0
176
     1
290
     0
176
     1
 90
       50
176
     1
 40
0.0
176
     1
 40
1.0
176
     1
 90
        0
176
     1
 62
    18
420
        0
176
     1
 90
       50
176
     1
 90
        3
176
     1
 62
     5
420
      255
176
     1
290
     0
176
     1
 90
       50
176
     1
 90
       50
176
     1
 90
       50
176
     1
290
     0
176
     1
 90
       50
176
     1
 62
   256
176
     0
 40
1.0
176
     0
 90
        2
176
     1
  1
strokes_ogs.tif
176
     1
290
     0
176
     1
 40
1.0
176
     1
 40
1.0
176
     1
  0
VISUALSTYLE
  5
40
102
{ACAD_REACTORS
330
2A
102
}
330
2A
100
AcDbVisualStyle
  2
X-Ray
 70
    25
177
     3
291
     0
 70
    58
 90
        2
176
     1
 90
        2
176
     1
 90
        1
176
     1
 90
        1
176
     1
 40
0.5
176
     1
 40
30.0
176
     1
 62
     7
420
 16777215
176
     1
 90
        1
176
     1
 90
        0
176
     1
 62
     7
176
     1
 62
   257
176
     1
 90
        1
176
     1
 90
        1
176
     1
 40
1.0
176
     1
 90
        8
176
     1
 62
     7
176
     1
 40
1.0
176
     1
 90
        1
176
     1
 90
        6
176
     1
 90
        2
176
     1
 62
     7
176
     1
 90
        3
176
     1
 90
        0
176
     1
 90
        0
176
     1
290
     0
176
     1
 90
       13
176
     1
 40
0.0
176
     1
 90
        0
176
     1
290
     0
176
     1
290
     1
176
     1
290
     1
176
     1
290
     0
176
     1
290
     0
176
     1
290
     0
176
     1
290
     0
176
     1
290
     0
176
     1
290
     0
176
     1
 90
       50
176
     1
 40
0.0
176
     1
 40
1.0
176
     1
 90
        0
176
     1
 62
    18
420
        0
176
     1
 90
       50
176
     1
 90
        3
176
     1
 62
     5
420
      255
176
     1
290
     0
176
     1
 90
       50
176
     1
 90
       50
176
     1
 90
       50
176
     1
290
     0
176
     1
 90
       50
176
     1
 62
   256
176
     0
 40
1.0
176
     0
 90
        2
176
     1
  1
strokes_ogs.tif
176
     1
290
     0
176
     1
 40
1.0
176
     1
 40
1.0
176
     1
  0
DICTIONARYVAR
  5
5CD
102
{ACAD_REACTORS
330
5CC
102
}
330
5CC
100
DictionaryVariables
280
     0
  1
1:1
  0
ENDSEC
  0
EOF
