0
SECTION
2
HEADER
9
$ACADVER
1
AC1014
9
$HANDSEED
5
FFFF
0
ENDSEC
0
SECTION
2
TABLES
0
TABLE
2
VPORT
5
8
100
AcDbSymbolTable
0
ENDTAB
0
TABLE
2
LTYPE
5
5
100
AcDbSymbolTable
0
LTYPE
5
14
100
AcDbSymbolTableRecord
100
AcDbLinetypeTableRecord
2
BYBLOCK
70
0
0
LTYPE
5
15
100
AcDbSymbolTableRecord
100
AcDbLinetypeTableRecord
2
BYLAYER
70
0
0
ENDTAB
0
TABLE
2
LAYER
5
2
100
AcDbSymbolTable
70
2
0
LAYER
5
50
100
AcDbSymbolTableRecord
100
AcDbLayerTableRecord
2
0
70
0
6
CONTINUOUS
0
ENDTAB
0
TABLE
2
STYLE
5
3
100
AcDbSymbolTable
70
1
0
STYLE
5
11
100
AcDbSymbolTableRecord
100
AcDbTextStyleTableRecord
2
STANDARD
70
0
0
ENDTAB
0
TABLE
2
VIEW
5
6
100
AcDbSymbolTable
70
0
0
ENDTAB
0
TABLE
2
UCS
5
7
100
AcDbSymbolTable
70
0
0
ENDTAB
0
TABLE
2
APPID
5
9
100
AcDbSymbolTable
70
2
0
APPID
5
12
100
AcDbSymbolTableRecord
100
AcDbRegAppTableRecord
2
ACAD
70
0
0
ENDTAB
0
TABLE
2
DIMSTYLE
5
A
100
AcDbSymbolTable
70
1
0
ENDTAB
0
TABLE
2
BLOCK_RECORD
5
1
100
AcDbSymbolTable
70
1
0
BLOCK_RECORD
5
1F
100
AcDbSymbolTableRecord
100
AcDbBlockTableRecord
2
*MODEL_SPACE
0
BLOCK_RECORD
5
1B
100
AcDbSymbolTableRecord
100
AcDbBlockTableRecord
2
*PAPER_SPACE
0
ENDTAB
0
ENDSEC
0
SECTION
2
BLOCKS
0
BLOCK
5
20
100
AcDbEntity
100
AcDbBlockBegin
2
*MODEL_SPACE
0
ENDBLK
5
21
100
AcDbEntity
100
AcDbBlockEnd
0
BLOCK
5
1C
100
AcDbEntity
100
AcDbBlockBegin
2
*PAPER_SPACE
0
ENDBLK
5
1D
100
AcDbEntity
100
AcDbBlockEnd
0
ENDSEC
0
SECTION
2
ENTITIES
0
CIRCLE
5
100
100
AcDbEntity
8
0
100
AcDbCircle
10
8.5999999999999996
20
0
30
0
40
1.6000000000000003
0
LWPOLYLINE
5
101
100
AcDbEntity
8
0
100
AcDbPolyline
90
8
70
1
43
0.0
10
-48.000000000000007
20
16
10
-48.000000000000007
20
18.100000000000001
42
0.41421356237309959
10
-50.000000000000007
20
20.100000000000001
10
-52.100000000000009
20
20.100000000000001
42
0.41421356237309243
10
-54.100000000000001
20
18.100000000000001
10
-54.100000000000001
20
16
42
0.41421356237309404
10
-52.100000000000001
20
14.000000000000002
10
-50
20
14.000000000000002
42
0.41421356237309404
0
LWPOLYLINE
5
102
100
AcDbEntity
8
0
100
AcDbPolyline
90
8
70
1
43
0.0
10
-39.5
20
16
10
-39.5
20
18.100000000000001
42
0.41421356237309437
10
-41.5
20
20.100000000000001
10
-43.600000000000001
20
20.100000000000001
42
0.41421356237309176
10
-45.599999999999994
20
18.100000000000001
10
-45.599999999999994
20
16
42
0.4142135623730947
10
-43.599999999999994
20
14.000000000000002
10
-41.5
20
14.000000000000002
42
0.41421356237309437
0
LWPOLYLINE
5
103
100
AcDbEntity
8
0
100
AcDbPolyline
90
8
70
1
43
0.0
10
-31.000000000000007
20
16
10
-31.000000000000007
20
18.100000000000001
42
0.41421356237309598
10
-33
20
20.100000000000001
10
-35.100000000000001
20
20.100000000000001
42
0.4142135623730947
10
-37.100000000000001
20
18.100000000000001
10
-37.100000000000001
20
16
42
0.41421356237309698
10
-35.100000000000001
20
14.000000000000002
10
-33
20
14.000000000000002
42
0.41421356237309664
0
LWPOLYLINE
5
104
100
AcDbEntity
8
0
100
AcDbPolyline
90
8
70
1
43
0.0
10
-14.000000000000002
20
16
10
-14.000000000000002
20
18.100000000000001
42
0.4142135623730957
10
-16
20
20.100000000000001
10
-18.100000000000001
20
20.100000000000001
42
0.41421356237309309
10
-20.100000000000001
20
18.100000000000001
10
-20.100000000000001
20
16
42
0.41421356237309503
10
-18.100000000000001
20
14.000000000000002
10
-16
20
14.000000000000002
42
0.41421356237309437
0
LWPOLYLINE
5
105
100
AcDbEntity
8
0
100
AcDbPolyline
90
8
70
1
43
0.0
10
-5.5
20
16
10
-5.5
20
18.100000000000001
42
0.4142135623730957
10
-7.5
20
20.100000000000001
10
-9.6000000000000014
20
20.100000000000001
42
0.4142135623730947
10
-11.600000000000001
20
18.100000000000001
10
-11.6
20
16
42
0.41421356237309459
10
-9.5999999999999979
20
14.000000000000002
10
-7.5
20
14.000000000000002
42
0.41421356237309459
0
LWPOLYLINE
5
106
100
AcDbEntity
8
0
100
AcDbPolyline
90
8
70
1
43
0.0
10
3.0000000000000004
20
16
10
3.0000000000000004
20
18.100000000000001
42
0.41421356237309576
10
1.0000000000000004
20
20.100000000000001
10
-1.0999999999999992
20
20.100000000000001
42
0.41421356237309437
10
-3.0999999999999996
20
18.100000000000001
10
-3.0999999999999983
20
16
42
0.41421356237309587
10
-1.0999999999999979
20
14.000000000000002
10
1.0000000000000007
20
14.000000000000002
42
0.41421356237309453
0
LWPOLYLINE
5
107
100
AcDbEntity
8
0
100
AcDbPolyline
90
8
70
1
43
0.0
10
11.500000000000002
20
16
10
11.500000000000002
20
18.100000000000001
42
0.41421356237309553
10
9.5000000000000018
20
20.100000000000001
10
7.4000000000000012
20
20.100000000000001
42
0.41421356237309426
10
5.4000000000000012
20
18.100000000000001
10
5.4000000000000021
20
16
42
0.41421356237309404
10
7.400000000000003
20
14.000000000000002
10
9.5000000000000018
20
14.000000000000002
42
0.41421356237309437
0
LWPOLYLINE
5
108
100
AcDbEntity
8
0
100
AcDbPolyline
90
8
70
1
43
0.0
10
20
20
16
10
20
20
18.100000000000001
42
0.41421356237309698
10
18.000000000000004
20
20.100000000000001
10
15.900000000000002
20
20.100000000000001
42
0.41421356237309503
10
13.900000000000002
20
18.100000000000001
10
13.900000000000004
20
16
42
0.41421356237309437
10
15.900000000000002
20
14.000000000000002
10
18.000000000000004
20
14.000000000000002
42
0.41421356237309631
0
LWPOLYLINE
5
109
100
AcDbEntity
8
0
100
AcDbPolyline
90
8
70
1
43
0.0
10
28.500000000000007
20
16
10
28.500000000000007
20
18.100000000000001
42
0.41421356237309437
10
26.500000000000004
20
20.100000000000001
10
24.400000000000006
20
20.100000000000001
42
0.41421356237309342
10
22.400000000000002
20
18.100000000000001
10
22.400000000000002
20
16
42
0.4142135623730957
10
24.400000000000006
20
14.000000000000002
10
26.500000000000004
20
14.000000000000002
42
0.41421356237309437
0
LWPOLYLINE
5
110
100
AcDbEntity
8
0
100
AcDbPolyline
90
8
70
1
43
0.0
10
37
20
16
10
37
20
18.100000000000001
42
0.41421356237309598
10
35.000000000000007
20
20.100000000000001
10
32.900000000000006
20
20.100000000000001
42
0.4142135623730947
10
30.900000000000002
20
18.100000000000001
10
30.900000000000002
20
16
42
0.41421356237309698
10
32.900000000000006
20
14.000000000000002
10
35.000000000000007
20
14.000000000000002
42
0.41421356237309664
0
LWPOLYLINE
5
111
100
AcDbEntity
8
0
100
AcDbPolyline
90
8
70
1
43
0.0
10
-56.500000000000014
20
7.5
10
-56.500000000000014
20
9.6000000000000014
42
0.41421356237309293
10
-58.500000000000014
20
11.600000000000001
10
-60.600000000000016
20
11.6
42
0.41421356237309437
10
-62.600000000000009
20
9.5999999999999979
10
-62.600000000000009
20
7.5
42
0.41421356237309459
10
-60.600000000000009
20
5.5
10
-58.500000000000014
20
5.5
42
0.41421356237309459
0
LWPOLYLINE
5
112
100
AcDbEntity
8
0
100
AcDbPolyline
90
8
70
1
43
0.0
10
-48.000000000000007
20
7.5
10
-48.000000000000007
20
9.6000000000000014
42
0.41421356237309653
10
-50.000000000000007
20
11.600000000000001
10
-52.100000000000009
20
11.6
42
0.41421356237309503
10
-54.100000000000001
20
9.5999999999999979
10
-54.100000000000001
20
7.5
42
0.41421356237309265
10
-52.100000000000001
20
5.5
10
-50
20
5.5
42
0.41421356237309537
0
LWPOLYLINE
5
113
100
AcDbEntity
8
0
100
AcDbPolyline
90
8
70
1
43
0.0
10
-39.5
20
7.5
10
-39.5
20
9.6000000000000014
42
0.41421356237309265
10
-41.5
20
11.600000000000001
10
-43.600000000000001
20
11.6
42
0.41421356237309437
10
-45.599999999999994
20
9.5999999999999979
10
-45.599999999999994
20
7.5
42
0.41421356237309459
10
-43.599999999999994
20
5.5
10
-41.5
20
5.5
42
0.41421356237309426
0
LWPOLYLINE
5
114
100
AcDbEntity
8
0
100
AcDbPolyline
90
8
70
1
43
0.0
10
-31.000000000000007
20
7.5
10
-31.000000000000007
20
9.6000000000000014
42
0.41421356237309653
10
-33
20
11.600000000000001
10
-35.100000000000001
20
11.6
42
0.41421356237309731
10
-37.100000000000001
20
9.5999999999999979
10
-37.100000000000001
20
7.5
42
0.41421356237309698
10
-35.100000000000001
20
5.5
10
-33
20
5.5
42
0.41421356237309748
0
LWPOLYLINE
5
115
100
AcDbEntity
8
0
100
AcDbPolyline
90
8
70
1
43
0.0
10
-22.5
20
7.5
10
-22.5
20
9.6000000000000014
42
0.41421356237309326
10
-24.5
20
11.600000000000001
10
-26.600000000000001
20
11.6
42
0.41421356237309598
10
-28.600000000000001
20
9.5999999999999979
10
-28.600000000000001
20
7.5
42
0.41421356237309503
10
-26.600000000000001
20
5.5
10
-24.5
20
5.5
42
0.41421356237309359
0
LWPOLYLINE
5
116
100
AcDbEntity
8
0
100
AcDbPolyline
90
8
70
1
43
0.0
10
-14.000000000000002
20
7.5
10
-14.000000000000002
20
9.6000000000000014
42
0.41421356237309392
10
-16
20
11.600000000000001
10
-18.100000000000001
20
11.6
42
0.41421356237309553
10
-20.100000000000001
20
9.5999999999999979
10
-20.100000000000001
20
7.5
42
0.4142135623730947
10
-18.100000000000001
20
5.5
10
-16
20
5.5
42
0.41421356237309459
0
LWPOLYLINE
5
117
100
AcDbEntity
8
0
100
AcDbPolyline
90
8
70
1
43
0.0
10
-5.5
20
7.5
10
-5.5
20
9.6000000000000014
42
0.41421356237309426
10
-7.5
20
11.600000000000001
10
-9.6000000000000014
20
11.6
42
0.4142135623730957
10
-11.600000000000001
20
9.5999999999999979
10
-11.6
20
7.5
42
0.41421356237309492
10
-9.5999999999999979
20
5.5
10
-7.5
20
5.5
42
0.41421356237309492
0
LWPOLYLINE
5
118
100
AcDbEntity
8
0
100
AcDbPolyline
90
8
70
1
43
0.0
10
3.0000000000000004
20
7.5
10
3.0000000000000004
20
9.6000000000000014
42
0.41421356237309498
10
1.0000000000000004
20
11.600000000000001
10
-1.0999999999999994
20
11.6
42
0.41421356237309498
10
-3.0999999999999996
20
9.5999999999999979
10
-3.0999999999999983
20
7.5
42
0.41421356237309465
10
-1.0999999999999979
20
5.5
10
1.0000000000000007
20
5.5
42
0.41421356237309476
0
LWPOLYLINE
5
119
100
AcDbEntity
8
0
100
AcDbPolyline
90
8
70
1
43
0.0
10
11.500000000000002
20
7.5
10
11.500000000000002
20
9.6000000000000014
42
0.4142135623730937
10
9.5000000000000018
20
11.600000000000001
10
7.4000000000000012
20
11.6
42
0.41421356237309492
10
5.4000000000000012
20
9.5999999999999979
10
5.4000000000000021
20
7.5
42
0.41421356237309426
10
7.400000000000003
20
5.5
10
9.5000000000000018
20
5.5
42
0.41421356237309459
0
LWPOLYLINE
5
120
100
AcDbEntity
8
0
100
AcDbPolyline
90
8
70
1
43
0.0
10
20
20
7.5
10
20
20
9.6000000000000014
42
0.4142135623730962
10
18.000000000000004
20
11.600000000000001
10
15.900000000000002
20
11.6
42
0.41421356237309459
10
13.900000000000002
20
9.5999999999999979
10
13.900000000000004
20
7.5
42
0.41421356237309459
10
15.900000000000002
20
5.5
10
18.000000000000004
20
5.5
42
0.41421356237309664
0
LWPOLYLINE
5
121
100
AcDbEntity
8
0
100
AcDbPolyline
90
8
70
1
43
0.0
10
28.500000000000007
20
7.5
10
28.500000000000007
20
9.6000000000000014
42
0.41421356237309326
10
26.500000000000004
20
11.600000000000001
10
24.400000000000006
20
11.6
42
0.41421356237309598
10
22.400000000000002
20
9.5999999999999979
10
22.400000000000002
20
7.5
42
0.41421356237309503
10
24.400000000000006
20
5.5
10
26.500000000000004
20
5.5
42
0.41421356237309359
0
LWPOLYLINE
5
122
100
AcDbEntity
8
0
100
AcDbPolyline
90
8
70
1
43
0.0
10
37
20
7.5
10
37
20
9.6000000000000014
42
0.41421356237309653
10
35.000000000000007
20
11.600000000000001
10
32.900000000000006
20
11.6
42
0.41421356237309731
10
30.900000000000002
20
9.5999999999999979
10
30.900000000000002
20
7.5
42
0.41421356237309698
10
32.900000000000006
20
5.5
10
35.000000000000007
20
5.5
42
0.41421356237309748
0
LWPOLYLINE
5
123
100
AcDbEntity
8
0
100
AcDbPolyline
90
8
70
1
43
0.0
10
45.5
20
7.5
10
45.5
20
9.6000000000000014
42
0.41421356237309293
10
43.5
20
11.600000000000001
10
41.399999999999999
20
11.6
42
0.41421356237309537
10
39.399999999999999
20
9.5999999999999979
10
39.400000000000006
20
7.5
42
0.41421356237309503
10
41.400000000000006
20
5.5
10
43.5
20
5.5
42
0.41421356237309459
0
LWPOLYLINE
5
124
100
AcDbEntity
8
0
100
AcDbPolyline
90
8
70
1
43
0.0
10
54
20
7.5
10
54
20
9.6000000000000014
42
0.41421356237309653
10
52
20
11.600000000000001
10
49.900000000000006
20
11.6
42
0.41421356237309503
10
47.900000000000006
20
9.5999999999999979
10
47.900000000000006
20
7.5
42
0.41421356237309265
10
49.900000000000013
20
5.5
10
52.000000000000014
20
5.5
42
0.41421356237309537
0
LWPOLYLINE
5
125
100
AcDbEntity
8
0
100
AcDbPolyline
90
8
70
1
43
0.0
10
-56.500000000000014
20
-1.0000000000000004
10
-56.500000000000014
20
1.1000000000000001
42
0.41421356237309442
10
-58.500000000000014
20
3.0999999999999996
10
-60.600000000000016
20
3.0999999999999996
42
0.41421356237309248
10
-62.600000000000009
20
1.0999999999999979
10
-62.600000000000009
20
-1.0000000000000013
42
0.41421356237309426
10
-60.600000000000009
20
-3.0000000000000004
10
-58.500000000000014
20
-3.0000000000000004
42
0.41421356237309426
0
LWPOLYLINE
5
126
100
AcDbEntity
8
0
100
AcDbPolyline
90
8
70
1
43
0.0
10
-48.000000000000007
20
-1.0000000000000004
10
-48.000000000000007
20
1.1000000000000001
42
0.41421356237309814
10
-50.000000000000007
20
3.0999999999999996
10
-52.100000000000009
20
3.0999999999999996
42
0.41421356237309315
10
-54.100000000000001
20
1.0999999999999979
10
-54.100000000000001
20
-1.0000000000000013
42
0.41421356237309231
10
-52.100000000000001
20
-3.0000000000000004
10
-50
20
-3.0000000000000004
42
0.41421356237309415
0
LWPOLYLINE
5
127
100
AcDbEntity
8
0
100
AcDbPolyline
90
8
70
1
43
0.0
10
-39.5
20
-1.0000000000000004
10
-39.5
20
1.1000000000000001
42
0.41421356237309404
10
-41.5
20
3.0999999999999996
10
-43.600000000000001
20
3.0999999999999996
42
0.41421356237309248
10
-45.599999999999994
20
1.0999999999999979
10
-45.599999999999994
20
-1.0000000000000013
42
0.41421356237309426
10
-43.599999999999994
20
-3.0000000000000004
10
-41.5
20
-3
42
0.41421356237309265
0
LWPOLYLINE
5
128
100
AcDbEntity
8
0
100
AcDbPolyline
90
8
70
1
43
0.0
10
-31.000000000000007
20
-1.0000000000000004
10
-31.000000000000007
20
1.1000000000000001
42
0.41421356237309664
10
-33
20
3.0999999999999996
10
-35.100000000000001
20
3.0999999999999996
42
0.4142135623730962
10
-37.100000000000001
20
1.0999999999999979
10
-37.100000000000001
20
-1.0000000000000013
42
0.41421356237309337
10
-35.100000000000001
20
-3.0000000000000004
10
-33
20
-3.0000000000000004
42
0.41421356237309659
0
LWPOLYLINE
5
129
100
AcDbEntity
8
0
100
AcDbPolyline
90
8
70
1
43
0.0
10
-22.5
20
-1.0000000000000004
10
-22.5
20
1.1000000000000001
42
0.41421356237309342
10
-24.5
20
3.0999999999999996
10
-26.600000000000001
20
3.0999999999999996
42
0.41421356237309492
10
-28.600000000000001
20
1.0999999999999979
10
-28.600000000000001
20
-1.0000000000000013
42
0.41421356237309337
10
-26.600000000000001
20
-3.0000000000000004
10
-24.5
20
-3
42
0.41421356237309326
0
LWPOLYLINE
5
130
100
AcDbEntity
8
0
100
AcDbPolyline
90
8
70
1
43
0.0
10
-14.000000000000002
20
-1.0000000000000004
10
-14.000000000000002
20
1.1000000000000001
42
0.41421356237309453
10
-16
20
3.0999999999999996
10
-18.100000000000001
20
3.0999999999999996
42
0.41421356237309553
10
-20.100000000000001
20
1.0999999999999979
10
-20.100000000000001
20
-1.0000000000000013
42
0.4142135623730942
10
-18.100000000000001
20
-3.0000000000000004
10
-16
20
-3.0000000000000004
42
0.41421356237309453
0
LWPOLYLINE
5
131
100
AcDbEntity
8
0
100
AcDbPolyline
90
8
70
1
43
0.0
10
-5.5
20
-1.0000000000000004
10
-5.5
20
1.1000000000000001
42
0.41421356237309476
10
-7.5
20
3.0999999999999996
10
-9.6000000000000014
20
3.0999999999999996
42
0.41421356237309553
10
-11.600000000000001
20
1.0999999999999979
10
-11.6
20
-1.0000000000000013
42
0.41421356237309515
10
-9.5999999999999979
20
-3.0000000000000004
10
-7.5
20
-3.0000000000000004
42
0.41421356237309476
0
LWPOLYLINE
5
132
100
AcDbEntity
8
0
100
AcDbPolyline
90
8
70
1
43
0.0
10
20
20
-1.0000000000000004
10
20
20
1.1000000000000001
42
0.41421356237309653
10
18.000000000000004
20
3.0999999999999996
10
15.900000000000002
20
3.0999999999999996
42
0.41421356237309553
10
13.900000000000002
20
1.0999999999999979
10
13.900000000000004
20
-1.0000000000000013
42
0.41421356237309459
10
15.900000000000002
20
-3.0000000000000004
10
18.000000000000004
20
-3.0000000000000004
42
0.41421356237309614
0
LWPOLYLINE
5
133
100
AcDbEntity
8
0
100
AcDbPolyline
90
8
70
1
43
0.0
10
28.500000000000007
20
-1.0000000000000004
10
28.500000000000007
20
1.1000000000000001
42
0.41421356237309342
10
26.500000000000004
20
3.0999999999999996
10
24.400000000000006
20
3.0999999999999996
42
0.41421356237309492
10
22.400000000000002
20
1.0999999999999979
10
22.400000000000002
20
-1.0000000000000013
42
0.41421356237309337
10
24.400000000000006
20
-3.0000000000000004
10
26.500000000000004
20
-3
42
0.41421356237309326
0
LWPOLYLINE
5
134
100
AcDbEntity
8
0
100
AcDbPolyline
90
8
70
1
43
0.0
10
37
20
-1.0000000000000004
10
37
20
1.1000000000000001
42
0.41421356237309664
10
35.000000000000007
20
3.0999999999999996
10
32.900000000000006
20
3.0999999999999996
42
0.4142135623730962
10
30.900000000000002
20
1.0999999999999979
10
30.900000000000002
20
-1.0000000000000013
42
0.41421356237309337
10
32.900000000000006
20
-3.0000000000000004
10
35.000000000000007
20
-3.0000000000000004
42
0.41421356237309659
0
LWPOLYLINE
5
135
100
AcDbEntity
8
0
100
AcDbPolyline
90
8
70
1
43
0.0
10
45.5
20
-1.0000000000000004
10
45.5
20
1.1000000000000001
42
0.41421356237309442
10
43.5
20
3.0999999999999996
10
41.399999999999999
20
3.0999999999999996
42
0.41421356237309492
10
39.399999999999999
20
1.0999999999999979
10
39.400000000000006
20
-1.0000000000000013
42
0.41421356237309398
10
41.400000000000006
20
-3.0000000000000004
10
43.5
20
-3.0000000000000004
42
0.41421356237309426
0
LWPOLYLINE
5
136
100
AcDbEntity
8
0
100
AcDbPolyline
90
8
70
1
43
0.0
10
54
20
-1.0000000000000004
10
54
20
1.1000000000000001
42
0.41421356237309814
10
52
20
3.0999999999999996
10
49.900000000000006
20
3.0999999999999996
42
0.41421356237309315
10
47.900000000000006
20
1.0999999999999979
10
47.900000000000006
20
-1.0000000000000013
42
0.41421356237309231
10
49.900000000000013
20
-3.0000000000000004
10
52.000000000000014
20
-3.0000000000000004
42
0.41421356237309415
0
LWPOLYLINE
5
137
100
AcDbEntity
8
0
100
AcDbPolyline
90
8
70
1
43
0.0
10
-56.500000000000014
20
-9.5000000000000018
10
-56.500000000000014
20
-7.4000000000000012
42
0.41421356237309426
10
-58.500000000000014
20
-5.4000000000000012
10
-60.600000000000016
20
-5.4000000000000012
42
0.41421356237309243
10
-62.600000000000009
20
-7.400000000000003
10
-62.600000000000009
20
-9.5000000000000018
42
0.41421356237309265
10
-60.600000000000009
20
-11.500000000000002
10
-58.500000000000014
20
-11.500000000000002
42
0.4142135623730947
0
LWPOLYLINE
5
138
100
AcDbEntity
8
0
100
AcDbPolyline
90
8
70
1
43
0.0
10
-48.000000000000007
20
-9.5000000000000018
10
-48.000000000000007
20
-7.4000000000000012
42
0.41421356237309814
10
-50.000000000000007
20
-5.4000000000000012
10
-52.100000000000009
20
-5.4000000000000012
42
0.41421356237309309
10
-54.100000000000001
20
-7.400000000000003
10
-54.100000000000001
20
-9.5000000000000018
42
0.41421356237309198
10
-52.100000000000001
20
-11.500000000000002
10
-50
20
-11.500000000000002
42
0.41421356237309404
0
LWPOLYLINE
5
139
100
AcDbEntity
8
0
100
AcDbPolyline
90
8
70
1
43
0.0
10
-39.5
20
-9.5000000000000018
10
-39.5
20
-7.4000000000000012
42
0.41421356237309276
10
-41.5
20
-5.4000000000000012
10
-43.600000000000001
20
-5.4000000000000012
42
0.41421356237309243
10
-45.599999999999994
20
-7.400000000000003
10
-45.599999999999994
20
-9.5000000000000018
42
0.41421356237309265
10
-43.599999999999994
20
-11.500000000000002
10
-41.5
20
-11.500000000000002
42
0.41421356237309437
0
LWPOLYLINE
5
140
100
AcDbEntity
8
0
100
AcDbPolyline
90
8
70
1
43
0.0
10
-31.000000000000007
20
-9.5000000000000018
10
-31.000000000000007
20
-7.4000000000000012
42
0.41421356237309664
10
-33
20
-5.4000000000000012
10
-35.100000000000001
20
-5.4000000000000012
42
0.4142135623730962
10
-37.100000000000001
20
-7.400000000000003
10
-37.100000000000001
20
-9.5000000000000018
42
0.4142135623730957
10
-35.100000000000001
20
-11.500000000000002
10
-33
20
-11.500000000000002
42
0.41421356237309664
0
LWPOLYLINE
5
141
100
AcDbEntity
8
0
100
AcDbPolyline
90
8
70
1
43
0.0
10
-22.5
20
-9.5000000000000018
10
-22.5
20
-7.4000000000000012
42
0.41421356237309342
10
-24.5
20
-5.4000000000000012
10
-26.600000000000001
20
-5.4000000000000012
42
0.41421356237309492
10
-28.600000000000001
20
-7.400000000000003
10
-28.600000000000001
20
-9.5000000000000018
42
0.4142135623730937
10
-26.600000000000001
20
-11.500000000000002
10
-24.5
20
-11.500000000000002
42
0.41421356237309437
0
LWPOLYLINE
5
142
100
AcDbEntity
8
0
100
AcDbPolyline
90
8
70
1
43
0.0
10
-14.000000000000002
20
-9.5000000000000018
10
-14.000000000000002
20
-7.4000000000000012
42
0.41421356237309459
10
-16
20
-5.4000000000000012
10
-18.100000000000001
20
-5.4000000000000012
42
0.41421356237309404
10
-20.100000000000001
20
-7.400000000000003
10
-20.100000000000001
20
-9.5000000000000018
42
0.41421356237309342
10
-18.100000000000001
20
-11.500000000000002
10
-16
20
-11.500000000000002
42
0.41421356237309437
0
LWPOLYLINE
5
143
100
AcDbEntity
8
0
100
AcDbPolyline
90
8
70
1
43
0.0
10
-5.5
20
-9.5000000000000018
10
-5.5
20
-7.4000000000000012
42
0.4142135623730947
10
-7.5
20
-5.4000000000000012
10
-9.6000000000000014
20
-5.4000000000000012
42
0.41421356237309537
10
-11.600000000000001
20
-7.400000000000003
10
-11.6
20
-9.5000000000000018
42
0.41421356237309459
10
-9.5999999999999979
20
-11.500000000000002
10
-7.5
20
-11.500000000000002
42
0.41421356237309459
0
LWPOLYLINE
5
144
100
AcDbEntity
8
0
100
AcDbPolyline
90
8
70
1
43
0.0
10
3.0000000000000004
20
-9.5000000000000018
10
3.0000000000000004
20
-7.4000000000000012
42
0.41421356237309515
10
1.0000000000000004
20
-5.4000000000000012
10
-1.0999999999999994
20
-5.4000000000000012
42
0.4142135623730952
10
-3.0999999999999996
20
-7.400000000000003
10
-3.0999999999999983
20
-9.5000000000000018
42
0.41421356237309437
10
-1.0999999999999979
20
-11.500000000000002
10
1.0000000000000007
20
-11.500000000000002
42
0.41421356237309453
0
LWPOLYLINE
5
145
100
AcDbEntity
8
0
100
AcDbPolyline
90
8
70
1
43
0.0
10
11.500000000000002
20
-9.5000000000000018
10
11.500000000000002
20
-7.4000000000000012
42
0.41421356237309459
10
9.5000000000000018
20
-5.4000000000000012
10
7.4000000000000012
20
-5.4000000000000012
42
0.41421356237309492
10
5.4000000000000012
20
-7.400000000000003
10
5.4000000000000021
20
-9.5000000000000018
42
0.41421356237309404
10
7.400000000000003
20
-11.500000000000002
10
9.5000000000000018
20
-11.500000000000002
42
0.41421356237309437
0
LWPOLYLINE
5
146
100
AcDbEntity
8
0
100
AcDbPolyline
90
8
70
1
43
0.0
10
20
20
-9.5000000000000018
10
20
20
-7.4000000000000012
42
0.4142135623730962
10
18.000000000000004
20
-5.4000000000000012
10
15.900000000000002
20
-5.4000000000000012
42
0.41421356237309553
10
13.900000000000002
20
-7.400000000000003
10
13.900000000000004
20
-9.5000000000000018
42
0.41421356237309437
10
15.900000000000002
20
-11.500000000000002
10
18.000000000000004
20
-11.500000000000002
42
0.41421356237309653
0
LWPOLYLINE
5
147
100
AcDbEntity
8
0
100
AcDbPolyline
90
8
70
1
43
0.0
10
28.500000000000007
20
-9.5000000000000018
10
28.500000000000007
20
-7.4000000000000012
42
0.41421356237309342
10
26.500000000000004
20
-5.4000000000000012
10
24.400000000000006
20
-5.4000000000000012
42
0.41421356237309492
10
22.400000000000002
20
-7.400000000000003
10
22.400000000000002
20
-9.5000000000000018
42
0.4142135623730937
10
24.400000000000006
20
-11.500000000000002
10
26.500000000000004
20
-11.500000000000002
42
0.41421356237309437
0
LWPOLYLINE
5
148
100
AcDbEntity
8
0
100
AcDbPolyline
90
8
70
1
43
0.0
10
37
20
-9.5000000000000018
10
37
20
-7.4000000000000012
42
0.41421356237309664
10
35.000000000000007
20
-5.4000000000000012
10
32.900000000000006
20
-5.4000000000000012
42
0.4142135623730962
10
30.900000000000002
20
-7.400000000000003
10
30.900000000000002
20
-9.5000000000000018
42
0.4142135623730957
10
32.900000000000006
20
-11.500000000000002
10
35.000000000000007
20
-11.500000000000002
42
0.41421356237309664
0
LWPOLYLINE
5
149
100
AcDbEntity
8
0
100
AcDbPolyline
90
8
70
1
43
0.0
10
45.5
20
-9.5000000000000018
10
45.5
20
-7.4000000000000012
42
0.41421356237309426
10
43.5
20
-5.4000000000000012
10
41.399999999999999
20
-5.4000000000000012
42
0.41421356237309492
10
39.399999999999999
20
-7.400000000000003
10
39.400000000000006
20
-9.5000000000000018
42
0.41421356237309437
10
41.400000000000006
20
-11.500000000000002
10
43.5
20
-11.500000000000002
42
0.4142135623730947
0
LWPOLYLINE
5
150
100
AcDbEntity
8
0
100
AcDbPolyline
90
8
70
1
43
0.0
10
54
20
-9.5000000000000018
10
54
20
-7.4000000000000012
42
0.41421356237309814
10
52
20
-5.4000000000000012
10
49.900000000000006
20
-5.4000000000000012
42
0.41421356237309309
10
47.900000000000006
20
-7.400000000000003
10
47.900000000000006
20
-9.5000000000000018
42
0.41421356237309198
10
49.900000000000013
20
-11.500000000000002
10
52.000000000000014
20
-11.500000000000002
42
0.41421356237309404
0
LWPOLYLINE
5
151
100
AcDbEntity
8
0
100
AcDbPolyline
90
8
70
1
43
0.0
10
-48.000000000000007
20
-18.000000000000004
10
-48.000000000000007
20
-15.9
42
0.41421356237309798
10
-50.000000000000007
20
-13.900000000000002
10
-52.100000000000009
20
-13.900000000000004
42
0.4142135623730947
10
-54.100000000000001
20
-15.900000000000002
10
-54.100000000000001
20
-18.000000000000004
42
0.41421356237309176
10
-52.100000000000001
20
-20
10
-50
20
-20
42
0.41421356237309209
0
LWPOLYLINE
5
152
100
AcDbEntity
8
0
100
AcDbPolyline
90
8
70
1
43
0.0
10
-39.5
20
-18.000000000000004
10
-39.5
20
-15.9
42
0.41421356237309404
10
-41.5
20
-13.900000000000002
10
-43.600000000000001
20
-13.900000000000004
42
0.41421356237309404
10
-45.599999999999994
20
-15.900000000000002
10
-45.599999999999994
20
-18.000000000000004
42
0.41421356237309243
10
-43.599999999999994
20
-20
10
-41.5
20
-20
42
0.4142135623730947
0
LWPOLYLINE
5
153
100
AcDbEntity
8
0
100
AcDbPolyline
90
8
70
1
43
0.0
10
-31.000000000000007
20
-18.000000000000004
10
-31.000000000000007
20
-15.9
42
0.41421356237309731
10
-33
20
-13.900000000000002
10
-35.100000000000001
20
-13.900000000000004
42
0.41421356237309698
10
-37.100000000000001
20
-15.900000000000002
10
-37.100000000000001
20
-18.000000000000004
42
0.4142135623730947
10
-35.100000000000001
20
-20
10
-33
20
-20
42
0.41421356237309764
0
LWPOLYLINE
5
154
100
AcDbEntity
8
0
100
AcDbPolyline
90
8
70
1
43
0.0
10
-14.000000000000002
20
-18.000000000000004
10
-14.000000000000002
20
-15.9
42
0.4142135623730957
10
-16
20
-13.900000000000002
10
-18.100000000000001
20
-13.900000000000004
42
0.41421356237309503
10
-20.100000000000001
20
-15.900000000000002
10
-20.100000000000001
20
-18.000000000000004
42
0.41421356237309309
10
-18.100000000000001
20
-20
10
-16
20
-20
42
0.41421356237309631
0
LWPOLYLINE
5
155
100
AcDbEntity
8
0
100
AcDbPolyline
90
8
70
1
43
0.0
10
-5.5
20
-18.000000000000004
10
-5.5
20
-15.9
42
0.41421356237309598
10
-7.5
20
-13.900000000000002
10
-9.6000000000000014
20
-13.900000000000004
42
0.41421356237309553
10
-11.600000000000001
20
-15.900000000000002
10
-11.6
20
-18.000000000000004
42
0.4142135623730937
10
-9.5999999999999979
20
-20
10
-7.5
20
-20
42
0.41421356237309664
0
LWPOLYLINE
5
156
100
AcDbEntity
8
0
100
AcDbPolyline
90
8
70
1
43
0.0
10
3.0000000000000004
20
-18.000000000000004
10
3.0000000000000004
20
-15.9
42
0.41421356237309548
10
1.0000000000000004
20
-13.900000000000002
10
-1.0999999999999992
20
-13.900000000000004
42
0.41421356237309459
10
-3.0999999999999996
20
-15.900000000000002
10
-3.0999999999999983
20
-18.000000000000004
42
0.41421356237309387
10
-1.0999999999999979
20
-20
10
1.0000000000000007
20
-20
42
0.4142135623730962
0
LWPOLYLINE
5
157
100
AcDbEntity
8
0
100
AcDbPolyline
90
8
70
1
43
0.0
10
11.500000000000002
20
-18.000000000000004
10
11.500000000000002
20
-15.9
42
0.4142135623730957
10
9.5000000000000018
20
-13.900000000000002
10
7.4000000000000012
20
-13.900000000000004
42
0.41421356237309459
10
5.4000000000000012
20
-15.900000000000002
10
5.4000000000000021
20
-18.000000000000004
42
0.4142135623730937
10
7.400000000000003
20
-20
10
9.5000000000000018
20
-20
42
0.41421356237309653
0
LWPOLYLINE
5
158
100
AcDbEntity
8
0
100
AcDbPolyline
90
8
70
1
43
0.0
10
20
20
-18.000000000000004
10
20
20
-15.9
42
0.41421356237309503
10
18.000000000000004
20
-13.900000000000002
10
15.900000000000002
20
-13.900000000000004
42
0.41421356237309437
10
13.900000000000002
20
-15.900000000000002
10
13.900000000000004
20
-18.000000000000004
42
0.41421356237309503
10
15.900000000000002
20
-20
10
18.000000000000004
20
-20
42
0.4142135623730957
0
LWPOLYLINE
5
159
100
AcDbEntity
8
0
100
AcDbPolyline
90
8
70
1
43
0.0
10
28.500000000000007
20
-18.000000000000004
10
28.500000000000007
20
-15.9
42
0.41421356237309404
10
26.500000000000004
20
-13.900000000000002
10
24.400000000000006
20
-13.900000000000004
42
0.41421356237309503
10
22.400000000000002
20
-15.900000000000002
10
22.400000000000002
20
-18.000000000000004
42
0.41421356237309342
10
24.400000000000006
20
-20
10
26.500000000000004
20
-20
42
0.4142135623730947
0
LWPOLYLINE
5
160
100
AcDbEntity
8
0
100
AcDbPolyline
90
8
70
1
43
0.0
10
37
20
-18.000000000000004
10
37
20
-15.9
42
0.41421356237309731
10
35.000000000000007
20
-13.900000000000002
10
32.900000000000006
20
-13.900000000000004
42
0.41421356237309698
10
30.900000000000002
20
-15.900000000000002
10
30.900000000000002
20
-18.000000000000004
42
0.4142135623730947
10
32.900000000000006
20
-20
10
35.000000000000007
20
-20
42
0.41421356237309764
0
LWPOLYLINE
5
161
100
AcDbEntity
8
0
100
AcDbPolyline
90
8
70
1
43
0.0
10
3.0000000000000004
20
-1.0000000000000004
10
3.0000000000000004
20
1.1000000000000001
42
0.41421356237309515
10
1.0000000000000004
20
3.0999999999999996
10
-1.0999999999999992
20
3.0999999999999996
42
0.41421356237309515
10
-3.0999999999999996
20
1.0999999999999979
10
-3.0999999999999983
20
-1.0000000000000011
42
0.4142135623730947
10
-1.0999999999999979
20
-3.0000000000000004
10
1.0000000000000007
20
-3.0000000000000004
42
0.41421356237309492
0
CIRCLE
5
162
100
AcDbEntity
8
0
100
AcDbCircle
10
47.595528301313081
20
20
30
0
40
1.6000000000000014
0
CIRCLE
5
163
100
AcDbEntity
8
0
100
AcDbCircle
10
47.595528301313081
20
-20.000000298023224
30
0
40
1.6000000000000014
0
CIRCLE
5
164
100
AcDbEntity
8
0
100
AcDbCircle
10
-27.154020347717033
20
22.945051496685881
30
0
40
1.6000000000000014
0
LWPOLYLINE
5
165
100
AcDbEntity
8
0
100
AcDbPolyline
90
4
70
1
43
0.0
10
-13.40447227983223
20
23.400000372529028
10
8.5955277201677802
20
23.400000372529043
42
0.99999999999999989
10
8.5955277201677802
20
26.600000372529017
10
-13.40447227983223
20
26.600000372529031
42
0.99999999999999989
0
LWPOLYLINE
5
166
100
AcDbEntity
8
0
100
AcDbPolyline
90
4
70
1
43
0.0
10
-13.404472279832223
20
-26.600000372529031
10
8.5955277201677784
20
-26.600000372529067
42
0.99999999999999989
10
8.5955277201677838
20
-23.400000372528993
10
-13.404472279832223
20
-23.400000372529028
42
0.99999999999999989
0
CIRCLE
5
167
100
AcDbEntity
8
0
100
AcDbCircle
10
-27.154020347717033
20
-22.945051496685881
30
0
40
1.6000000000000014
0
CIRCLE
5
168
100
AcDbEntity
8
0
100
AcDbCircle
10
-27.154020347717037
20
-15.250000000000036
30
0
40
1.6000000000000014
0
CIRCLE
5
169
100
AcDbEntity
8
0
100
AcDbCircle
10
-27.154020347717033
20
15.249999999999966
30
0
40
1.6000000000000014
0
CIRCLE
5
170
100
AcDbEntity
8
0
100
AcDbCircle
10
-57.654020347717065
20
-15.250000000000039
30
0
40
1.6000000000000014
0
CIRCLE
5
171
100
AcDbEntity
8
0
100
AcDbCircle
10
-57.654020347717051
20
15.249999999999964
30
0
40
1.6000000000000014
0
LWPOLYLINE
5
172
100
AcDbEntity
8
0
100
AcDbPolyline
90
4
70
1
43
0.0
10
76.979924654849583
20
79.330657406833609
42
-0.99999999999999989
10
75.644310598311137
20
82.072670370328922
10
76.992841563964575
20
82.729529742397006
42
-0.99999999999999989
10
78.328455620503007
20
79.987516778901693
0
ARC
5
173
100
AcDbEntity
8
0
100
AcDbCircle
10
88.356063726748914
20
77.669608094860635
30
0
40
1.5250000000002764
100
AcDbArc
50
25.970367651941071
51
205.97036644452317
0
LINE
5
174
100
AcDbEntity
8
0
100
AcDbLine
10
89.727070208496883
20
78.337415123129972
30
0
11
90.383929570613873
21
76.988884177906073
31
0
0
ARC
5
175
100
AcDbEntity
8
0
100
AcDbCircle
10
89.012923098817041
20
76.321077129207168
30
0
40
1.5250000000002566
100
AcDbArc
50
-154.02963234806015
51
25.970367651940361
0
LINE
5
176
100
AcDbEntity
8
0
100
AcDbLine
10
87.641916617069086
20
75.653270100937874
30
0
11
86.985057245001002
21
77.001801066591355
31
0
0
LWPOLYLINE
5
177
100
AcDbEntity
8
0
100
AcDbPolyline
90
4
70
1
43
0.0
10
79.321697904206502
20
92.734662332548581
42
-0.99999999999999989
10
82.06371086770217
20
94.070276389087184
10
82.720570239770282
20
92.721745423433703
42
-0.99999999999999989
10
79.978557276274586
20
91.386131366895157
0
LWPOLYLINE
5
178
100
AcDbEntity
8
0
100
AcDbPolyline
90
4
70
1
43
0.0
10
82.063710867702184
20
-94.061316886460247
42
-0.99999999999999989
10
79.32169790420653
20
-92.725702829921801
10
79.978557276274643
20
-91.377171864268277
42
-0.99999999999999989
10
82.720570239770268
20
-92.71278592080678
0
ARC
5
179
100
AcDbEntity
8
0
100
AcDbCircle
10
88.356063726748943
20
-77.660648592233784
30
0
40
1.5250000000002171
100
AcDbArc
50
154.02963234806015
51
334.02963114064175
0
LINE
5
180
100
AcDbEntity
8
0
100
AcDbLine
10
86.985057245001016
20
-76.992841563964504
30
0
11
87.6419166170691
21
-75.644310598311037
31
0
0
ARC
5
181
100
AcDbEntity
8
0
100
AcDbCircle
10
89.012923098817041
20
-76.312117626580331
30
0
40
1.5250000000002206
100
AcDbArc
50
-25.970367651941768
51
154.02963234805992
0
LINE
5
182
100
AcDbEntity
8
0
100
AcDbLine
10
90.383929580564939
20
-76.979924654849654
30
0
11
89.727070198545761
21
-78.328455640932646
31
0
0
ARC
5
183
100
AcDbEntity
8
0
100
AcDbCircle
10
76.31211762658036
20
-80.692704385954386
30
0
40
1.5249999999999464
100
AcDbArc
50
64.02963234805739
51
244.02963355547556
0
LINE
5
184
100
AcDbEntity
8
0
100
AcDbLine
10
76.979924654849583
20
-79.321697904206744
30
0
11
78.328455620503036
21
-79.978557276274842
31
0
0
ARC
5
185
100
AcDbEntity
8
0
100
AcDbCircle
10
77.660648592233827
20
-81.349563758022484
30
0
40
1.5249999999999306
100
AcDbArc
50
-115.97036765194217
51
64.029632348057859
0
LINE
5
186
100
AcDbEntity
8
0
100
AcDbLine
10
76.992841563964618
20
-82.720570239770126
30
0
11
75.644310618740718
21
-82.063710877653122
31
0
0
CIRCLE
5
187
100
AcDbEntity
8
0
100
AcDbCircle
10
-96.897553421821527
20
91.997895865499416
30
0
40
4.0000000000000036
0
CIRCLE
5
188
100
AcDbEntity
8
0
100
AcDbCircle
10
89.417613368050027
20
98.09667424114906
30
0
40
4.0000000000000036
0
CIRCLE
5
189
100
AcDbEntity
8
0
100
AcDbCircle
10
-84.852813742385749
20
84.861773245012557
30
0
40
4.0000000000000036
0
LWPOLYLINE
5
190
100
AcDbEntity
8
0
100
AcDbPolyline
90
4
70
1
43
0.0
10
-93.677841825895882
20
81.028945815763763
42
-1.0001613875827282
10
-94.434125773130191
20
83.984193307538817
10
-92.980896033951439
20
84.355842694150681
42
-0.9998386384593646
10
-92.224732111916012
20
81.401064211632104
0
CIRCLE
5
191
100
AcDbEntity
8
0
100
AcDbCircle
10
89.417613368050041
20
-98.08771473852218
30
0
40
4.0000000000000036
0
CIRCLE
5
192
100
AcDbEntity
8
0
100
AcDbCircle
10
84.852813742385692
20
84.861773245012557
30
0
40
4.0000000000000036
0
LWPOLYLINE
5
193
100
AcDbEntity
8
0
100
AcDbPolyline
90
4
70
1
43
0.0
10
-88.68546770873894
20
93.687099787084264
42
-0.99999999999999989
10
-85.730689187745739
20
94.443263718964658
10
-85.358805286821024
20
92.99009395454172
42
-0.99999999999999989
10
-88.31358380781424
20
92.233930022661411
0
CIRCLE
5
194
100
AcDbEntity
8
0
100
AcDbCircle
10
-96.897553421821542
20
-91.988936362872579
30
0
40
4.0000000000000036
0
LWPOLYLINE
5
195
100
AcDbEntity
8
0
100
AcDbPolyline
90
4
70
1
43
0.0
10
-76.027565146834831
20
88.694407261707937
42
-1.0000527613851773
10
-75.271401216007689
20
85.739628744826348
10
-76.724590596976981
20
85.367821514164305
42
-0.99994724139843949
10
-77.480715286621347
20
88.322446692590944
0
ARC
5
196
100
AcDbEntity
8
0
100
AcDbCircle
10
-82.869432937453865
20
-77.102574998796712
30
0
40
1.5249999999997725
100
AcDbArc
50
165.645383625585
51
345.64538241816734
0
LINE
5
197
100
AcDbEntity
8
0
100
AcDbLine
10
-84.346822197950289
20
-76.724493032856614
30
0
11
-83.974938297025489
21
-75.271323268433676
31
0
0
ARC
5
198
100
AcDbEntity
8
0
100
AcDbCircle
10
-82.497549036529136
20
-75.649405234373788
30
0
40
1.5249999999997637
100
AcDbArc
50
-14.354616374413428
51
165.64538362558386
0
LINE
5
199
100
AcDbEntity
8
0
100
AcDbLine
10
-81.020159776032713
20
-76.027487200313843
30
0
11
-81.392043682591293
21
-77.480656986751612
31
0
0
LWPOLYLINE
5
200
100
AcDbEntity
8
0
100
AcDbPolyline
90
4
70
1
43
0.0
10
-92.224732111915998
20
-81.392104709005253
10
-93.677841825895825
20
-81.019986313136982
42
1.0001613875830724
10
-94.434125773130177
20
-83.975233804911966
10
-92.98089603395033
20
-84.346883191524213
42
0.99983863845919252
0
CIRCLE
5
201
100
AcDbEntity
8
0
100
AcDbCircle
10
-84.852813742385734
20
-84.852813742385706
30
0
40
4.0000000000000036
0
LWPOLYLINE
5
202
100
AcDbEntity
8
0
100
AcDbPolyline
90
4
70
1
43
0.0
10
-75.271401216007675
20
-85.730669242199511
10
-76.724590596977734
20
-85.358862011537269
42
0.99994724139843949
10
-77.480715286620523
20
-88.313487189964306
10
-76.02756514683567
20
-88.685447759080972
42
1.0000527613851773
0
CIRCLE
5
203
100
AcDbEntity
8
0
100
AcDbCircle
10
84.852813742385706
20
-84.852813742385678
30
0
40
4.0000000000000036
0
ARC
5
204
100
AcDbEntity
8
0
100
AcDbCircle
10
92.0449788925376
20
-88.356063726748872
30
0
40
1.5249999999997987
100
AcDbArc
50
64.029632348056012
51
244.02963234805597
0
LINE
5
205
100
AcDbEntity
8
0
100
AcDbLine
10
92.712785920806795
20
-86.985057245001371
30
0
11
94.061316886460261
21
-87.641916617069484
31
0
0
ARC
5
206
100
AcDbEntity
8
0
100
AcDbCircle
10
93.393509858191067
20
-89.012923098816998
30
0
40
1.5249999999997992
100
AcDbArc
50
-115.97036765194278
51
64.029631140639296
0
LINE
5
207
100
AcDbEntity
8
0
100
AcDbLine
10
92.7257028299219
20
-90.383929580564512
30
0
11
91.377171864268405
21
-89.727070208496372
31
0
0
LWPOLYLINE
5
208
100
AcDbEntity
8
0
100
AcDbPolyline
90
4
70
1
43
0.0
10
92.712785920806695
20
86.994016747628223
42
-0.99999999999999989
10
91.377171864268433
20
89.73602971112328
10
92.725702829921843
20
90.39288908319142
42
-0.99999999999999989
10
94.061316886460247
20
87.650876119696349
0
LWPOLYLINE
5
209
100
AcDbEntity
8
0
100
AcDbPolyline
90
4
70
1
43
0.0
10
-85.730689187745753
20
-94.434304216337807
10
-85.358805286820939
20
-92.981134451914897
42
0.99999999999999989
10
-88.313583807814226
20
-92.224970520034589
10
-88.68546770873894
20
-93.678140284457498
42
0.99999999999999989
0
ARC
5
210
100
AcDbEntity
8
0
100
AcDbCircle
10
-82.497549036529136
20
75.65836473700061
30
0
40
1.5249999999996866
100
AcDbArc
50
-165.6453836255842
51
14.35461637441578
0
LINE
5
211
100
AcDbEntity
8
0
100
AcDbLine
10
-83.974938297025474
20
75.280282771060513
30
0
11
-84.346822197950303
21
76.733452535483437
31
0
0
ARC
5
212
100
AcDbEntity
8
0
100
AcDbCircle
10
-82.86943293745388
20
77.111534501423534
30
0
40
1.5249999999997899
100
AcDbArc
50
14.354616374414702
51
194.35461637441497
0
LINE
5
213
100
AcDbEntity
8
0
100
AcDbLine
10
-81.392043676957428
20
77.489616467363632
30
0
11
-81.020159776032799
21
76.036446702940708
31
0
0
SPLINE
5
214
100
AcDbEntity
8
0
100
AcDbSpline
70
1064
71
5
72
16
73
10
74
0
42
0.000000001
43
0.0000000001
44
0.0000000001
40
0
40
0
40
0
40
0
40
0
40
0
40
0.20000000000000001
40
0.40000000000000002
40
0.60000000000000009
40
0.80000000000000004
40
1
40
1
40
1
40
1
40
1
40
1
10
59.970114281376595
20
34.187026738607393
30
0
10
59.380070410468797
20
32.476289607685615
30
0
10
57.651626258662276
20
29.591794716025916
30
0
10
53.415351879182111
20
26.874623827713165
30
0
10
44.916959947345831
20
26.098216285496317
30
0
10
31.016929610491779
20
28.79106153906946
30
0
10
18.119260449735219
20
33.486496533610108
30
0
10
7.647638753371055
20
38.524881138752434
30
0
10
0.31183037947294434
20
42.614853295415649
30
0
10
-3.4448071124608455
20
44.842740799980525
30
0
0
LINE
5
215
100
AcDbEntity
8
0
100
AcDbLine
10
-3.4448071124608424
20
44.842740799980533
30
0
11
-3.6133907121591236
21
44.866348089932259
31
0
0
LINE
5
216
100
AcDbEntity
8
0
100
AcDbLine
10
-3.6133907121591236
20
44.866348089932259
30
0
11
-64.93832001005083
21
81.199405242641163
31
0
0
SPLINE
5
217
100
AcDbEntity
8
0
100
AcDbSpline
70
1064
71
5
72
21
73
15
74
0
42
0.000000001
43
0.0000000001
44
0.0000000001
40
-1
40
-1
40
-1
40
-1
40
-1
40
-1
40
-0.89999999999999991
40
-0.79999999999999993
40
-0.69999999999999996
40
-0.59999999999999998
40
-0.5
40
-0.40000000000000002
40
-0.30000000000000004
40
-0.20000000000000001
40
-0.10000000000000001
40
-0
40
-0
40
-0
40
-0
40
-0
40
-0
10
-64.93832001005083
20
81.199405242641163
30
0
10
-65.389416348578351
20
81.46666538034934
30
0
10
-66.220864067334404
20
82.197705537571082
30
0
10
-67.256384955469343
20
83.883269592722598
30
0
10
-68.385359991701947
20
87.122797321905921
30
0
10
-70.255724906968055
20
91.83565269239439
30
0
10
-73.397689798668821
20
96.178337747794728
30
0
10
-78.285036363047183
20
99.314277231811374
30
0
10
-84.159892379802699
20
101.39676228173951
30
0
10
-90.216674749988528
20
102.44062750250878
30
0
10
-95.860389316310872
20
102.19613495268972
30
0
10
-99.651932452343615
20
100.71877677583502
30
0
10
-101.94542294021504
20
98.749916674946888
30
0
10
-103.21231726938593
20
97.03428820772109
30
0
10
-103.78026181007064
20
96.075680220063319
30
0
0
SPLINE
5
218
100
AcDbEntity
8
0
100
AcDbSpline
70
1064
71
5
72
21
73
15
74
0
42
0.000000001
43
0.0000000001
44
0.0000000001
40
0
40
0
40
0
40
0
40
0
40
0
40
0.10000000000000001
40
0.20000000000000001
40
0.30000000000000004
40
0.40000000000000002
40
0.5
40
0.59999999999999998
40
0.69999999999999996
40
0.79999999999999993
40
0.89999999999999991
40
1
40
1
40
1
40
1
40
1
40
1
10
-103.78026181007061
20
96.075680220063333
30
0
10
-104.34820635075533
20
95.117072232405562
30
0
10
-105.24435901031998
20
93.181791196071217
30
0
10
-105.86947253129706
20
90.224471159161197
30
0
10
-105.34389325027199
20
86.189356172637332
30
0
10
-102.84728800669477
20
81.121984766199716
30
0
10
-99.022281152325021
20
76.311206259247029
30
0
10
-94.373724306720959
20
72.158906119086851
30
0
10
-89.275580294562957
20
69.378762144568057
30
0
10
-83.957457411834838
20
68.709116062461447
30
0
10
-78.925501621188602
20
69.332567408103372
30
0
10
-75.541893117852894
20
69.89853387065898
30
0
10
-73.566109706479821
20
69.799996542068726
30
0
10
-72.525538969065224
20
69.421925700913476
30
0
10
-72.074442630537717
20
69.154665563205313
30
0
0
LINE
5
219
100
AcDbEntity
8
0
100
AcDbLine
10
-72.074442630537717
20
69.154665563205313
30
0
11
-39.580257387592809
21
49.902901181583502
31
0
0
SPLINE
5
220
100
AcDbEntity
8
0
100
AcDbSpline
70
1064
71
5
72
16
73
10
74
0
42
0.000000001
43
0.0000000001
44
0.0000000001
40
0
40
0
40
0
40
0
40
0
40
0
40
0.20000000000000001
40
0.40000000000000002
40
0.60000000000000009
40
0.80000000000000004
40
1
40
1
40
1
40
1
40
1
40
1
10
-39.580257387592809
20
49.90290118158353
30
0
10
-38.893255416082539
20
49.495874509385409
30
0
10
-37.189275806092255
20
48.471417853604692
30
0
10
-33.644723851423201
20
46.304161335673712
30
0
10
-27.607118444144071
20
42.388395307298921
30
0
10
-21.385423132238884
20
36.787577488530097
30
0
10
-21.147527426702531
20
32.596098095465308
30
0
10
-25.823235857020958
20
30.038057251089668
30
0
10
-31.511626172320128
20
28.662173491205273
30
0
10
-34.999247164922522
20
28.056688723182862
30
0
0
LINE
5
221
100
AcDbEntity
8
0
100
AcDbLine
10
-34.999247164922522
20
28.056688723182862
30
0
11
-57.999480096044763
21
24.063625620770026
31
0
0
SPLINE
5
222
100
AcDbEntity
8
0
100
AcDbSpline
70
1064
71
5
72
16
73
10
74
0
42
0.000000001
43
0.0000000001
44
0.0000000001
40
0
40
0
40
0
40
0
40
0
40
0
40
0.20000000000000001
40
0.40000000000000002
40
0.60000000000000009
40
0.80000000000000004
40
1
40
1
40
1
40
1
40
1
40
1
10
-57.999480096044771
20
24.063625620770029
30
0
10
-59.135760031293707
20
23.841223973836165
30
0
10
-61.276748838835701
20
23.186113335768606
30
0
10
-64.09384061869001
20
21.57308753191305
30
0
10
-67.141151549212822
20
18.330921477215771
30
0
10
-69.959830768077452
20
13.03435285319927
30
0
10
-71.428533565358748
20
8.1381623782387216
30
0
10
-72.008173719452955
20
4.1807931301576549
30
0
10
-72.137052285602039
20
1.4174458718377769
30
0
10
-72.137052285602039
20
0.0044797513134150341
30
0
0
SPLINE
5
223
100
AcDbEntity
8
0
100
AcDbSpline
70
1064
71
5
72
16
73
10
74
0
42
0.000000001
43
0.0000000001
44
0.0000000001
40
-1
40
-1
40
-1
40
-1
40
-1
40
-1
40
-0.80000000000000004
40
-0.60000000000000009
40
-0.40000000000000002
40
-0.20000000000000001
40
-0
40
-0
40
-0
40
-0
40
-0
40
-0
10
-72.137052285602039
20
0.0044797513134150341
30
0
10
-72.137052285602039
20
-1.4084863692109466
30
0
10
-72.008173719452898
20
-4.1718336275308401
30
0
10
-71.428533565358435
20
-8.129202875611977
30
0
10
-69.959830768076557
20
-13.025393350572669
30
0
10
-67.141151549211713
20
-18.321961974589232
30
0
10
-64.0938406186892
20
-21.564128029286451
30
0
10
-61.276748838835573
20
-23.177153833141801
30
0
10
-59.135760031293714
20
-23.832264471209335
30
0
10
-57.999480096044778
20
-24.054666118143203
30
0
0
LINE
5
224
100
AcDbEntity
8
0
100
AcDbLine
10
-57.999480096044778
20
-24.054666118143203
30
0
11
-34.999247164922522
21
-28.047729220556022
31
0
0
SPLINE
5
225
100
AcDbEntity
8
0
100
AcDbSpline
70
1064
71
5
72
16
73
10
74
0
42
0.000000001
43
0.0000000001
44
0.0000000001
40
-1
40
-1
40
-1
40
-1
40
-1
40
-1
40
-0.80000000000000004
40
-0.60000000000000009
40
-0.40000000000000002
40
-0.20000000000000001
40
-0
40
-0
40
-0
40
-0
40
-0
40
-0
10
-34.999247164922515
20
-28.047729220556029
30
0
10
-31.511626172320124
20
-28.653213988578436
30
0
10
-25.823235857020947
20
-30.029097748462789
30
0
10
-21.147527426702499
20
-32.587138592838308
30
0
10
-21.385423132238806
20
-36.778617985902855
30
0
10
-27.607118444143985
20
-42.379435804671644
30
0
10
-33.644723851423166
20
-46.295201833046555
30
0
10
-37.189275806092247
20
-48.462458350977798
30
0
10
-38.893255416082546
20
-49.486915006758558
30
0
10
-39.580257387592816
20
-49.893941678956679
30
0
0
LINE
5
226
100
AcDbEntity
8
0
100
AcDbLine
10
-39.580257387592816
20
-49.893941678956686
30
0
11
-72.074442630537717
21
-69.14570606057849
31
0
0
SPLINE
5
227
100
AcDbEntity
8
0
100
AcDbSpline
70
1064
71
5
72
21
73
15
74
0
42
0.000000001
43
0.0000000001
44
0.0000000001
40
-1
40
-1
40
-1
40
-1
40
-1
40
-1
40
-0.89999999999999991
40
-0.79999999999999993
40
-0.69999999999999996
40
-0.59999999999999998
40
-0.5
40
-0.40000000000000002
40
-0.30000000000000004
40
-0.20000000000000001
40
-0.10000000000000001
40
-0
40
-0
40
-0
40
-0
40
-0
40
-0
10
-72.074442630537703
20
-69.14570606057849
30
0
10
-72.525538969065224
20
-69.412966198286654
30
0
10
-73.566109706479807
20
-69.791037039441903
30
0
10
-75.541893117852879
20
-69.889574368032157
30
0
10
-78.925501621188587
20
-69.32360790547655
30
0
10
-83.957457411834838
20
-68.700156559834625
30
0
10
-89.275580294562957
20
-69.36980264194122
30
0
10
-94.373724306720959
20
-72.149946616460028
30
0
10
-99.022281152325007
20
-76.302246756620193
30
0
10
-102.84728800669475
20
-81.113025263572894
30
0
10
-105.34389325027198
20
-86.180396670010509
30
0
10
-105.86947253129705
20
-90.21551165653436
30
0
10
-105.24435901031995
20
-93.17283169344438
30
0
10
-104.34820635075532
20
-95.108112729778739
30
0
10
-103.7802618100706
20
-96.06672071743651
30
0
0
SPLINE
5
228
100
AcDbEntity
8
0
100
AcDbSpline
70
1064
71
5
72
21
73
15
74
0
42
0.000000001
43
0.0000000001
44
0.0000000001
40
0
40
0
40
0
40
0
40
0
40
0
40
0.10000000000000001
40
0.20000000000000001
40
0.30000000000000004
40
0.40000000000000002
40
0.5
40
0.59999999999999998
40
0.69999999999999996
40
0.79999999999999993
40
0.89999999999999991
40
1
40
1
40
1
40
1
40
1
40
1
10
-103.78026181007061
20
-96.066720717436482
30
0
10
-103.21231726938592
20
-97.025328705094267
30
0
10
-101.94542294021502
20
-98.740957172320066
30
0
10
-99.651932452343601
20
-100.7098172732082
30
0
10
-95.860389316310858
20
-102.18717545006288
30
0
10
-90.216674749988513
20
-102.43166799988195
30
0
10
-84.159892379802685
20
-101.38780277911268
30
0
10
-78.285036363047169
20
-99.305317729184551
30
0
10
-73.397689798668807
20
-96.169378245167906
30
0
10
-70.255724906968041
20
-91.826693189767553
30
0
10
-68.385359991701932
20
-87.11383781927907
30
0
10
-67.256384955469329
20
-83.874310090095747
30
0
10
-66.220864067334389
20
-82.188746034944245
30
0
10
-65.389416348578337
20
-81.457705877722489
30
0
10
-64.93832001005083
20
-81.190445740014326
30
0
0
LINE
5
229
100
AcDbEntity
8
0
100
AcDbLine
10
-64.938320010050816
20
-81.190445740014326
30
0
11
-3.6133907121591236
21
-44.857388587305415
31
0
0
LINE
5
230
100
AcDbEntity
8
0
100
AcDbLine
10
-3.6133907121591236
20
-44.857388587305415
30
0
11
-3.4448071124608504
21
-44.833781297353681
31
0
0
SPLINE
5
231
100
AcDbEntity
8
0
100
AcDbSpline
70
1064
71
5
72
16
73
10
74
0
42
0.000000001
43
0.0000000001
44
0.0000000001
40
-1
40
-1
40
-1
40
-1
40
-1
40
-1
40
-0.80000000000000004
40
-0.60000000000000009
40
-0.40000000000000002
40
-0.20000000000000001
40
-0
40
-0
40
-0
40
-0
40
-0
40
-0
10
-3.4448071124608455
20
-44.833781297353681
30
0
10
0.31183037947294434
20
-42.605893792788805
30
0
10
7.647638753371055
20
-38.51592163612559
30
0
10
18.119260449735219
20
-33.477537030983243
30
0
10
31.016929610491779
20
-28.782102036442542
30
0
10
44.916959947345831
20
-26.089256782869374
30
0
10
53.415351879182111
20
-26.865664325086222
30
0
10
57.651626258662276
20
-29.582835213399058
30
0
10
59.380070410468797
20
-32.467330105058771
30
0
10
59.970114281376595
20
-34.178067235980542
30
0
0
LINE
5
232
100
AcDbEntity
8
0
100
AcDbLine
10
59.970114281376581
20
-34.178067235980549
30
0
11
72.040278038058688
21
-69.173562203318312
31
0
0
SPLINE
5
233
100
AcDbEntity
8
0
100
AcDbSpline
70
1064
71
5
72
21
73
15
74
0
42
0.000000001
43
0.0000000001
44
0.0000000001
40
-1
40
-1
40
-1
40
-1
40
-1
40
-1
40
-0.89999999999999991
40
-0.79999999999999993
40
-0.69999999999999996
40
-0.59999999999999998
40
-0.5
40
-0.40000000000000002
40
-0.30000000000000004
40
-0.20000000000000001
40
-0.10000000000000001
40
-0
40
-0
40
-0
40
-0
40
-0
40
-0
10
72.040278038058688
20
-69.173562203318312
30
0
10
72.211237681193566
20
-69.669232142148502
30
0
10
72.372049591809201
20
-70.764615431132967
30
0
10
72.070750392729565
20
-72.719774883491255
30
0
10
70.835094830521442
20
-75.920131091981546
30
0
10
69.211241549939786
20
-80.723501906182975
30
0
10
68.79638402739225
20
-86.067540652240083
30
0
10
70.493093391122116
20
-91.62104857289134
30
0
10
73.624380206827311
20
-97.010456713099273
30
0
10
77.566479214389091
20
-101.72576399818696
30
0
10
82.027386038645716
20
-105.1915396902745
30
0
10
85.874037681646627
20
-106.51881421824808
30
0
10
88.896656455843299
20
-106.50195120825018
30
0
10
90.972740627234359
20
-106.01381525865732
30
0
10
92.026070297001112
20
-105.65051530774298
30
0
0
SPLINE
5
234
100
AcDbEntity
8
0
100
AcDbSpline
70
1064
71
5
72
21
73
15
74
0
42
0.000000001
43
0.0000000001
44
0.0000000001
40
0
40
0
40
0
40
0
40
0
40
0
40
0.10000000000000001
40
0.20000000000000001
40
0.30000000000000004
40
0.40000000000000002
40
0.5
40
0.59999999999999998
40
0.69999999999999996
40
0.79999999999999993
40
0.89999999999999991
40
1
40
1
40
1
40
1
40
1
40
1
10
92.026070297001098
20
-105.65051530774296
30
0
10
93.079399966767852
20
-105.28721535682863
30
0
10
95.01497786905918
20
-104.39170411951891
30
0
10
97.405303479881724
20
-102.54160896264467
30
0
10
99.615821896444103
20
-99.125178827949412
30
0
10
100.9916534255936
20
-93.646275794863399
30
0
10
101.18868288796835
20
-87.503357370436433
30
0
10
100.33173314785742
20
-81.329516234898108
30
0
10
98.244071503248435
20
-75.910850186198019
30
0
10
94.622950787504664
20
-71.958845423373049
30
0
10
90.38320776475112
20
-69.177865424057401
30
0
10
87.437341753796886
20
-67.419741999737937
30
0
10
85.994797404967741
20
-66.066045027306018
30
0
10
85.446138677330069
20
-65.104432516484152
30
0
10
85.27517903419519
20
-64.608762577653977
30
0
0
LINE
5
235
100
AcDbEntity
8
0
100
AcDbLine
10
85.275179034195162
20
-64.608762577653977
30
0
11
72.177152370463872
21
-26.633144729146416
31
0
0
LINE
5
236
100
AcDbEntity
8
0
100
AcDbLine
10
72.177152370463872
20
-26.633144729146416
30
0
11
72.205454269209312
21
-26.61565189990543
31
0
0
SPLINE
5
237
100
AcDbEntity
8
0
100
AcDbSpline
70
1064
71
5
72
16
73
10
74
0
42
0.000000001
43
0.0000000001
44
0.0000000001
40
-1
40
-1
40
-1
40
-1
40
-1
40
-1
40
-0.80000000000000004
40
-0.60000000000000009
40
-0.40000000000000002
40
-0.20000000000000001
40
-0
40
-0
40
-0
40
-0
40
-0
40
-0
10
72.205454269209312
20
-26.615651899905433
30
0
10
71.943834811786942
20
-25.751332815352427
30
0
10
71.431446136081846
20
-23.999387113653476
30
0
10
70.695400154435191
20
-21.301575361334478
30
0
10
69.783601699682819
20
-17.554992595813342
30
0
10
68.8165942010517
20
-12.500697989200651
30
0
10
68.268257768715273
20
-7.9733579680337705
30
0
10
68.047367306563842
20
-4.1689342870269854
30
0
10
67.998251080979799
20
-1.4218273182304566
30
0
10
67.998251080979799
20
0.0044797513134236123
30
0
0
SPLINE
5
238
100
AcDbEntity
8
0
100
AcDbSpline
70
1064
71
5
72
16
73
10
74
0
42
0.000000001
43
0.0000000001
44
0.0000000001
40
0
40
0
40
0
40
0
40
0
40
0
40
0.20000000000000001
40
0.40000000000000002
40
0.60000000000000009
40
0.80000000000000004
40
1
40
1
40
1
40
1
40
1
40
1
10
67.998251080979799
20
0.0044797513134236123
30
0
10
67.998251080979799
20
1.4307868208573042
30
0
10
68.047367306563842
20
4.1778937896538615
30
0
10
68.268257768715301
20
7.9823174706607709
30
0
10
68.816594201051771
20
12.509657491827955
30
0
10
69.783601699682876
20
17.563952098440978
30
0
10
70.695400154435305
20
21.310534863962118
30
0
10
71.431446136081917
20
24.008346616280846
30
0
10
71.943834811786957
20
25.760292317979467
30
0
10
72.205454269209326
20
26.624611402532278
30
0
0
LINE
5
239
100
AcDbEntity
8
0
100
AcDbLine
10
72.205454269209326
20
26.624611402532278
30
0
11
72.177152370463872
21
26.642104231773267
31
0
0
LINE
5
240
100
AcDbEntity
8
0
100
AcDbLine
10
72.177152370463872
20
26.642104231773267
30
0
11
85.27517903419519
21
64.617722080280814
31
0
0
SPLINE
5
241
100
AcDbEntity
8
0
100
AcDbSpline
70
1064
71
5
72
21
73
15
74
0
42
0.000000001
43
0.0000000001
44
0.0000000001
40
-1
40
-1
40
-1
40
-1
40
-1
40
-1
40
-0.89999999999999991
40
-0.79999999999999993
40
-0.69999999999999996
40
-0.59999999999999998
40
-0.5
40
-0.40000000000000002
40
-0.30000000000000004
40
-0.20000000000000001
40
-0.10000000000000001
40
-0
40
-0
40
-0
40
-0
40
-0
40
-0
10
85.27517903419519
20
64.617722080280814
30
0
10
85.446138677330069
20
65.113392019111004
30
0
10
85.994797404967741
20
66.075004529932869
30
0
10
87.437341753796886
20
67.428701502364774
30
0
10
90.38320776475112
20
69.186824926684253
30
0
10
94.622950787504664
20
71.967804925999886
30
0
10
98.244071503248421
20
75.919809688824856
30
0
10
100.33173314785741
20
81.338475737524973
30
0
10
101.18868288796834
20
87.512316873063298
30
0
10
100.99165342559358
20
93.655235297490265
30
0
10
99.615821896444089
20
99.134138330576263
30
0
10
97.405303479881709
20
102.55056846527154
30
0
10
95.014977869059166
20
104.40066362214577
30
0
10
93.079399966767824
20
105.29617485945549
30
0
10
92.02607029700107
20
105.65947481036983
30
0
0
SPLINE
5
242
100
AcDbEntity
8
0
100
AcDbSpline
70
1064
71
5
72
21
73
15
74
0
42
0.000000001
43
0.0000000001
44
0.0000000001
40
0
40
0
40
0
40
0
40
0
40
0
40
0.10000000000000001
40
0.20000000000000001
40
0.30000000000000004
40
0.40000000000000002
40
0.5
40
0.59999999999999998
40
0.69999999999999996
40
0.79999999999999993
40
0.89999999999999991
40
1
40
1
40
1
40
1
40
1
40
1
10
92.026070297001098
20
105.65947481036984
30
0
10
90.972740627234344
20
106.02277476128418
30
0
10
88.896656455843285
20
106.51091071087704
30
0
10
85.874037681646612
20
106.52777372087493
30
0
10
82.027386038645687
20
105.20049919290136
30
0
10
77.566479214389076
20
101.73472350081383
30
0
10
73.624380206827297
20
97.019416215726139
30
0
10
70.493093391122116
20
91.630008075518177
30
0
10
68.796384027392236
20
86.07650015486692
30
0
10
69.211241549939786
20
80.732461408809826
30
0
10
70.835094830521427
20
75.929090594608397
30
0
10
72.070750392729565
20
72.728734386118106
30
0
10
72.372049591809201
20
70.773574933759818
30
0
10
72.211237681193566
20
69.678191644775353
30
0
10
72.040278038058673
20
69.182521705945163
30
0
0
LINE
5
243
100
AcDbEntity
8
0
100
AcDbLine
10
72.040278038058673
20
69.182521705945163
30
0
11
59.970114281376595
21
34.187026738607393
31
0
0
ENDSEC
0
SECTION
2
OBJECTS
0
DICTIONARY
5
C
100
AcDbDictionary
3
ACAD_GROUP
350
D
3
ACAD_MLINESTYLE
350
17
0
DICTIONARY
5
D
100
AcDbDictionary
0
DICTIONARY
5
1A
330
C
100
AcDbDictionary
0
DICTIONARY
5
17
100
AcDbDictionary
0
ENDSEC
0
EOF
