0
SECTION
2
HEADER
9
$INSUNITS
70
4
9
$ACADVER
1
AC1014
9
$HANDSEED
5
FFFF
0
ENDSEC
0
SECTION
2
TABLES
0
TABLE
2
VPORT
5
8
100
AcDbSymbolTable
0
ENDTAB
0
TABLE
2
LTYPE
5
5
100
AcDbSymbolTable
0
LTYPE
5
14
100
AcDbSymbolTableRecord
100
AcDbLinetypeTableRecord
2
BYBLOCK
70
0
0
LTYPE
5
15
100
AcDbSymbolTableRecord
100
AcDbLinetypeTableRecord
2
BYLAYER
70
0
0
ENDTAB
0
TABLE
2
LAYER
5
2
100
AcDbSymbolTable
70
2
0
LAYER
5
50
100
AcDbSymbolTableRecord
100
AcDbLayerTableRecord
2
0
70
0
6
CONTINUOUS
0
ENDTAB
0
TABLE
2
STYLE
5
3
100
AcDbSymbolTable
70
1
0
STYLE
5
11
100
AcDbSymbolTableRecord
100
AcDbTextStyleTableRecord
2
STANDARD
70
0
0
ENDTAB
0
TABLE
2
VIEW
5
6
100
AcDbSymbolTable
70
0
0
ENDTAB
0
TABLE
2
UCS
5
7
100
AcDbSymbolTable
70
0
0
ENDTAB
0
TABLE
2
APPID
5
9
100
AcDbSymbolTable
70
2
0
APPID
5
12
100
AcDbSymbolTableRecord
100
AcDbRegAppTableRecord
2
ACAD
70
0
0
ENDTAB
0
TABLE
2
DIMSTYLE
5
A
100
AcDbSymbolTable
70
1
0
ENDTAB
0
TABLE
2
BLOCK_RECORD
5
1
100
AcDbSymbolTable
70
1
0
BLOCK_RECORD
5
1F
100
AcDbSymbolTableRecord
100
AcDbBlockTableRecord
2
*MODEL_SPACE
0
BLOCK_RECORD
5
1B
100
AcDbSymbolTableRecord
100
AcDbBlockTableRecord
2
*PAPER_SPACE
0
ENDTAB
0
ENDSEC
0
SECTION
2
BLOCKS
0
BLOCK
5
20
100
AcDbEntity
100
AcDbBlockBegin
2
*MODEL_SPACE
0
ENDBLK
5
21
100
AcDbEntity
100
AcDbBlockEnd
0
BLOCK
5
1C
100
AcDbEntity
100
AcDbBlockBegin
2
*PAPER_SPACE
0
ENDBLK
5
1D
100
AcDbEntity
100
AcDbBlockEnd
0
ENDSEC
0
SECTION
2
ENTITIES
0
CIRCLE
5
100
100
AcDbEntity
8
0
100
AcDbCircle
10
23.129386171731806
20
10
30
0
40
1.5000000000000002
210
0
220
0
230
1
0
CIRCLE
5
101
100
AcDbEntity
8
0
100
AcDbCircle
10
23.129386171731806
20
-10
30
0
40
1.5000000000000002
210
0
220
0
230
1
0
CIRCLE
5
102
100
AcDbEntity
8
0
100
AcDbCircle
10
-29.338413828268205
20
-10
30
0
40
1.5000000000000002
210
0
220
0
230
1
0
CIRCLE
5
103
100
AcDbEntity
8
0
100
AcDbCircle
10
-29.338413828268205
20
10
30
0
40
1.5000000000000002
210
0
220
0
230
1
0
LINE
5
104
100
AcDbEntity
8
0
100
AcDbLine
10
0.00048312267978700002
20
24.000000357627869
30
0
11
0.00048312267980386641
21
-31.000000461935997
31
0
0
LINE
5
105
100
AcDbEntity
8
0
100
AcDbLine
10
52.000000774860382
20
0.00054251825363937954
30
0
11
-37.000000551342964
21
0.00054251825458603116
31
0
0
LINE
5
106
100
AcDbEntity
8
0
100
AcDbLine
10
15
20
-9.7487373415291572
30
0
11
9.7487373415291572
21
-15
31
0
0
LINE
5
107
100
AcDbEntity
8
0
100
AcDbLine
10
9.7487373415291572
20
-15
30
0
11
-9.7487373415291643
21
-15
31
0
0
LINE
5
108
100
AcDbEntity
8
0
100
AcDbLine
10
-9.7487373415291643
20
-15
30
0
11
-15
21
-9.7487373415291643
31
0
0
LINE
5
109
100
AcDbEntity
8
0
100
AcDbLine
10
-14.999999999999998
20
9.7487373415291536
30
0
11
-9.7487373415291536
21
15
31
0
0
LINE
5
110
100
AcDbEntity
8
0
100
AcDbLine
10
9.7487373415291785
20
15.000000000000004
30
0
11
-9.7487373415291518
21
15.000000000000004
31
0
0
LINE
5
111
100
AcDbEntity
8
0
100
AcDbLine
10
9.7487373415291607
20
15
30
0
11
15
21
9.7487373415291607
31
0
0
CIRCLE
5
112
100
AcDbEntity
8
0
100
AcDbCircle
10
15.250000000000002
20
-15.250000000000002
30
0
40
1.5000000000000013
210
0
220
-0
230
1
0
CIRCLE
5
113
100
AcDbEntity
8
0
100
AcDbCircle
10
-15.250000000000002
20
-15.250000000000002
30
0
40
1.5000000000000013
210
0
220
-0
230
1
0
CIRCLE
5
114
100
AcDbEntity
8
0
100
AcDbCircle
10
-15.250000000000002
20
15.250000000000002
30
0
40
1.5000000000000013
210
0
220
-0
230
1
0
CIRCLE
5
115
100
AcDbEntity
8
0
100
AcDbCircle
10
15.250000000000002
20
15.250000000000002
30
0
40
1.5000000000000013
210
0
220
-0
230
1
0
LINE
5
116
100
AcDbEntity
8
0
100
AcDbLine
10
-14.999999999999998
20
-18
30
0
11
15.000000000000002
21
-18
31
0
0
ARC
5
117
100
AcDbEntity
8
0
100
AcDbCircle
10
14.999999999999998
20
-14.999999999999998
30
0
40
3.0000000000000027
210
0
220
0
230
1
100
AcDbArc
50
270.00000000000006
51
304.59675825339752
0
ARC
5
118
100
AcDbEntity
8
0
100
AcDbCircle
10
-14.999999999999998
20
-14.999999999999998
30
0
40
3.0000000000000044
210
0
220
0
230
1
100
AcDbArc
50
248.88873314874016
51
270
0
ARC
5
119
100
AcDbEntity
8
0
100
AcDbCircle
10
-14.999999999999998
20
14.999999999999998
30
0
40
3.0000000000000027
210
0
220
0
230
1
100
AcDbArc
50
90.000000000000043
51
111.1112668512599
0
ARC
5
120
100
AcDbEntity
8
0
100
AcDbCircle
10
14.999999999999998
20
14.999999999999998
30
0
40
3.0000000000000036
210
0
220
-0
230
1
100
AcDbArc
50
55.403241746602447
51
90
0
LINE
5
121
100
AcDbEntity
8
0
100
AcDbLine
10
15
20
9.7487373415291607
30
0
11
15
21
-9.7487373415291572
31
0
0
LINE
5
122
100
AcDbEntity
8
0
100
AcDbLine
10
14.999999999999998
20
18
30
0
11
-15
21
18
31
0
0
LINE
5
123
100
AcDbEntity
8
0
100
AcDbLine
10
-30.238864479637439
20
-12.332206814253128
30
0
11
-16.080540781643073
21
-17.798648177103757
31
0
0
LINE
5
124
100
AcDbEntity
8
0
100
AcDbLine
10
-30.238864479637435
20
12.332206814253128
30
0
11
-16.080540781643073
21
17.798648177103757
31
0
0
LINE
5
125
100
AcDbEntity
8
0
100
AcDbLine
10
24.548879101198679
20
12.057921238335805
30
0
11
16.703391515360241
21
17.469505486002966
31
0
0
LINE
5
126
100
AcDbEntity
8
0
100
AcDbLine
10
24.548879101198672
20
-12.057921238335807
30
0
11
16.703391515360238
21
-17.469505486002966
31
0
0
LINE
5
127
100
AcDbEntity
8
0
100
AcDbLine
10
18.000000268220944
20
-2.1872317112479362
30
0
11
18.000000268220987
21
2.1872317112480459
31
0
0
LINE
5
128
100
AcDbEntity
8
0
100
AcDbLine
10
21.676841751867656
20
-7.0089794794957001
30
0
11
23.790965429908454
21
-7.5891261158761463
31
0
0
LINE
5
129
100
AcDbEntity
8
0
100
AcDbLine
10
21.67684175186767
20
7.0089794794956903
30
0
11
23.790965429908461
21
7.589126115876148
31
0
0
ARC
5
130
100
AcDbEntity
8
0
100
AcDbCircle
10
23.000000268220941
20
-2.1872317112479882
30
0
40
4.9999999999999956
210
0
220
0
230
1
100
AcDbArc
50
180
51
254.654930298979
0
ARC
5
131
100
AcDbEntity
8
0
100
AcDbCircle
10
23.000000268220994
20
2.1872317112479864
30
0
40
5.0000000000000044
210
0
220
0
230
1
100
AcDbArc
50
105.34506970102143
51
180
0
LINE
5
132
100
AcDbEntity
8
0
100
AcDbLine
10
-18.000000268220862
20
-0.27641598380428567
30
0
11
-18.000000268220855
21
0.27641598380419463
31
0
0
LINE
5
133
100
AcDbEntity
8
0
100
AcDbLine
10
-21.567490403636562
20
-5.066814243643246
30
0
11
-30.054668760560354
21
-7.6048008700804912
31
0
0
LINE
5
134
100
AcDbEntity
8
0
100
AcDbLine
10
-21.567490403636562
20
5.0668142436432664
30
0
11
-30.054668760560354
21
7.6048008700804912
31
0
0
ARC
5
135
100
AcDbEntity
8
0
100
AcDbCircle
10
-23.000000268220859
20
-0.2764159838042321
30
0
40
4.9999999999999973
210
0
220
0
230
1
100
AcDbArc
50
286.64864966088635
51
360
0
ARC
5
136
100
AcDbEntity
8
0
100
AcDbCircle
10
-23.000000268220838
20
0.27641598380426013
30
0
40
4.999999999999984
210
0
220
0
230
1
100
AcDbArc
50
0
51
73.351350339113836
0
ARC
5
137
100
AcDbEntity
8
0
100
AcDbCircle
10
23.129386171731806
20
10
30
0
40
2.5000000000000004
210
0
220
0
230
1
100
AcDbArc
50
-74.654930298978755
51
55.403241746602347
0
ARC
5
138
100
AcDbEntity
8
0
100
AcDbCircle
10
23.129386171731806
20
-10
30
0
40
2.5000000000000022
210
0
220
0
230
1
100
AcDbArc
50
-55.403241746602518
51
74.654930298978897
0
ARC
5
139
100
AcDbEntity
8
0
100
AcDbCircle
10
-29.338413828268205
20
-10
30
0
40
2.5
210
0
220
0
230
1
100
AcDbArc
50
106.64864966088638
51
248.88873314873996
0
ARC
5
140
100
AcDbEntity
8
0
100
AcDbCircle
10
-29.338413828268205
20
10
30
0
40
2.4999999999999991
210
0
220
0
230
1
100
AcDbArc
50
111.11126685125994
51
253.35135033911362
0
LINE
5
141
100
AcDbEntity
8
0
100
AcDbLine
10
-12.000000159899509
20
5.0000003859963806
30
0
11
-11.999999847453061
21
1.4865644828710893
31
0
0
ARC
5
142
100
AcDbEntity
8
0
100
AcDbCircle
10
-14.999999847453051
20
1.4865642160839987
30
0
40
3.0000000000000004
210
0
220
0
230
1
100
AcDbArc
50
-90.000002913445442
51
5.0509930079322997e-06
0
ARC
5
143
100
AcDbEntity
8
0
100
AcDbCircle
10
-15.000000159899498
20
5.0000001192092904
30
0
40
3.0000000000000009
210
0
220
-0
230
1
100
AcDbArc
50
5.0509930079322997e-06
51
89.999996946146581
0
LINE
5
144
100
AcDbEntity
8
0
100
AcDbLine
10
-14.999999999999998
20
9.7487373415291536
30
0
11
-15.000000000000107
21
8.0000001192092878
31
0
0
LINE
5
145
100
AcDbEntity
8
0
100
AcDbLine
10
-15.000000000000696
20
-1.5134357839159978
30
0
11
-15
21
-9.7487373415291643
31
0
0
ENDSEC
0
SECTION
2
OBJECTS
0
DICTIONARY
5
C
100
AcDbDictionary
3
ACAD_GROUP
350
D
3
ACAD_MLINESTYLE
350
17
0
DICTIONARY
5
D
100
AcDbDictionary
0
DICTIONARY
5
1A
330
C
100
AcDbDictionary
0
DICTIONARY
5
17
100
AcDbDictionary
0
ENDSEC
0
EOF
