  0
SECTION
  2
HEADER
  9
$ACADVER
  1
AC1009
  9
$INSBASE
 10
0.0
 20
0.0
 30
0.0
  9
$EXTMIN
 10
-39.000000000000007
 20
-39.000000000000021
 30
0.0
  9
$EXTMAX
 10
125.0
 20
113.0
 30
0.0
  9
$LIMMIN
 10
0.0
 20
0.0
  9
$LIMMAX
 10
420.0
 20
297.0
  9
$ORTHOMODE
 70
     0
  9
$REGENMODE
 70
     1
  9
$FILLMODE
 70
     1
  9
$QTEXTMODE
 70
     0
  9
$MIRRTEXT
 70
     0
  9
$DRAGMODE
 70
     2
  9
$LTSCALE
 40
1.0
  9
$OSMODE
 70
    37
  9
$ATTMODE
 70
     1
  9
$TEXTSIZE
 40
2.5
  9
$TRACEWID
 40
1.0
  9
$TEXTSTYLE
  7
STANDARD
  9
$CLAYER
  8
0
  9
$CELTYPE
  6
BYLAYER
  9
$CECOLOR
 62
   256
  9
$DIMSCALE
 40
1.0
  9
$DIMASZ
 40
2.5
  9
$DIMEXO
 40
0.625
  9
$DIMDLI
 40
3.75
  9
$DIMRND
 40
0.0
  9
$DIMDLE
 40
0.0
  9
$DIMEXE
 40
1.25
  9
$DIMTP
 40
0.0
  9
$DIMTM
 40
0.0
  9
$DIMTXT
 40
2.5
  9
$DIMCEN
 40
2.5
  9
$DIMTSZ
 40
0.0
  9
$DIMTOL
 70
     0
  9
$DIMLIM
 70
     0
  9
$DIMTIH
 70
     0
  9
$DIMTOH
 70
     0
  9
$DIMSE1
 70
     0
  9
$DIMSE2
 70
     0
  9
$DIMTAD
 70
     1
  9
$DIMZIN
 70
     8
  9
$DIMBLK
  1

  9
$DIMASO
 70
     1
  9
$DIMSHO
 70
     1
  9
$DIMPOST
  1

  9
$DIMAPOST
  1

  9
$DIMALT
 70
     0
  9
$DIMALTD
 70
     3
  9
$DIMALTF
 40
0.03937007874016
  9
$DIMLFAC
 40
1.0
  9
$DIMTOFL
 70
     1
  9
$DIMTVP
 40
0.0
  9
$DIMTIX
 70
     0
  9
$DIMSOXD
 70
     0
  9
$DIMSAH
 70
     0
  9
$DIMBLK1
  1

  9
$DIMBLK2
  1

  9
$DIMSTYLE
  2
ISO-25
  9
$DIMCLRD
 70
     0
  9
$DIMCLRE
 70
     0
  9
$DIMCLRT
 70
     0
  9
$DIMTFAC
 40
1.0
  9
$DIMGAP
 40
0.625
  9
$LUNITS
 70
     2
  9
$LUPREC
 70
     4
  9
$SKETCHINC
 40
1.0
  9
$FILLETRAD
 40
0.0
  9
$AUNITS
 70
     0
  9
$AUPREC
 70
     0
  9
$MENU
  1
.
  9
$ELEVATION
 40
0.0
  9
$PELEVATION
 40
0.0
  9
$THICKNESS
 40
0.0
  9
$LIMCHECK
 70
     0
  9
$BLIPMODE
 70
     0
  9
$CHAMFERA
 40
0.0
  9
$CHAMFERB
 40
0.0
  9
$SKPOLY
 70
     0
  9
$TDCREATE
 40
2457200.9642029628
  9
$TDUPDATE
 40
2457474.6760816551
  9
$TDINDWG
 40
0.3553011343
  9
$TDUSRTIMER
 40
0.3553010532
  9
$USRTIMER
 70
     1
  9
$ANGBASE
 50
0.0
  9
$ANGDIR
 70
     0
  9
$PDMODE
 70
     0
  9
$PDSIZE
 40
0.0
  9
$PLINEWID
 40
0.0
  9
$COORDS
 70
     1
  9
$SPLFRAME
 70
     0
  9
$SPLINETYPE
 70
     6
  9
$SPLINESEGS
 70
     8
  9
$ATTDIA
 70
     1
  9
$ATTREQ
 70
     1
  9
$HANDLING
 70
     1
  9
$HANDSEED
  5
E4E
  9
$SURFTAB1
 70
     6
  9
$SURFTAB2
 70
     6
  9
$SURFTYPE
 70
     6
  9
$SURFU
 70
     6
  9
$SURFV
 70
     6
  9
$UCSNAME
  2

  9
$UCSORG
 10
0.0
 20
0.0
 30
0.0
  9
$UCSXDIR
 10
1.0
 20
0.0
 30
0.0
  9
$UCSYDIR
 10
0.0
 20
1.0
 30
0.0
  9
$PUCSNAME
  2

  9
$PUCSORG
 10
0.0
 20
0.0
 30
0.0
  9
$PUCSXDIR
 10
1.0
 20
0.0
 30
0.0
  9
$PUCSYDIR
 10
0.0
 20
1.0
 30
0.0
  9
$USERI1
 70
     0
  9
$USERI2
 70
     0
  9
$USERI3
 70
     0
  9
$USERI4
 70
     0
  9
$USERI5
 70
     0
  9
$USERR1
 40
0.0
  9
$USERR2
 40
0.0
  9
$USERR3
 40
0.0
  9
$USERR4
 40
0.0
  9
$USERR5
 40
0.0
  9
$WORLDVIEW
 70
     1
  9
$SHADEDGE
 70
     3
  9
$SHADEDIF
 70
    70
  9
$TILEMODE
 70
     1
  9
$MAXACTVP
 70
    64
  9
$PLIMCHECK
 70
     0
  9
$PEXTMIN
 10
0.0
 20
0.0
 30
0.0
  9
$PEXTMAX
 10
0.0
 20
0.0
 30
0.0
  9
$PLIMMIN
 10
0.0
 20
0.0
  9
$PLIMMAX
 10
12.0
 20
9.0
  9
$UNITMODE
 70
     0
  9
$VISRETAIN
 70
     1
  9
$PLINEGEN
 70
     0
  9
$PSLTSCALE
 70
     1
  0
ENDSEC
  0
SECTION
  2
TABLES
  0
TABLE
  2
VPORT
 70
     1
  0
VPORT
  2
*ACTIVE
 70
     0
 10
0.0
 20
0.0
 11
1.0
 21
1.0
 12
77.803529747144069
 22
49.969302579164882
 13
0.0
 23
0.0
 14
10.0
 24
10.0
 15
10.0
 25
10.0
 16
0.0
 26
0.0
 36
1.0
 17
0.0
 27
0.0
 37
0.0
 40
303.5796370057235
 41
1.8002544529262079
 42
50.0
 43
0.0
 44
0.0
 50
0.0
 51
0.0
 71
     0
 72
  1000
 73
     1
 74
     3
 75
     0
 76
     1
 77
     0
 78
     0
  0
ENDTAB
  0
TABLE
  2
LTYPE
 70
     2
  0
LTYPE
  2
CONTINUOUS
 70
     0
  3
Solid line
 72
    65
 73
     0
 40
0.0
  0
ENDTAB
  0
TABLE
  2
LAYER
 70
     1
  0
LAYER
  2
0
 70
     0
 62
     7
  6
CONTINUOUS
  0
ENDTAB
  0
TABLE
  2
STYLE
 70
     3
  0
STYLE
  2
STANDARD
 70
     0
 40
0.0
 41
1.0
 50
0.0
 71
     0
 42
2.5
  3
txt
  4

  0
STYLE
  2
ANNOTATIVE
 70
     0
 40
0.0
 41
1.0
 50
0.0
 71
     0
 42
2.5
  3
txt
  4

  0
STYLE
  2
2_5MM_TEXT
 70
     0
 40
2.5
 41
0.7
 50
0.0
 71
     0
 42
2.5
  3
romans.shx
  4

  0
ENDTAB
  0
TABLE
  2
VIEW
 70
     1
  0
ENDTAB
  0
TABLE
  2
UCS
 70
     0
  0
ENDTAB
  0
TABLE
  2
APPID
 70
    11
  0
APPID
  2
ACAD
 70
     0
  0
APPID
  2
ACADANNOTATIVE
 70
     0
  0
APPID
  2
ACAD_PSEXT
 70
     0
  0
APPID
  2
ACADANNOPO
 70
     0
  0
APPID
  2
ACAD_DSTYLE_DIMJAG
 70
     0
  0
APPID
  2
ACAD_DSTYLE_DIMTALN
 70
     0
  0
APPID
  2
ACAD_MLEADERVER
 70
     0
  0
APPID
  2
ACAD_NAV_VCDISPLAY
 70
     0
  0
APPID
  2
ACAD_DSTYLE_DIMBREAK
 70
     0
  0
APPID
  2
ACAECLAYERSTANDARD
 70
     0
  0
APPID
  2
ACAD_EXEMPT_FROM_CAD_STANDARDS
 70
     0
  0
ENDTAB
  0
TABLE
  2
DIMSTYLE
 70
     5
  0
DIMSTYLE
  2
STANDARD
 70
     0
  3

  4

  5

  6

  7

 40
1.0
 41
0.18
 42
0.0625
 43
0.38
 44
0.18
 45
0.0
 46
0.0
 47
0.0
 48
0.0
140
0.18
141
0.09
142
0.0
143
25.399999999999999
144
1.0
145
0.0
146
1.0
147
0.09
 71
     0
 72
     0
 73
     1
 74
     1
 75
     0
 76
     0
 77
     0
 78
     0
170
     0
171
     2
172
     0
173
     0
174
     0
175
     0
176
     0
177
     0
178
     0
  0
DIMSTYLE
  2
ANNOTATIVE
 70
     0
  3

  4

  5

  6

  7

 40
0.0
 41
2.5
 42
0.625
 43
3.75
 44
1.25
 45
0.0
 46
0.0
 47
0.0
 48
0.0
140
2.5
141
2.5
142
0.0
143
0.03937007874016
144
1.0
145
0.0
146
1.0
147
0.625
 71
     0
 72
     0
 73
     0
 74
     0
 75
     0
 76
     0
 77
     1
 78
     8
170
     0
171
     3
172
     1
173
     0
174
     0
175
     0
176
     0
177
     0
178
     0
  0
DIMSTYLE
  2
ISO-25
 70
     0
  3

  4

  5

  6

  7

 40
1.0
 41
2.5
 42
0.625
 43
3.75
 44
1.25
 45
0.0
 46
0.0
 47
0.0
 48
0.0
140
2.5
141
2.5
142
0.0
143
0.03937007874016
144
1.0
145
0.0
146
1.0
147
0.625
 71
     0
 72
     0
 73
     0
 74
     0
 75
     0
 76
     0
 77
     1
 78
     8
170
     0
171
     3
172
     1
173
     0
174
     0
175
     0
176
     0
177
     0
178
     0
  0
DIMSTYLE
  2
2_5MM_DIM
 70
     0
  3

  4

  5

  6

  7

 40
1.0
 41
2.5
 42
2.5
 43
5.0
 44
1.0
 45
0.0
 46
0.0
 47
0.0
 48
0.0
140
2.5
141
2.5
142
0.0
143
0.03937007874016
144
1.0
145
0.0
146
1.0
147
1.25
 71
     0
 72
     0
 73
     0
 74
     0
 75
     0
 76
     0
 77
     1
 78
     8
170
     0
171
     3
172
     1
173
     0
174
     0
175
     0
176
   142
177
   142
178
   142
  0
ENDTAB
  0
ENDSEC
  0
SECTION
  2
BLOCKS
  0
BLOCK
  8
0
  2
$MODEL_SPACE
 70
     0
 10
0.0
 20
0.0
 30
0.0
  3
$MODEL_SPACE
  1

  0
ENDBLK
  5
8DE
  8
0
  0
BLOCK
 67
     1
  8
0
  2
$PAPER_SPACE
 70
     0
 10
0.0
 20
0.0
 30
0.0
  3
$PAPER_SPACE
  1

  0
ENDBLK
  5
8DA
 67
     1
  8
0
  0
ENDSEC
  0
SECTION
  2
ENTITIES
  0
CIRCLE
  5
CB3
  8
0
 10
-26.600659095274391
 20
100.6006590952742
 30
0.0
 40
1.1000000000000001
  0
CIRCLE
  5
CCF
  8
0
 10
112.60065909527439
 20
100.6006590952742
 30
0.0
 40
1.1000000000000001
  0
CIRCLE
  5
CE5
  8
0
 10
-26.600659095274398
 20
-26.600659095274231
 30
0.0
 40
1.1000000000000001
  0
CIRCLE
  5
CFB
  8
0
 10
112.60065909527439
 20
-26.600659095274271
 30
0.0
 40
1.1000000000000001
  0
CIRCLE
  5
D0C
  8
0
 10
-19.205978566607669
 20
37.000000000000007
 30
0.0
 40
1.1000000000000001
  0
CIRCLE
  5
D0E
  8
0
 10
105.2059785666077
 20
36.999999999999972
 30
0.0
 40
1.1000000000000001
  0
CIRCLE
  5
D2A
  8
0
 10
0.0000000000000045
 20
74.0
 30
0.0
 40
34.0
  0
CIRCLE
  5
D2B
  8
0
 10
-0.0000000000000049
 20
0.0
 30
0.0
 40
34.0
  0
CIRCLE
  5
D2C
  8
0
 10
86.000000000000014
 20
73.999999999999986
 30
0.0
 40
34.0
  0
CIRCLE
  5
D2D
  8
0
 10
86.0
 20
-0.0000000000000142
 30
0.0
 40
34.0
  0
CIRCLE
  5
D2F
  8
0
 10
42.999999999999979
 20
-23.460194986223271
 30
0.0
 40
1.1000000000000001
  0
CIRCLE
  5
D31
  8
0
 10
42.999999999999993
 20
-0.4601949862232644
 30
0.0
 40
1.1000000000000001
  0
CIRCLE
  5
D32
  8
0
 10
43.0
 20
36.999999999999993
 30
0.0
 40
1.1000000000000001
  0
CIRCLE
  5
D34
  8
0
 10
43.0
 20
17.999999999999989
 30
0.0
 40
1.1000000000000001
  0
CIRCLE
  5
D35
  8
0
 10
42.999999999999979
 20
97.460194986223257
 30
0.0
 40
1.1000000000000001
  0
CIRCLE
  5
D36
  8
0
 10
42.999999999999993
 20
74.460194986223257
 30
0.0
 40
1.1000000000000001
  0
CIRCLE
  5
D37
  8
0
 10
43.0
 20
37.0
 30
0.0
 40
1.1000000000000001
  0
CIRCLE
  5
D38
  8
0
 10
43.0
 20
55.999999999999993
 30
0.0
 40
1.1000000000000001
  0
POLYLINE
  5
DD6
  8
0
 66
     1
 10
0.0
 20
0.0
 30
0.0
 70
     1
  0
VERTEX
  5
E36
  8
0
 10
111.59420976731001
 20
103.42679775964299
 30
0.0
 42
-0.6321971877910805
  0
VERTEX
  5
E37
  8
0
 10
115.42679775964319
 20
99.594209767309763
 30
0.0
 42
-0.3880172886689079
  0
VERTEX
  5
E38
  8
0
 10
114.1424945589406
 20
46.999999999999979
 30
0.0
 42
0.2118684315921412
  0
VERTEX
  5
E39
  8
0
 10
109.7059785666077
 20
37.0
 30
0.0
 42
0.2118684315921428
  0
VERTEX
  5
E3A
  8
0
 10
114.1424945589406
 20
26.999999999999929
 30
0.0
 42
-0.3880172886689082
  0
VERTEX
  5
E3B
  8
0
 10
115.42679775964309
 20
-25.59420976730987
 30
0.0
 42
-0.6321971877910809
  0
VERTEX
  5
E3C
  8
0
 10
111.59420976731001
 20
-29.426797759642991
 30
0.0
 42
-0.3308133659705988
  0
VERTEX
  5
E3D
  8
0
 10
65.215390309173557
 20
-33.000000000000007
 30
0.0
 42
0.1011319918162311
  0
VERTEX
  5
E3E
  8
0
 10
42.999999999999957
 20
-28.460194986223271
 30
0.0
 42
0.1011319918162311
  0
VERTEX
  5
E3F
  8
0
 10
20.784609690826638
 20
-32.999999999999929
 30
0.0
 42
-0.3308133659705983
  0
VERTEX
  5
E40
  8
0
 10
-25.594209767310051
 20
-29.426797759643001
 30
0.0
 42
-0.6321971877910834
  0
VERTEX
  5
E41
  8
0
 10
-29.426797759643151
 20
-25.594209767309891
 30
0.0
 42
-0.3880172886689095
  0
VERTEX
  5
E42
  8
0
 10
-28.142494558940541
 20
27.00000000000005
 30
0.0
 42
0.2118684315921402
  0
VERTEX
  5
E43
  8
0
 10
-23.705978566607669
 20
37.000000000000007
 30
0.0
 42
0.2118684315921409
  0
VERTEX
  5
E44
  8
0
 10
-28.14249455894058
 20
47.000000000000007
 30
0.0
 42
-0.3880172886689089
  0
VERTEX
  5
E45
  8
0
 10
-29.426797759643151
 20
99.594209767309891
 30
0.0
 42
-0.6321971877910813
  0
VERTEX
  5
E46
  8
0
 10
-25.594209767310051
 20
103.42679775964299
 30
0.0
 42
-0.3308133659705966
  0
VERTEX
  5
E47
  8
0
 10
20.784609690826532
 20
107.0
 30
0.0
 42
0.1011319918162307
  0
VERTEX
  5
E48
  8
0
 10
43.000000000000028
 20
102.4601949862232
 30
0.0
 42
0.1011319918162307
  0
VERTEX
  5
E49
  8
0
 10
65.215390309173486
 20
107.0
 30
0.0
 42
-0.3308133659705971
  0
SEQEND
  5
E4A
  8
0
  0
ENDSEC
  0
EOF
