0
SECTION
2
HEADER
9
$ACADVER
1
AC1014
9
$HANDSEED
5
FFFF
0
ENDSEC
0
SECTION
2
TABLES
0
TABLE
2
VPORT
5
8
100
AcDbSymbolTable
0
ENDTAB
0
TABLE
2
LTYPE
5
5
100
AcDbSymbolTable
0
LTYPE
5
14
100
AcDbSymbolTableRecord
100
AcDbLinetypeTableRecord
2
BYBLOCK
70
0
0
LTYPE
5
15
100
AcDbSymbolTableRecord
100
AcDbLinetypeTableRecord
2
BYLAYER
70
0
0
ENDTAB
0
TABLE
2
LAYER
5
2
100
AcDbSymbolTable
70
2
0
LAYER
5
50
100
AcDbSymbolTableRecord
100
AcDbLayerTableRecord
2
0
70
0
6
CONTINUOUS
0
ENDTAB
0
TABLE
2
STYLE
5
3
100
AcDbSymbolTable
70
1
0
STYLE
5
11
100
AcDbSymbolTableRecord
100
AcDbTextStyleTableRecord
2
STANDARD
70
0
0
ENDTAB
0
TABLE
2
VIEW
5
6
100
AcDbSymbolTable
70
0
0
ENDTAB
0
TABLE
2
UCS
5
7
100
AcDbSymbolTable
70
0
0
ENDTAB
0
TABLE
2
APPID
5
9
100
AcDbSymbolTable
70
2
0
APPID
5
12
100
AcDbSymbolTableRecord
100
AcDbRegAppTableRecord
2
ACAD
70
0
0
ENDTAB
0
TABLE
2
DIMSTYLE
5
A
100
AcDbSymbolTable
70
1
0
ENDTAB
0
TABLE
2
BLOCK_RECORD
5
1
100
AcDbSymbolTable
70
1
0
BLOCK_RECORD
5
1F
100
AcDbSymbolTableRecord
100
AcDbBlockTableRecord
2
*MODEL_SPACE
0
BLOCK_RECORD
5
1B
100
AcDbSymbolTableRecord
100
AcDbBlockTableRecord
2
*PAPER_SPACE
0
ENDTAB
0
ENDSEC
0
SECTION
2
BLOCKS
0
BLOCK
5
20
100
AcDbEntity
100
AcDbBlockBegin
2
*MODEL_SPACE
0
ENDBLK
5
21
100
AcDbEntity
100
AcDbBlockEnd
0
BLOCK
5
1C
100
AcDbEntity
100
AcDbBlockBegin
2
*PAPER_SPACE
0
ENDBLK
5
1D
100
AcDbEntity
100
AcDbBlockEnd
0
ENDSEC
0
SECTION
2
ENTITIES
0
LWPOLYLINE
5
100
100
AcDbEntity
8
0
100
AcDbPolyline
90
8
70
1
43
0.0
10
-49.94999999999871
20
-13.949999999999887
10
-52.049999999998668
20
-13.949999999999887
42
0.41421356237310708
10
-54.049999999998633
20
-15.949999999999871
10
-54.049999999998654
20
-18.049999999999837
42
0.41421356237310153
10
-52.049999999998711
20
-20.049999999999841
10
-49.949999999998752
20
-20.049999999999834
42
0.41421356237310347
10
-47.949999999998795
20
-18.049999999999851
10
-47.949999999998774
20
-15.949999999999891
42
0.41421356237310381
0
LWPOLYLINE
5
101
100
AcDbEntity
8
0
100
AcDbPolyline
90
8
70
1
43
0.0
10
-41.449999999998887
20
-13.949999999999887
10
-43.549999999998839
20
-13.949999999999887
42
0.41421356237310836
10
-45.549999999998818
20
-15.949999999999871
10
-45.549999999998825
20
-18.049999999999837
42
0.41421356237310025
10
-43.549999999998896
20
-20.049999999999841
10
-41.44999999999893
20
-20.049999999999834
42
0.41421356237310347
10
-39.449999999998965
20
-18.049999999999851
10
-39.449999999998951
20
-15.949999999999891
42
0.41421356237310253
0
LWPOLYLINE
5
102
100
AcDbEntity
8
0
100
AcDbPolyline
90
8
70
1
43
0.0
10
-32.949999999999079
20
-13.949999999999887
10
-35.049999999999031
20
-13.949999999999887
42
0.4142135623731048
10
-37.049999999999002
20
-15.949999999999871
10
-37.049999999999017
20
-18.049999999999841
42
0.41421356237310281
10
-35.049999999999073
20
-20.049999999999841
10
-32.949999999999108
20
-20.049999999999834
42
0.41421356237310381
10
-30.949999999999143
20
-18.049999999999851
10
-30.949999999999136
20
-15.949999999999886
42
0.41421356237310153
0
LWPOLYLINE
5
103
100
AcDbEntity
8
0
100
AcDbPolyline
90
8
70
1
43
0.0
10
-15.949999999999438
20
-13.949999999999887
10
-18.049999999999393
20
-13.949999999999887
42
0.41421356237310608
10
-20.049999999999368
20
-15.949999999999871
10
-20.049999999999383
20
-18.049999999999841
42
0.41421356237310253
10
-18.049999999999436
20
-20.049999999999841
10
-15.949999999999466
20
-20.049999999999834
42
0.41421356237310381
10
-13.949999999999509
20
-18.049999999999851
10
-13.949999999999495
20
-15.949999999999886
42
0.41421356237310514
0
LWPOLYLINE
5
104
100
AcDbEntity
8
0
100
AcDbPolyline
90
8
70
1
43
0.0
10
-7.4499999999996183
20
-13.949999999999887
10
-9.5499999999995744
20
-13.949999999999887
42
0.4142135623731048
10
-11.549999999999546
20
-15.949999999999871
10
-11.54999999999956
20
-18.049999999999841
42
0.41421356237310281
10
-9.549999999999617
20
-20.049999999999841
10
-7.4499999999996467
20
-20.049999999999834
42
0.41421356237310497
10
-5.4499999999996884
20
-18.049999999999851
10
-5.4499999999996751
20
-15.949999999999886
42
0.41421356237310542
0
LWPOLYLINE
5
105
100
AcDbEntity
8
0
100
AcDbPolyline
90
8
70
1
43
0.0
10
1.0500000000002023
20
-13.949999999999887
10
-1.0499999999997531
20
-13.949999999999887
42
0.41421356237310558
10
-3.0499999999997245
20
-15.949999999999871
10
-3.0499999999997396
20
-18.049999999999841
42
0.41421356237310325
10
-1.0499999999997969
20
-20.049999999999841
10
1.0500000000001721
20
-20.049999999999834
42
0.41421356237310436
10
3.0500000000001299
20
-18.049999999999851
10
3.0500000000001446
20
-15.949999999999886
42
0.4142135623731048
0
LWPOLYLINE
5
106
100
AcDbEntity
8
0
100
AcDbPolyline
90
8
70
1
43
0.0
10
9.550000000000022
20
-13.949999999999887
10
7.450000000000065
20
-13.949999999999887
42
0.41421356237310575
10
5.4500000000000934
20
-15.949999999999871
10
5.4500000000000801
20
-18.049999999999841
42
0.41421356237310314
10
7.4500000000000224
20
-20.049999999999841
10
9.5499999999999936
20
-20.049999999999834
42
0.41421356237310497
10
11.549999999999949
20
-18.049999999999851
10
11.549999999999965
20
-15.949999999999886
42
0.41421356237310542
0
LWPOLYLINE
5
107
100
AcDbEntity
8
0
100
AcDbPolyline
90
8
70
1
43
0.0
10
18.049999999999841
20
-13.949999999999887
10
15.949999999999886
20
-13.949999999999887
42
0.41421356237310608
10
13.949999999999916
20
-15.949999999999871
10
13.9499999999999
20
-18.049999999999841
42
0.41421356237310414
10
15.949999999999845
20
-20.049999999999841
10
18.049999999999812
20
-20.049999999999834
42
0.41421356237310542
10
20.049999999999773
20
-18.049999999999851
10
20.049999999999784
20
-15.949999999999886
42
0.41421356237310514
0
LWPOLYLINE
5
108
100
AcDbEntity
8
0
100
AcDbPolyline
90
8
70
1
43
0.0
10
26.549999999999663
20
-13.949999999999887
10
24.449999999999712
20
-13.949999999999887
42
0.4142135623731048
10
22.449999999999733
20
-15.949999999999871
10
22.449999999999722
20
-18.049999999999841
42
0.41421356237310281
10
24.449999999999665
20
-20.049999999999841
10
26.549999999999635
20
-20.049999999999834
42
0.41421356237310381
10
28.549999999999592
20
-18.049999999999851
10
28.549999999999606
20
-15.949999999999886
42
0.41421356237310153
0
LWPOLYLINE
5
109
100
AcDbEntity
8
0
100
AcDbPolyline
90
8
70
1
43
0.0
10
35.049999999999486
20
-13.949999999999887
10
32.949999999999527
20
-13.949999999999887
42
0.4142135623731048
10
30.949999999999548
20
-15.949999999999871
10
30.949999999999541
20
-18.049999999999841
42
0.41421356237310281
10
32.949999999999484
20
-20.049999999999841
10
35.04999999999945
20
-20.049999999999834
42
0.41421356237310381
10
37.049999999999407
20
-18.049999999999851
10
37.049999999999422
20
-15.949999999999886
42
0.41421356237310153
0
LWPOLYLINE
5
110
100
AcDbEntity
8
0
100
AcDbPolyline
90
8
70
1
43
0.0
10
-58.449999999998667
20
-5.4499999999999567
10
-60.549999999998619
20
-5.4499999999999567
42
0.41421356237310891
10
-62.549999999998597
20
-7.4499999999999389
10
-62.549999999998612
20
-9.5499999999999048
42
0.4142135623731053
10
-60.549999999998661
20
-11.549999999999905
10
-58.44999999999871
20
-11.549999999999905
42
0.41421356237310281
10
-56.449999999998745
20
-9.5499999999999226
10
-56.449999999998724
20
-7.4499999999999575
42
0.41421356237310381
0
LWPOLYLINE
5
111
100
AcDbEntity
8
0
100
AcDbPolyline
90
8
70
1
43
0.0
10
-49.949999999998838
20
-5.4499999999999567
10
-52.049999999998789
20
-5.4499999999999567
42
0.41421356237310758
10
-54.049999999998768
20
-7.4499999999999389
10
-54.049999999998789
20
-9.5499999999999048
42
0.4142135623731053
10
-52.049999999998839
20
-11.549999999999905
10
-49.94999999999888
20
-11.549999999999905
42
0.4142135623731048
10
-47.949999999998916
20
-9.5499999999999226
10
-47.949999999998894
20
-7.4499999999999575
42
0.41421356237310381
0
LWPOLYLINE
5
112
100
AcDbEntity
8
0
100
AcDbPolyline
90
8
70
1
43
0.0
10
-41.449999999999008
20
-5.4499999999999567
10
-43.549999999998967
20
-5.4499999999999567
42
0.41421356237310891
10
-45.549999999998946
20
-7.4499999999999389
10
-45.54999999999896
20
-9.5499999999999048
42
0.41421356237310403
10
-43.549999999999017
20
-11.549999999999905
10
-41.449999999999065
20
-11.549999999999905
42
0.4142135623731048
10
-39.449999999999086
20
-9.5499999999999226
10
-39.449999999999079
20
-7.4499999999999575
42
0.41421356237310253
0
LWPOLYLINE
5
113
100
AcDbEntity
8
0
100
AcDbPolyline
90
8
70
1
43
0.0
10
-32.9499999999992
20
-5.4499999999999567
10
-35.049999999999159
20
-5.4499999999999567
42
0.41421356237310575
10
-37.049999999999123
20
-7.4499999999999389
10
-37.049999999999137
20
-9.5499999999999083
42
0.4142135623731022
10
-35.049999999999201
20
-11.549999999999905
10
-32.949999999999228
20
-11.549999999999905
42
0.41421356237310381
10
-30.949999999999264
20
-9.5499999999999226
10
-30.949999999999257
20
-7.4499999999999531
42
0.41421356237310414
0
LWPOLYLINE
5
114
100
AcDbEntity
8
0
100
AcDbPolyline
90
8
70
1
43
0.0
10
-24.449999999999381
20
-5.4499999999999567
10
-26.549999999999336
20
-5.4499999999999567
42
0.41421356237310575
10
-28.549999999999308
20
-7.4499999999999389
10
-28.549999999999322
20
-9.5499999999999083
42
0.4142135623731022
10
-26.549999999999379
20
-11.549999999999905
10
-24.449999999999406
20
-11.549999999999905
42
0.41421356237310381
10
-22.449999999999445
20
-9.5499999999999226
10
-22.449999999999438
20
-7.4499999999999531
42
0.41421356237310414
0
LWPOLYLINE
5
115
100
AcDbEntity
8
0
100
AcDbPolyline
90
8
70
1
43
0.0
10
-15.949999999999559
20
-5.4499999999999567
10
-18.049999999999514
20
-5.4499999999999567
42
0.4142135623731053
10
-20.049999999999486
20
-7.4499999999999389
10
-20.0499999999995
20
-9.5499999999999066
42
0.41421356237310542
10
-18.049999999999557
20
-11.549999999999905
10
-15.949999999999589
20
-11.549999999999905
42
0.41421356237310381
10
-13.949999999999632
20
-9.5499999999999226
10
-13.949999999999616
20
-7.4499999999999531
42
0.41421356237310447
0
LWPOLYLINE
5
116
100
AcDbEntity
8
0
100
AcDbPolyline
90
8
70
1
43
0.0
10
-7.4499999999997382
20
-5.4499999999999567
10
-9.5499999999996952
20
-5.4499999999999567
42
0.41421356237310691
10
-11.549999999999665
20
-7.4499999999999389
10
-11.549999999999681
20
-9.5499999999999083
42
0.41421356237310403
10
-9.5499999999997378
20
-11.549999999999905
10
-7.4499999999997684
20
-11.549999999999905
42
0.41421356237310381
10
-5.449999999999811
20
-9.5499999999999226
10
-5.449999999999795
20
-7.4499999999999531
42
0.41421356237310447
0
LWPOLYLINE
5
117
100
AcDbEntity
8
0
100
AcDbPolyline
90
8
70
1
43
0.0
10
9.5499999999999012
20
-5.4499999999999567
10
7.449999999999946
20
-5.4499999999999567
42
0.41421356237310708
10
5.4499999999999735
20
-7.4499999999999389
10
5.4499999999999602
20
-9.5499999999999083
42
0.41421356237310403
10
7.4499999999999025
20
-11.549999999999905
10
9.5499999999998728
20
-11.549999999999905
42
0.41421356237310381
10
11.549999999999827
20
-9.5499999999999226
10
11.549999999999844
20
-7.4499999999999531
42
0.41421356237310464
0
LWPOLYLINE
5
118
100
AcDbEntity
8
0
100
AcDbPolyline
90
8
70
1
43
0.0
10
18.04999999999972
20
-5.4499999999999567
10
15.949999999999767
20
-5.4499999999999567
42
0.41421356237310608
10
13.949999999999793
20
-7.4499999999999389
10
13.949999999999779
20
-9.5499999999999066
42
0.41421356237310542
10
15.949999999999722
20
-11.549999999999905
10
18.049999999999692
20
-11.549999999999905
42
0.41421356237310381
10
20.049999999999653
20
-9.5499999999999226
10
20.049999999999667
20
-7.4499999999999531
42
0.41421356237310347
0
LWPOLYLINE
5
119
100
AcDbEntity
8
0
100
AcDbPolyline
90
8
70
1
43
0.0
10
26.549999999999542
20
-5.4499999999999567
10
24.449999999999584
20
-5.4499999999999567
42
0.41421356237310575
10
22.449999999999612
20
-7.4499999999999389
10
22.449999999999601
20
-9.5499999999999083
42
0.4142135623731022
10
24.449999999999541
20
-11.549999999999905
10
26.549999999999514
20
-11.549999999999905
42
0.41421356237310381
10
28.549999999999471
20
-9.5499999999999226
10
28.549999999999486
20
-7.4499999999999531
42
0.41421356237310414
0
LWPOLYLINE
5
120
100
AcDbEntity
8
0
100
AcDbPolyline
90
8
70
1
43
0.0
10
35.049999999999358
20
-5.4499999999999567
10
32.949999999999406
20
-5.4499999999999567
42
0.41421356237310575
10
30.949999999999434
20
-7.4499999999999389
10
30.94999999999942
20
-9.5499999999999083
42
0.4142135623731022
10
32.949999999999363
20
-11.549999999999905
10
35.049999999999329
20
-11.549999999999905
42
0.41421356237310381
10
37.049999999999287
20
-9.5499999999999226
10
37.049999999999301
20
-7.4499999999999531
42
0.41421356237310414
0
LWPOLYLINE
5
121
100
AcDbEntity
8
0
100
AcDbPolyline
90
8
70
1
43
0.0
10
43.54999999999918
20
-5.4499999999999567
10
41.449999999999221
20
-5.4499999999999567
42
0.41421356237310919
10
39.449999999999243
20
-7.4499999999999389
10
39.449999999999228
20
-9.5499999999999048
42
0.41421356237310403
10
41.449999999999172
20
-11.549999999999905
10
43.549999999999123
20
-11.549999999999905
42
0.4142135623731048
10
45.549999999999102
20
-9.5499999999999226
10
45.549999999999109
20
-7.4499999999999575
42
0.41421356237310253
0
LWPOLYLINE
5
122
100
AcDbEntity
8
0
100
AcDbPolyline
90
8
70
1
43
0.0
10
52.049999999998995
20
-5.4499999999999567
10
49.949999999999044
20
-5.4499999999999567
42
0.41421356237310891
10
47.949999999999065
20
-7.4499999999999389
10
47.949999999999051
20
-9.5499999999999048
42
0.4142135623731053
10
49.949999999998994
20
-11.549999999999905
10
52.049999999998953
20
-11.549999999999905
42
0.41421356237310281
10
54.049999999998917
20
-9.5499999999999226
10
54.049999999998938
20
-7.4499999999999575
42
0.41421356237310381
0
LWPOLYLINE
5
123
100
AcDbEntity
8
0
100
AcDbPolyline
90
8
70
1
43
0.0
10
-58.449999999998788
20
3.049999999999975
10
-60.549999999998747
20
3.0499999999999745
42
0.41421356237310636
10
-62.549999999998711
20
1.0499999999999907
10
-62.549999999998732
20
-1.0499999999999741
42
0.41421356237310492
10
-60.549999999998782
20
-3.0499999999999745
10
-58.449999999998823
20
-3.0499999999999745
42
0.41421356237310519
10
-56.449999999998859
20
-1.0499999999999909
10
-56.449999999998838
20
1.0499999999999727
42
0.4142135623731053
0
LWPOLYLINE
5
124
100
AcDbEntity
8
0
100
AcDbPolyline
90
8
70
1
43
0.0
10
-49.949999999998965
20
3.049999999999975
10
-52.049999999998917
20
3.0499999999999745
42
0.41421356237310764
10
-54.049999999998882
20
1.0499999999999907
10
-54.049999999998903
20
-1.0499999999999741
42
0.41421356237310492
10
-52.049999999998953
20
-3.0499999999999745
10
-49.949999999998994
20
-3.049999999999975
42
0.41421356237310325
10
-47.949999999999029
20
-1.0499999999999909
10
-47.949999999999015
20
1.0499999999999727
42
0.4142135623731053
0
LWPOLYLINE
5
125
100
AcDbEntity
8
0
100
AcDbPolyline
90
8
70
1
43
0.0
10
-41.449999999999136
20
3.049999999999975
10
-43.549999999999088
20
3.0499999999999745
42
0.41421356237310636
10
-45.549999999999066
20
1.0499999999999907
10
-45.549999999999073
20
-1.0499999999999741
42
0.41421356237310358
10
-43.54999999999913
20
-3.0499999999999745
10
-41.449999999999179
20
-3.049999999999975
42
0.41421356237310325
10
-39.449999999999207
20
-1.0499999999999909
10
-39.449999999999193
20
1.0499999999999727
42
0.41421356237310403
0
LWPOLYLINE
5
126
100
AcDbEntity
8
0
100
AcDbPolyline
90
8
70
1
43
0.0
10
-32.949999999999321
20
3.049999999999975
10
-35.049999999999272
20
3.0499999999999745
42
0.41421356237310525
10
-37.049999999999251
20
1.0499999999999907
10
-37.049999999999265
20
-1.0499999999999785
42
0.41421356237310281
10
-35.049999999999322
20
-3.0499999999999745
10
-32.949999999999349
20
-3.049999999999975
42
0.41421356237310325
10
-30.949999999999385
20
-1.0499999999999909
10
-30.949999999999378
20
1.0499999999999772
42
0.41421356237310297
0
LWPOLYLINE
5
127
100
AcDbEntity
8
0
100
AcDbPolyline
90
8
70
1
43
0.0
10
-24.449999999999502
20
3.049999999999975
10
-26.549999999999457
20
3.0499999999999745
42
0.41421356237310525
10
-28.549999999999429
20
1.0499999999999907
10
-28.549999999999443
20
-1.0499999999999785
42
0.41421356237310281
10
-26.5499999999995
20
-3.0499999999999745
10
-24.449999999999534
20
-3.049999999999975
42
0.41421356237310325
10
-22.449999999999566
20
-1.0499999999999909
10
-22.449999999999555
20
1.0499999999999772
42
0.41421356237310297
0
LWPOLYLINE
5
128
100
AcDbEntity
8
0
100
AcDbPolyline
90
8
70
1
43
0.0
10
-15.94999999999968
20
3.049999999999975
10
-18.049999999999635
20
3.0499999999999745
42
0.41421356237310747
10
-20.049999999999613
20
1.0499999999999907
10
-20.049999999999621
20
-1.0499999999999763
42
0.4142135623731048
10
-18.049999999999681
20
-3.0499999999999745
10
-15.949999999999708
20
-3.049999999999975
42
0.41421356237310353
10
-13.949999999999754
20
-1.0499999999999909
10
-13.949999999999738
20
1.0499999999999772
42
0.41421356237310525
0
LWPOLYLINE
5
129
100
AcDbEntity
8
0
100
AcDbPolyline
90
8
70
1
43
0.0
10
18.049999999999599
20
3.049999999999975
10
15.949999999999644
20
3.0499999999999745
42
0.41421356237310747
10
13.949999999999674
20
1.0499999999999907
10
13.949999999999658
20
-1.0499999999999763
42
0.4142135623731048
10
15.9499999999996
20
-3.0499999999999745
10
18.049999999999571
20
-3.049999999999975
42
0.41421356237310353
10
20.049999999999532
20
-1.0499999999999909
10
20.049999999999542
20
1.0499999999999772
42
0.41421356237310525
0
LWPOLYLINE
5
130
100
AcDbEntity
8
0
100
AcDbPolyline
90
8
70
1
43
0.0
10
26.549999999999422
20
3.049999999999975
10
24.449999999999466
20
3.0499999999999745
42
0.41421356237310525
10
22.449999999999491
20
1.0499999999999907
10
22.449999999999477
20
-1.0499999999999785
42
0.41421356237310281
10
24.44999999999942
20
-3.0499999999999745
10
26.54999999999939
20
-3.049999999999975
42
0.41421356237310325
10
28.549999999999351
20
-1.0499999999999909
10
28.549999999999365
20
1.0499999999999772
42
0.41421356237310297
0
LWPOLYLINE
5
131
100
AcDbEntity
8
0
100
AcDbPolyline
90
8
70
1
43
0.0
10
35.049999999999237
20
3.049999999999975
10
32.949999999999285
20
3.0499999999999745
42
0.41421356237310525
10
30.949999999999307
20
1.0499999999999907
10
30.949999999999296
20
-1.0499999999999785
42
0.41421356237310281
10
32.949999999999243
20
-3.0499999999999745
10
35.049999999999208
20
-3.049999999999975
42
0.41421356237310325
10
37.049999999999173
20
-1.0499999999999909
10
37.049999999999187
20
1.0499999999999772
42
0.41421356237310297
0
LWPOLYLINE
5
132
100
AcDbEntity
8
0
100
AcDbPolyline
90
8
70
1
43
0.0
10
43.549999999999052
20
3.049999999999975
10
41.4499999999991
20
3.0499999999999745
42
0.41421356237310603
10
39.449999999999122
20
1.0499999999999907
10
39.449999999999115
20
-1.0499999999999741
42
0.41421356237310358
10
41.449999999999051
20
-3.0499999999999745
10
43.54999999999901
20
-3.049999999999975
42
0.41421356237310325
10
45.549999999998988
20
-1.0499999999999909
10
45.549999999998995
20
1.0499999999999727
42
0.41421356237310403
0
LWPOLYLINE
5
133
100
AcDbEntity
8
0
100
AcDbPolyline
90
8
70
1
43
0.0
10
52.049999999998875
20
3.049999999999975
10
49.949999999998916
20
3.0499999999999745
42
0.41421356237310636
10
47.949999999998951
20
1.0499999999999907
10
47.949999999998937
20
-1.0499999999999741
42
0.41421356237310492
10
49.94999999999888
20
-3.0499999999999745
10
52.049999999998839
20
-3.0499999999999745
42
0.41421356237310519
10
54.049999999998803
20
-1.0499999999999909
10
54.049999999998818
20
1.0499999999999727
42
0.4142135623731053
0
LWPOLYLINE
5
134
100
AcDbEntity
8
0
100
AcDbPolyline
90
8
70
1
43
0.0
10
-58.449999999998909
20
11.549999999999905
10
-60.54999999999886
20
11.549999999999905
42
0.41421356237310758
10
-62.549999999998825
20
9.5499999999999226
10
-62.549999999998846
20
7.4499999999999575
42
0.41421356237310369
10
-60.549999999998903
20
5.4499999999999567
10
-58.449999999998937
20
5.4499999999999567
42
0.41421356237310281
10
-56.449999999998973
20
7.4499999999999389
10
-56.449999999998958
20
9.5499999999999048
42
0.4142135623731053
0
LWPOLYLINE
5
135
100
AcDbEntity
8
0
100
AcDbPolyline
90
8
70
1
43
0.0
10
-49.949999999999079
20
11.549999999999905
10
-52.049999999999031
20
11.549999999999905
42
0.4142135623731063
10
-54.049999999999002
20
9.5499999999999226
10
-54.049999999999017
20
7.4499999999999575
42
0.41421356237310369
10
-52.049999999999073
20
5.4499999999999567
10
-49.949999999999115
20
5.4499999999999567
42
0.4142135623731048
10
-47.94999999999915
20
7.4499999999999389
10
-47.949999999999129
20
9.5499999999999048
42
0.4142135623731053
0
LWPOLYLINE
5
136
100
AcDbEntity
8
0
100
AcDbPolyline
90
8
70
1
43
0.0
10
-41.44999999999925
20
11.549999999999905
10
-43.549999999999201
20
11.549999999999905
42
0.41421356237310758
10
-45.54999999999918
20
9.5499999999999226
10
-45.549999999999187
20
7.4499999999999575
42
0.41421356237310236
10
-43.549999999999258
20
5.4499999999999567
10
-41.449999999999292
20
5.4499999999999567
42
0.4142135623731048
10
-39.449999999999321
20
7.4499999999999389
10
-39.449999999999307
20
9.5499999999999048
42
0.41421356237310403
0
LWPOLYLINE
5
137
100
AcDbEntity
8
0
100
AcDbPolyline
90
8
70
1
43
0.0
10
-32.949999999999442
20
11.549999999999905
10
-35.049999999999393
20
11.549999999999905
42
0.41421356237310575
10
-37.049999999999365
20
9.5499999999999226
10
-37.049999999999386
20
7.4499999999999531
42
0.4142135623731048
10
-35.049999999999443
20
5.4499999999999567
10
-32.94999999999947
20
5.4499999999999567
42
0.41421356237310447
10
-30.949999999999509
20
7.4499999999999389
10
-30.949999999999498
20
9.5499999999999083
42
0.4142135623731022
0
LWPOLYLINE
5
138
100
AcDbEntity
8
0
100
AcDbPolyline
90
8
70
1
43
0.0
10
-24.449999999999619
20
11.549999999999905
10
-26.549999999999578
20
11.549999999999905
42
0.41421356237310575
10
-28.54999999999955
20
9.5499999999999226
10
-28.549999999999564
20
7.4499999999999531
42
0.4142135623731048
10
-26.549999999999621
20
5.4499999999999567
10
-24.449999999999651
20
5.4499999999999567
42
0.41421356237310447
10
-22.44999999999969
20
7.4499999999999389
10
-22.449999999999683
20
9.5499999999999083
42
0.4142135623731022
0
LWPOLYLINE
5
139
100
AcDbEntity
8
0
100
AcDbPolyline
90
8
70
1
43
0.0
10
-15.949999999999802
20
11.549999999999905
10
-18.049999999999756
20
11.549999999999905
42
0.41421356237310575
10
-20.049999999999727
20
9.5499999999999226
10
-20.049999999999745
20
7.4499999999999558
42
0.41421356237310336
10
-18.049999999999802
20
5.4499999999999567
10
-15.949999999999831
20
5.4499999999999567
42
0.41421356237310381
10
-13.949999999999873
20
7.4499999999999389
10
-13.949999999999857
20
9.5499999999999083
42
0.41421356237310464
0
LWPOLYLINE
5
140
100
AcDbEntity
8
0
100
AcDbPolyline
90
8
70
1
43
0.0
10
-7.4499999999999815
20
11.549999999999905
10
-9.5499999999999368
20
11.549999999999905
42
0.41421356237310597
10
-11.549999999999907
20
9.5499999999999226
10
-11.549999999999923
20
7.4499999999999549
42
0.41421356237310447
10
-9.5499999999999812
20
5.4499999999999567
10
-7.4500000000000108
20
5.4499999999999567
42
0.41421356237310436
10
-5.4500000000000535
20
7.4499999999999389
10
-5.4500000000000393
20
9.5499999999999083
42
0.41421356237310514
0
LWPOLYLINE
5
141
100
AcDbEntity
8
0
100
AcDbPolyline
90
8
70
1
43
0.0
10
9.5499999999996597
20
11.549999999999905
10
7.4499999999997026
20
11.549999999999905
42
0.41421356237310608
10
5.4499999999997311
20
9.5499999999999226
10
5.4499999999997168
20
7.4499999999999549
42
0.41421356237310447
10
7.4499999999996591
20
5.4499999999999567
10
9.5499999999996295
20
5.4499999999999567
42
0.41421356237310414
10
11.549999999999585
20
7.4499999999999389
10
11.549999999999601
20
9.5499999999999083
42
0.41421356237310447
0
LWPOLYLINE
5
142
100
AcDbEntity
8
0
100
AcDbPolyline
90
8
70
1
43
0.0
10
18.049999999999478
20
11.549999999999905
10
15.949999999999523
20
11.549999999999905
42
0.41421356237310575
10
13.949999999999552
20
9.5499999999999226
10
13.949999999999536
20
7.4499999999999558
42
0.41421356237310464
10
15.949999999999477
20
5.4499999999999567
10
18.04999999999945
20
5.4499999999999567
42
0.4142135623731048
10
20.049999999999407
20
7.4499999999999389
10
20.049999999999422
20
9.5499999999999083
42
0.41421356237310464
0
LWPOLYLINE
5
143
100
AcDbEntity
8
0
100
AcDbPolyline
90
8
70
1
43
0.0
10
26.549999999999301
20
11.549999999999905
10
24.449999999999346
20
11.549999999999905
42
0.41421356237310575
10
22.449999999999367
20
9.5499999999999226
10
22.449999999999356
20
7.4499999999999531
42
0.4142135623731048
10
24.449999999999299
20
5.4499999999999567
10
26.549999999999269
20
5.4499999999999567
42
0.41421356237310447
10
28.549999999999226
20
7.4499999999999389
10
28.54999999999924
20
9.5499999999999083
42
0.4142135623731022
0
LWPOLYLINE
5
144
100
AcDbEntity
8
0
100
AcDbPolyline
90
8
70
1
43
0.0
10
35.049999999999116
20
11.549999999999905
10
32.949999999999164
20
11.549999999999905
42
0.41421356237310575
10
30.949999999999189
20
9.5499999999999226
10
30.949999999999175
20
7.4499999999999531
42
0.4142135623731048
10
32.949999999999122
20
5.4499999999999567
10
35.049999999999088
20
5.4499999999999567
42
0.41421356237310447
10
37.049999999999045
20
7.4499999999999389
10
37.049999999999059
20
9.5499999999999083
42
0.4142135623731022
0
LWPOLYLINE
5
145
100
AcDbEntity
8
0
100
AcDbPolyline
90
8
70
1
43
0.0
10
43.549999999998938
20
11.549999999999905
10
41.44999999999898
20
11.549999999999905
42
0.41421356237310791
10
39.449999999999008
20
9.5499999999999226
10
39.449999999999001
20
7.4499999999999575
42
0.41421356237310236
10
41.44999999999893
20
5.4499999999999567
10
43.549999999998896
20
5.4499999999999567
42
0.4142135623731048
10
45.549999999998867
20
7.4499999999999389
10
45.549999999998875
20
9.5499999999999048
42
0.41421356237310403
0
LWPOLYLINE
5
146
100
AcDbEntity
8
0
100
AcDbPolyline
90
8
70
1
43
0.0
10
52.049999999998761
20
11.549999999999905
10
49.949999999998802
20
11.549999999999905
42
0.41421356237310758
10
47.949999999998838
20
9.5499999999999226
10
47.949999999998816
20
7.4499999999999575
42
0.41421356237310369
10
49.949999999998759
20
5.4499999999999567
10
52.049999999998718
20
5.4499999999999567
42
0.41421356237310281
10
54.04999999999869
20
7.4499999999999389
10
54.049999999998704
20
9.5499999999999048
42
0.4142135623731053
0
LWPOLYLINE
5
147
100
AcDbEntity
8
0
100
AcDbPolyline
90
8
70
1
43
0.0
10
-49.9499999999992
20
20.049999999999841
10
-52.049999999999159
20
20.049999999999841
42
0.41421356237310708
10
-54.049999999999123
20
18.049999999999851
10
-54.049999999999145
20
15.949999999999886
42
0.41421356237310414
10
-52.049999999999201
20
13.949999999999887
10
-49.949999999999235
20
13.949999999999889
42
0.41421356237310675
10
-47.949999999999278
20
15.949999999999871
10
-47.949999999999264
20
18.049999999999834
42
0.4142135623731022
0
LWPOLYLINE
5
148
100
AcDbEntity
8
0
100
AcDbPolyline
90
8
70
1
43
0.0
10
-41.449999999999378
20
20.049999999999841
10
-43.549999999999329
20
20.049999999999841
42
0.41421356237310575
10
-45.549999999999301
20
18.049999999999851
10
-45.549999999999315
20
15.949999999999886
42
0.41421356237310281
10
-43.549999999999386
20
13.949999999999887
10
-41.44999999999942
20
13.949999999999889
42
0.41421356237310675
10
-39.449999999999449
20
15.949999999999871
10
-39.449999999999442
20
18.049999999999834
42
0.41421356237310086
0
LWPOLYLINE
5
149
100
AcDbEntity
8
0
100
AcDbPolyline
90
8
70
1
43
0.0
10
-32.949999999999562
20
20.049999999999841
10
-35.049999999999521
20
20.049999999999841
42
0.41421356237310641
10
-37.049999999999493
20
18.049999999999851
10
-37.0499999999995
20
15.949999999999882
42
0.4142135623731022
10
-35.049999999999564
20
13.949999999999887
10
-32.949999999999591
20
13.949999999999889
42
0.41421356237310314
10
-30.94999999999963
20
15.949999999999871
10
-30.949999999999619
20
18.049999999999837
42
0.41421356237310314
0
LWPOLYLINE
5
150
100
AcDbEntity
8
0
100
AcDbPolyline
90
8
70
1
43
0.0
10
-15.949999999999925
20
20.049999999999841
10
-18.04999999999988
20
20.049999999999841
42
0.41421356237310414
10
-20.049999999999851
20
18.049999999999851
10
-20.049999999999866
20
15.949999999999884
42
0.4142135623731048
10
-18.049999999999923
20
13.949999999999887
10
-15.949999999999953
20
13.949999999999889
42
0.41421356237310381
10
-13.949999999999996
20
15.949999999999871
10
-13.94999999999998
20
18.049999999999837
42
0.41421356237310514
0
LWPOLYLINE
5
151
100
AcDbEntity
8
0
100
AcDbPolyline
90
8
70
1
43
0.0
10
-7.4500000000001005
20
20.049999999999841
10
-9.5500000000000576
20
20.049999999999841
42
0.41421356237310564
10
-11.550000000000027
20
18.049999999999851
10
-11.550000000000045
20
15.949999999999884
42
0.41421356237310236
10
-9.5500000000001002
20
13.949999999999887
10
-7.4500000000001307
20
13.949999999999889
42
0.41421356237310497
10
-5.4500000000001725
20
15.949999999999871
10
-5.4500000000001592
20
18.049999999999837
42
0.41421356237310447
0
LWPOLYLINE
5
152
100
AcDbEntity
8
0
100
AcDbPolyline
90
8
70
1
43
0.0
10
1.049999999999718
20
20.049999999999841
10
-1.0500000000002376
20
20.049999999999841
42
0.41421356237310525
10
-3.0500000000002094
20
18.049999999999851
10
-3.0500000000002236
20
15.949999999999884
42
0.41421356237310347
10
-1.0500000000002814
20
13.949999999999887
10
1.0499999999996878
20
13.949999999999889
42
0.41421356237310436
10
3.0499999999996454
20
15.949999999999871
10
3.0499999999996601
20
18.049999999999837
42
0.41421356237310453
0
LWPOLYLINE
5
153
100
AcDbEntity
8
0
100
AcDbPolyline
90
8
70
1
43
0.0
10
9.5499999999995389
20
20.049999999999841
10
7.4499999999995827
20
20.049999999999841
42
0.41421356237310575
10
5.4499999999996094
20
18.049999999999851
10
5.4499999999995961
20
15.949999999999884
42
0.41421356237310336
10
7.4499999999995392
20
13.949999999999887
10
9.5499999999995087
20
13.949999999999889
42
0.41421356237310497
10
11.549999999999464
20
15.949999999999871
10
11.54999999999948
20
18.049999999999837
42
0.41421356237310447
0
LWPOLYLINE
5
154
100
AcDbEntity
8
0
100
AcDbPolyline
90
8
70
1
43
0.0
10
18.049999999999354
20
20.049999999999841
10
15.949999999999401
20
20.049999999999841
42
0.41421356237310514
10
13.949999999999429
20
18.049999999999851
10
13.949999999999413
20
15.949999999999884
42
0.4142135623731048
10
15.949999999999358
20
13.949999999999887
10
18.049999999999326
20
13.949999999999889
42
0.41421356237310381
10
20.049999999999287
20
15.949999999999871
10
20.049999999999301
20
18.049999999999837
42
0.41421356237310414
0
LWPOLYLINE
5
155
100
AcDbEntity
8
0
100
AcDbPolyline
90
8
70
1
43
0.0
10
26.549999999999176
20
20.049999999999841
10
24.449999999999221
20
20.049999999999841
42
0.41421356237310641
10
22.44999999999925
20
18.049999999999851
10
22.449999999999235
20
15.949999999999882
42
0.4142135623731022
10
24.449999999999179
20
13.949999999999887
10
26.549999999999152
20
13.949999999999889
42
0.41421356237310314
10
28.549999999999109
20
15.949999999999871
10
28.54999999999912
20
18.049999999999837
42
0.41421356237310314
0
LWPOLYLINE
5
156
100
AcDbEntity
8
0
100
AcDbPolyline
90
8
70
1
43
0.0
10
35.049999999998995
20
20.049999999999841
10
32.949999999999037
20
20.049999999999841
42
0.41421356237310641
10
30.949999999999065
20
18.049999999999851
10
30.949999999999058
20
15.949999999999882
42
0.4142135623731022
10
32.949999999998994
20
13.949999999999887
10
35.049999999998967
20
13.949999999999889
42
0.41421356237310314
10
37.049999999998924
20
15.949999999999871
10
37.049999999998938
20
18.049999999999837
42
0.41421356237310314
0
LWPOLYLINE
5
157
100
AcDbEntity
8
0
100
AcDbPolyline
90
8
70
1
43
0.0
10
1.0499999999999603
20
3.049999999999975
10
-1.0499999999999952
20
3.0499999999999745
42
0.41421356237310647
10
-3.0499999999999665
20
1.0499999999999907
10
-3.0499999999999816
20
-1.0499999999999772
42
0.41421356237310419
10
-1.0500000000000391
20
-3.0499999999999745
10
1.0499999999999301
20
-3.049999999999975
42
0.41421356237310419
10
3.049999999999887
20
-1.0499999999999909
10
3.049999999999903
20
1.0499999999999772
42
0.41421356237310469
0
SPLINE
5
158
100
AcDbEntity
8
0
100
AcDbSpline
70
1064
71
3
72
16
73
12
74
0
42
0.000000001
43
0.0000000001
44
0.0000000001
40
0
40
0
40
0
40
0
40
0.03906444733869277
40
0.03906444733869277
40
0.078128894677385485
40
0.078128894677385485
40
0.11719334201607855
40
0.11719334201607855
40
0.14283776951972491
40
0.14283776951972491
40
0.16848219702337133
40
0.16848219702337133
40
0.16848219702337133
40
0.16848219702337133
10
67.78879107499256
20
6.1094287788933315
30
0
10
67.803040333929047
20
5.9799959425282463
30
0
10
67.791872251083248
20
5.8490173574984592
30
0
10
67.719958637617239
20
5.5987134737146436
30
0
10
67.659900640337739
20
5.4817812165157429
30
0
10
67.498343233842903
20
5.2775196037597816
30
0
10
67.398388401489285
20
5.1921431005518475
30
0
10
67.210371710227662
20
5.0864331396002891
30
0
10
67.13079474425183
20
5.054266233388053
30
0
10
66.965407584206545
20
5.0109605365273149
30
0
10
66.880277869212506
20
4.9999999254941514
30
0
10
66.794796444200358
20
4.9999999254941514
30
0
0
SPLINE
5
159
100
AcDbEntity
8
0
100
AcDbSpline
70
1064
71
5
72
16
73
10
74
0
42
0.000000001
43
0.0000000001
44
0.0000000001
40
0.073255700387698727
40
0.073255700387698727
40
0.073255700387698727
40
0.073255700387698727
40
0.073255700387698727
40
0.073255700387698727
40
0.20000000000000001
40
0.40000000000000002
40
0.60000000000000009
40
0.80000000000000004
40
1
40
1
40
1
40
1
40
1
40
1
10
67.78879107499256
20
6.1094287788933315
30
0
10
67.641698087973978
20
7.4455447554567398
30
0
10
67.113238186367624
20
10.684443621707601
30
0
10
65.65851791498369
20
15.075607374008847
30
0
10
62.481624469113051
20
19.522772360138845
30
0
10
57.002120684108029
20
23.226463860961523
30
0
10
51.439386708323454
20
25.27679995071475
30
0
10
46.952843228080035
20
26.381379890393273
30
0
10
43.831121657828518
20
26.937754927670198
30
0
10
42.237573984087959
20
27.170920620198409
30
0
0
LINE
5
160
100
AcDbEntity
8
0
100
AcDbLine
10
42.237573984087945
20
27.170920620198409
30
0
11
42.061091813311016
21
27.199054574887512
31
2.064683361435971e-032
0
SPLINE
5
161
100
AcDbEntity
8
0
100
AcDbSpline
70
1064
71
5
72
12
73
6
74
0
42
0.000000001
43
0.0000000001
44
0.0000000001
40
0.43272782581521418
40
0.43272782581521418
40
0.43272782581521418
40
0.43272782581521418
40
0.43272782581521418
40
0.43272782581521418
40
0.51335127524840074
40
0.51335127524840074
40
0.51335127524840074
40
0.51335127524840074
40
0.51335127524840074
40
0.51335127524840074
10
42.061091813311016
20
27.199054574887555
30
0
10
41.038204571943709
20
27.312044629494014
30
0
10
39.989758726801618
20
27.454627242799692
30
0
10
38.917056858111344
20
27.626053989241612
30
0
10
37.821302747874846
20
27.82571027659251
30
0
10
36.703584607829683
20
28.053123086748958
30
0
0
LINE
5
162
100
AcDbEntity
8
0
100
AcDbLine
10
36.703584607829683
20
28.053123086748958
30
0
11
36.506714522860143
21
28.08450718648999
31
3.2376162058368022e-032
0
SPLINE
5
163
100
AcDbEntity
8
0
100
AcDbSpline
70
1064
71
5
72
16
73
10
74
0
42
0.000000001
43
0.0000000001
44
0.0000000001
40
0
40
0
40
0
40
0
40
0
40
0
40
0.20000000000000001
40
0.40000000000000002
40
0.60000000000000009
40
0.80000000000000004
40
1
40
1
40
1
40
1
40
1
40
1
10
36.50671452286015
20
28.08450718648999
30
0
10
34.836519449171149
20
28.372998750114583
30
0
10
31.194841131442846
20
28.938671656562882
30
0
10
24.829270116897998
20
29.753219534525019
30
0
10
14.783039359409045
20
30.727637842655827
30
0
10
0.48283519869276326
20
31.446075248080003
30
0
10
-11.8316445543862
20
31.223071011071855
30
0
10
-21.412134646024128
20
30.340443406451143
30
0
10
-27.944946575668112
20
29.379869161617918
30
0
10
-31.247824116630678
20
28.8064576453041
30
0
0
LINE
5
164
100
AcDbEntity
8
0
100
AcDbLine
10
-31.247824116630678
20
28.8064576453041
30
0
11
-31.484365893835108
21
28.760038541512579
31
-9.4813074413017354e-033
0
SPLINE
5
165
100
AcDbEntity
8
0
100
AcDbSpline
70
1064
71
5
72
12
73
6
74
0
42
0.000000001
43
0.0000000001
44
0.0000000001
40
0.95614674026457724
40
0.95614674026457724
40
0.95614674026457724
40
0.95614674026457724
40
0.95614674026457724
40
0.95614674026457724
40
1
40
1
40
1
40
1
40
1
40
1
10
-31.484365893835093
20
28.760038541512579
30
0
10
-32.125838813781947
20
28.611500928794584
30
0
10
-32.797890785720227
20
28.466868055685495
30
0
10
-33.500746112977026
20
28.326177880254598
30
0
10
-34.234529418684318
20
28.189451127172443
30
0
10
-34.999247164920831
20
28.056688723182795
30
0
0
LINE
5
166
100
AcDbEntity
8
0
100
AcDbLine
10
-34.999247164920831
20
28.056688723182795
30
0
11
-57.99948009604261
21
24.06362562076999
31
1.0806009915106614e-029
0
SPLINE
5
167
100
AcDbEntity
8
0
100
AcDbSpline
70
1064
71
5
72
16
73
10
74
0
42
0.000000001
43
0.0000000001
44
0.0000000001
40
0
40
0
40
0
40
0
40
0
40
0
40
0.20000000000000001
40
0.40000000000000002
40
0.60000000000000009
40
0.80000000000000004
40
1
40
1
40
1
40
1
40
1
40
1
10
-57.999480096042618
20
24.063625620769994
30
0
10
-59.135760031291525
20
23.841223973836133
30
0
10
-61.276748838833477
20
23.186113335768578
30
0
10
-64.09384061868775
20
21.573087531913036
30
0
10
-67.14115154921052
20
18.330921477215785
30
0
10
-69.959830768075122
20
13.034352853199326
30
0
10
-71.428533565356418
20
8.1381623782388193
30
0
10
-72.008173719450653
20
4.1807931301577845
30
0
10
-72.137052285599751
20
1.4174458718379297
30
0
10
-72.137052285599751
20
0.0044797513135793107
30
0
0
SPLINE
5
168
100
AcDbEntity
8
0
100
AcDbSpline
70
1064
71
5
72
16
73
10
74
0
42
0.000000001
43
0.0000000001
44
0.0000000001
40
-1
40
-1
40
-1
40
-1
40
-1
40
-1
40
-0.80000000000000004
40
-0.60000000000000009
40
-0.40000000000000002
40
-0.20000000000000001
40
-0
40
-0
40
-0
40
-0
40
-0
40
-0
10
-72.137052285599751
20
0.0044797513135793107
30
0
10
-72.137052285599765
20
-1.4084863692107708
30
0
10
-72.008173719450639
20
-4.171833627530642
30
0
10
-71.428533565356233
20
-8.129202875611746
30
0
10
-69.959830768074397
20
-13.025393350572399
30
0
10
-67.141151549209667
20
-18.321961974588916
30
0
10
-64.093840618687238
20
-21.564128029286106
30
0
10
-61.27674883883369
20
-23.177153833141446
30
0
10
-59.135760031291873
20
-23.832264471208976
30
0
10
-57.999480096042966
20
-24.054666118142837
30
0
0
LINE
5
169
100
AcDbEntity
8
0
100
AcDbLine
10
-57.999480096042966
20
-24.054666118142837
30
0
11
-34.999247164921222
21
-28.047729220555638
31
-4.9712081893140987e-030
0
SPLINE
5
170
100
AcDbEntity
8
0
100
AcDbSpline
70
1064
71
5
72
12
73
6
74
0
42
0.000000001
43
0.0000000001
44
0.0000000001
40
-1
40
-1
40
-1
40
-1
40
-1
40
-1
40
-0.95288952809431249
40
-0.95288952809431249
40
-0.95288952809431249
40
-0.95288952809431249
40
-0.95288952809431249
40
-0.95288952809431249
10
-34.999247164921229
20
-28.047729220555631
30
0
10
-34.177729810972835
20
-28.190352586321836
30
0
10
-33.391912884193275
20
-28.337551077858144
30
0
10
-32.641788372987953
20
-28.489323546200627
30
0
10
-31.927190890434755
20
-28.645642474092874
30
0
10
-31.24782411663108
20
-28.806457645303762
30
0
0
SPLINE
5
171
100
AcDbEntity
8
0
100
AcDbSpline
70
1064
71
5
72
16
73
10
74
0
42
0.000000001
43
0.0000000001
44
0.0000000001
40
-1
40
-1
40
-1
40
-1
40
-1
40
-1
40
-0.80000000000000004
40
-0.60000000000000009
40
-0.40000000000000002
40
-0.20000000000000001
40
-0
40
-0
40
-0
40
-0
40
-0
40
-0
10
-31.247824116631083
20
-28.806457645303773
30
0
10
-27.944946575668524
20
-29.379869161617588
30
0
10
-21.412134646024569
20
-30.340443406450817
30
0
10
-11.831644554386667
20
-31.223071011071525
30
0
10
0.48283519869225755
20
-31.446075248079673
30
0
10
14.783039359408527
20
-30.727637842655501
30
0
10
24.829270116897547
20
-29.753219534524689
30
0
10
31.194841131442427
20
-28.938671656562551
30
0
10
34.836519449170751
20
-28.372998750114252
30
0
10
36.506714522859752
20
-28.084507186489663
30
0
0
SPLINE
5
172
100
AcDbEntity
8
0
100
AcDbSpline
70
1064
71
5
72
12
73
6
74
0
42
0.000000001
43
0.0000000001
44
0.0000000001
40
-0.516187494588767
40
-0.516187494588767
40
-0.516187494588767
40
-0.516187494588767
40
-0.516187494588767
40
-0.516187494588767
40
-0.42994095637082003
40
-0.42994095637082003
40
-0.42994095637082003
40
-0.42994095637082003
40
-0.42994095637082003
40
-0.42994095637082003
10
36.50671452285976
20
-28.084507186489667
30
0
10
37.705685592201583
20
-27.837059035259273
30
0
10
38.879652956345808
20
-27.621317662013279
30
0
10
40.027294441068399
20
-27.437849914839308
30
0
10
41.147135754763362
20
-27.287408396438817
30
0
10
42.237573984087568
20
-27.170920620198082
30
0
0
SPLINE
5
173
100
AcDbEntity
8
0
100
AcDbSpline
70
1064
71
5
72
16
73
10
74
0
42
0.000000001
43
0.0000000001
44
0.0000000001
40
-1
40
-1
40
-1
40
-1
40
-1
40
-1
40
-0.80000000000000004
40
-0.60000000000000009
40
-0.40000000000000002
40
-0.20000000000000001
40
-0.073255703300226932
40
-0.073255703300226932
40
-0.073255703300226932
40
-0.073255703300226932
40
-0.073255703300226932
40
-0.073255703300226932
10
42.237573984087568
20
-27.170920620198082
30
0
10
43.831121657828128
20
-26.937754927669868
30
0
10
46.952843228079658
20
-26.381379890392942
30
0
10
51.439386708323099
20
-25.27679995071442
30
0
10
57.002120684107695
20
-23.226463860961193
30
0
10
62.481624451892046
20
-19.522772371778302
30
0
10
65.658517889519814
20
-15.075607409653774
30
0
10
67.113238162236712
20
-10.684443694547479
30
0
10
67.641698069131564
20
-7.445544870939794
30
0
10
67.788791058091803
20
-6.1094289324097861
30
0
0
SPLINE
5
174
100
AcDbEntity
8
0
100
AcDbSpline
70
1064
71
3
72
16
73
12
74
0
42
0.000000001
43
0.0000000001
44
0.0000000001
40
0
40
0
40
0
40
0
40
0.039064447338691903
40
0.039064447338691903
40
0.078128894677385263
40
0.078128894677385263
40
0.11719334201607795
40
0.11719334201607795
40
0.14283776974725385
40
0.14283776974725385
40
0.16848219747842993
40
0.16848219747842993
40
0.16848219747842993
40
0.16848219747842993
10
66.794796427795561
20
-5.0000000745057651
30
0
10
66.92501125225786
20
-5.0000000745057633
30
0
10
67.053981152025756
20
-5.0254339252703906
30
0
10
67.294912444307911
20
-5.124306137940283
30
0
10
67.404570402350288
20
-5.1967992276029058
30
0
10
67.589926306955803
20
-5.3797385363008239
30
0
10
67.663852150044136
20
-5.4884357558353392
30
0
10
67.748352833003679
20
-5.6868910579663225
30
0
10
67.771618549038607
20
-5.7695101233106341
30
0
10
67.796566051748286
20
-5.9386429667078868
30
0
10
67.798145192885897
20
-6.0244608542037543
30
0
10
67.788791058091803
20
-6.109428932409787
30
0
0
LINE
5
175
100
AcDbEntity
8
0
100
AcDbLine
10
66.794796427795561
20
-5.0000000745057651
30
0
11
61.000000879167132
21
-5.0000000745057651
31
-3.1373158071139838e-058
0
ARC
5
176
100
AcDbEntity
8
0
100
AcDbCircle
10
61.000000879167153
20
-3.000000074505782
30
0
40
1.9999999999999574
100
AcDbArc
50
180
51
269.99999999999937
0
LINE
5
177
100
AcDbEntity
8
0
100
AcDbLine
10
59.000000879167196
20
-3.0000000745057958
30
-1.5777218104419952e-030
11
59.000000879167239
21
2.9999999254941692
31
-2.6123994639169827e-030
0
ARC
5
178
100
AcDbEntity
8
0
100
AcDbCircle
10
61.000000879167196
20
2.9999999254941692
30
0
40
1.999999999999984
100
AcDbArc
50
89.999999999998991
51
180
0
LINE
5
179
100
AcDbEntity
8
0
100
AcDbLine
10
61.000000879167231
20
4.9999999254941532
30
2.2884201498953556e-033
11
66.794796444200358
21
4.9999999254941514
31
0
0
LWPOLYLINE
5
180
100
AcDbEntity
8
0
100
AcDbPolyline
90
4
70
1
43
0.0
10
-13.404472279831044
20
23.400000372529
42
-0.99999999999999989
10
-13.404472279830999
20
26.600000372528978
10
8.5955277201685423
20
26.600000372528964
42
-0.99999999999999989
10
8.5955277201684979
20
23.400000372529014
0
CIRCLE
5
181
100
AcDbEntity
8
0
100
AcDbCircle
10
47.595528301312953
20
20
30
0
40
1.5999999999999883
0
LWPOLYLINE
5
182
100
AcDbEntity
8
0
100
AcDbPolyline
90
4
70
1
43
0.0
10
-13.404472279831378
20
-26.600000372528648
10
8.5955277201681533
20
-26.600000372528683
42
0.99999999999999989
10
8.5955277201681763
20
-23.400000372528691
10
-13.404472279831346
20
-23.400000372528673
42
0.99999999999999989
0
CIRCLE
5
183
100
AcDbEntity
8
0
100
AcDbCircle
10
8.6000000000005627
20
1.6431300764452312e-013
30
0
40
1.5999999999999872
0
CIRCLE
5
184
100
AcDbEntity
8
0
100
AcDbCircle
10
-27.154020347715875
20
-22.945051496685529
30
0
40
1.5999999999999883
0
CIRCLE
5
185
100
AcDbEntity
8
0
100
AcDbCircle
10
-27.154020347715822
20
-15.249999999999746
30
0
40
1.5999999999999883
0
CIRCLE
5
186
100
AcDbEntity
8
0
100
AcDbCircle
10
-57.654020347715196
20
-15.249999999999751
30
0
40
1.5999999999999883
0
CIRCLE
5
187
100
AcDbEntity
8
0
100
AcDbCircle
10
-57.654020347714976
20
15.250000000000004
30
0
40
1.5999999999999883
0
CIRCLE
5
188
100
AcDbEntity
8
0
100
AcDbCircle
10
-27.154020347715605
20
15.250000000000005
30
0
40
1.5999999999999883
0
CIRCLE
5
189
100
AcDbEntity
8
0
100
AcDbCircle
10
-27.154020347715544
20
22.94505149668586
30
0
40
1.5999999999999883
0
CIRCLE
5
190
100
AcDbEntity
8
0
100
AcDbCircle
10
47.595528301312669
20
-20.000000298022897
30
0
40
1.5999999999999883
0
ENDSEC
0
SECTION
2
OBJECTS
0
DICTIONARY
5
C
100
AcDbDictionary
3
ACAD_GROUP
350
D
3
ACAD_MLINESTYLE
350
17
0
DICTIONARY
5
D
100
AcDbDictionary
0
DICTIONARY
5
1A
330
C
100
AcDbDictionary
0
DICTIONARY
5
17
100
AcDbDictionary
0
ENDSEC
0
EOF
