0
SECTION
2
HEADER
9
$INSUNITS
70
4
9
$ACADVER
1
AC1014
9
$HANDSEED
5
FFFF
0
ENDSEC
0
SECTION
2
TABLES
0
TABLE
2
VPORT
5
8
100
AcDbSymbolTable
0
ENDTAB
0
TABLE
2
LTYPE
5
5
100
AcDbSymbolTable
0
LTYPE
5
14
100
AcDbSymbolTableRecord
100
AcDbLinetypeTableRecord
2
BYBLOCK
70
0
0
LTYPE
5
15
100
AcDbSymbolTableRecord
100
AcDbLinetypeTableRecord
2
BYLAYER
70
0
0
ENDTAB
0
TABLE
2
LAYER
5
2
100
AcDbSymbolTable
70
2
0
LAYER
5
50
100
AcDbSymbolTableRecord
100
AcDbLayerTableRecord
2
0
70
0
6
CONTINUOUS
0
ENDTAB
0
TABLE
2
STYLE
5
3
100
AcDbSymbolTable
70
1
0
STYLE
5
11
100
AcDbSymbolTableRecord
100
AcDbTextStyleTableRecord
2
STANDARD
70
0
0
ENDTAB
0
TABLE
2
VIEW
5
6
100
AcDbSymbolTable
70
0
0
ENDTAB
0
TABLE
2
UCS
5
7
100
AcDbSymbolTable
70
0
0
ENDTAB
0
TABLE
2
APPID
5
9
100
AcDbSymbolTable
70
2
0
APPID
5
12
100
AcDbSymbolTableRecord
100
AcDbRegAppTableRecord
2
ACAD
70
0
0
ENDTAB
0
TABLE
2
DIMSTYLE
5
A
100
AcDbSymbolTable
70
1
0
ENDTAB
0
TABLE
2
BLOCK_RECORD
5
1
100
AcDbSymbolTable
70
1
0
BLOCK_RECORD
5
1F
100
AcDbSymbolTableRecord
100
AcDbBlockTableRecord
2
*MODEL_SPACE
0
BLOCK_RECORD
5
1B
100
AcDbSymbolTableRecord
100
AcDbBlockTableRecord
2
*PAPER_SPACE
0
ENDTAB
0
ENDSEC
0
SECTION
2
BLOCKS
0
BLOCK
5
20
100
AcDbEntity
100
AcDbBlockBegin
2
*MODEL_SPACE
0
ENDBLK
5
21
100
AcDbEntity
100
AcDbBlockEnd
0
BLOCK
5
1C
100
AcDbEntity
100
AcDbBlockBegin
2
*PAPER_SPACE
0
ENDBLK
5
1D
100
AcDbEntity
100
AcDbBlockEnd
0
ENDSEC
0
SECTION
2
ENTITIES
0
LWPOLYLINE
5
100
100
AcDbEntity
8
0
100
AcDbPolyline
90
4
70
1
43
0.0
10
43.804000000000009
20
11
10
28.804000000000009
20
11
42
0.99999999999999989
10
28.804000000000009
20
9.5000000000000018
10
43.804000000000009
20
9.5000000000000018
42
0.99999999999999989
0
LWPOLYLINE
5
101
100
AcDbEntity
8
0
100
AcDbPolyline
90
4
70
1
43
0.0
10
41.304000000000009
20
1
10
31.304000000000009
20
1
42
0.99999999999999989
10
31.304000000000009
20
-1
10
41.304000000000009
20
-1
42
0.99999999999999989
0
LWPOLYLINE
5
102
100
AcDbEntity
8
0
100
AcDbPolyline
90
4
70
1
43
0.0
10
43.804000000000009
20
-9.5000000000000018
10
28.804000000000009
20
-9.5000000000000018
42
0.99999999999999989
10
28.804000000000009
20
-11
10
43.804000000000009
20
-11
42
0.99999999999999989
0
CIRCLE
5
103
100
AcDbEntity
8
0
100
AcDbCircle
10
-21.25
20
-5
30
0
40
1.5000000000000002
0
CIRCLE
5
104
100
AcDbEntity
8
0
100
AcDbCircle
10
-21.25
20
5
30
0
40
1.5000000000000002
0
LWPOLYLINE
5
105
100
AcDbEntity
8
0
100
AcDbPolyline
90
18
70
1
43
0.0
10
-29.395501646091038
20
22
10
23.449552361028552
20
22
10
30.904617204740681
20
23.499999999999996
10
34.132972158663151
20
23.499999999999996
10
46.205579694430455
20
16.927617364014168
42
-0.35751277479782667
10
46.205579719289879
20
-16.927617333690755
10
34.132972639201576
20
-23.499999999999996
10
30.904616320267387
20
-23.499999999999996
10
23.449551872796697
20
-22
10
-29.395500425163643
20
-21.999999999999996
42
-0.17941998356094241
10
-31.787143462114056
20
-21.55037530407683
10
-38.94615112035946
20
-17.250375199768705
42
-0.57948951979383845
10
-38.821664952946655
20
-11.178283817528952
10
-29.603117181369633
20
-6.1434324202237605
42
0.59326283068133312
10
-29.603117124617011
20
6.1434322786640987
10
-38.821664981322968
20
11.178283833027107
42
-0.57948952386026742
10
-38.946151056107567
20
17.250375238361084
10
-31.78714339786216
20
21.550375134052956
42
-0.17941988671386586
0
LWPOLYLINE
5
106
100
AcDbEntity
8
0
100
AcDbPolyline
90
4
70
1
43
0.0
10
-9.6248493346586095
20
16.749999731779081
10
9.624849334658613
20
16.749999731779081
42
0.99999999999999989
10
9.624849334658613
20
19.249999731779081
10
-9.624849334658613
20
19.249999731779081
42
0.99999999999999989
0
LWPOLYLINE
5
107
100
AcDbEntity
8
0
100
AcDbPolyline
90
4
70
1
43
0.0
10
-9.6248493212796475
20
-19.250000268220919
10
9.6248493212796475
20
-19.250000268220919
42
0.99999999999999989
10
9.6248493212796475
20
-16.750000268220919
10
-9.6248493212796475
20
-16.750000268220919
42
0.99999999999999989
0
CIRCLE
5
108
100
AcDbEntity
8
0
100
AcDbCircle
10
-37.143999999999991
20
-14.249999999999996
30
0
40
1.5000000000000002
0
CIRCLE
5
109
100
AcDbEntity
8
0
100
AcDbCircle
10
43.804000000000009
20
-14.249999999999998
30
0
40
1.5000000000000002
0
CIRCLE
5
110
100
AcDbEntity
8
0
100
AcDbCircle
10
43.804000000000009
20
14.249999999999998
30
0
40
1.5000000000000002
0
CIRCLE
5
111
100
AcDbEntity
8
0
100
AcDbCircle
10
-37.143999999999991
20
14.249999999999996
30
0
40
1.5000000000000002
0
LWPOLYLINE
5
112
100
AcDbEntity
8
0
100
AcDbPolyline
90
8
70
1
43
0.0
10
-13.25
20
-7.0000001043081284
10
-11.750000163912773
20
-6.9999999403953561
42
0.41421356237309503
10
-9.5000001639127714
20
-4.7499999403953552
10
-9.5000001639127714
20
4.749999763249444
42
0.41421356237309559
10
-11.750000163912773
20
6.9999997632494448
10
-13.249999986588112
20
6.9999998521032261
42
0.41421356433722023
10
-15.25
20
4.9999998521032225
10
-15.25
20
-5.000000104308131
42
0.4142135623730947
0
CIRCLE
5
113
100
AcDbEntity
8
0
100
AcDbCircle
10
-29.984992341754587
20
18.549999895691872
30
0
40
1.5000000000000002
0
CIRCLE
5
114
100
AcDbEntity
8
0
100
AcDbCircle
10
34.757419155964229
20
-19.175000104308126
30
0
40
1.5000000000000002
0
CIRCLE
5
115
100
AcDbEntity
8
0
100
AcDbCircle
10
34.757419155964229
20
19.174999895691872
30
0
40
1.5000000000000002
0
CIRCLE
5
116
100
AcDbEntity
8
0
100
AcDbCircle
10
-29.984992341754587
20
-18.550000104308126
30
0
40
1.5000000000000002
0
LWPOLYLINE
5
117
100
AcDbEntity
8
0
100
AcDbPolyline
90
8
70
1
43
0.0
10
12.250000268220905
20
-7.0000001043081284
10
20.250000268220901
20
-7.0000001043081284
42
0.41421356237309503
10
22.500000268220901
20
-4.7500001043081284
10
22.500000268220901
20
4.7499998956918716
42
0.4142135623730957
10
20.250000268220898
20
6.9999998956918734
10
12.250000268220905
20
6.999999865356842
42
0.41421356237309503
10
10.000000268220903
20
4.7499998653568412
10
10.000000268220903
20
-4.7500001043081275
42
0.41421356237309559
0
CIRCLE
5
118
100
AcDbEntity
8
0
100
AcDbCircle
10
10
20
10
30
0
40
1
0
CIRCLE
5
119
100
AcDbEntity
8
0
100
AcDbCircle
10
-10
20
-10
30
0
40
1
0
CIRCLE
5
120
100
AcDbEntity
8
0
100
AcDbCircle
10
-10
20
10
30
0
40
1
0
CIRCLE
5
121
100
AcDbEntity
8
0
100
AcDbCircle
10
10
20
-10
30
0
40
1
0
CIRCLE
5
122
100
AcDbEntity
8
0
100
AcDbCircle
10
15.25
20
-15.250000000000002
30
0
40
1.5000000000000002
0
CIRCLE
5
123
100
AcDbEntity
8
0
100
AcDbCircle
10
-15.25
20
-15.250000000000002
30
0
40
1.5000000000000002
0
CIRCLE
5
124
100
AcDbEntity
8
0
100
AcDbCircle
10
-15.25
20
15.250000000000002
30
0
40
1.5000000000000002
0
CIRCLE
5
125
100
AcDbEntity
8
0
100
AcDbCircle
10
15.25
20
15.250000000000002
30
0
40
1.5000000000000002
0
ENDSEC
0
SECTION
2
OBJECTS
0
DICTIONARY
5
C
100
AcDbDictionary
3
ACAD_GROUP
350
D
3
ACAD_MLINESTYLE
350
17
0
DICTIONARY
5
D
100
AcDbDictionary
0
DICTIONARY
5
1A
330
C
100
AcDbDictionary
0
DICTIONARY
5
17
100
AcDbDictionary
0
ENDSEC
0
EOF
