0
SECTION
2
HEADER
9
$INSUNITS
70
4
9
$ACADVER
1
AC1014
9
$HANDSEED
5
FFFF
0
ENDSEC
0
SECTION
2
TABLES
0
TABLE
2
VPORT
5
8
100
AcDbSymbolTable
0
ENDTAB
0
TABLE
2
LTYPE
5
5
100
AcDbSymbolTable
0
LTYPE
5
14
100
AcDbSymbolTableRecord
100
AcDbLinetypeTableRecord
2
BYBLOCK
70
0
0
LTYPE
5
15
100
AcDbSymbolTableRecord
100
AcDbLinetypeTableRecord
2
BYLAYER
70
0
0
ENDTAB
0
TABLE
2
LAYER
5
2
100
AcDbSymbolTable
70
2
0
LAYER
5
50
100
AcDbSymbolTableRecord
100
AcDbLayerTableRecord
2
0
70
0
6
CONTINUOUS
0
ENDTAB
0
TABLE
2
STYLE
5
3
100
AcDbSymbolTable
70
1
0
STYLE
5
11
100
AcDbSymbolTableRecord
100
AcDbTextStyleTableRecord
2
STANDARD
70
0
0
ENDTAB
0
TABLE
2
VIEW
5
6
100
AcDbSymbolTable
70
0
0
ENDTAB
0
TABLE
2
UCS
5
7
100
AcDbSymbolTable
70
0
0
ENDTAB
0
TABLE
2
APPID
5
9
100
AcDbSymbolTable
70
2
0
APPID
5
12
100
AcDbSymbolTableRecord
100
AcDbRegAppTableRecord
2
ACAD
70
0
0
ENDTAB
0
TABLE
2
DIMSTYLE
5
A
100
AcDbSymbolTable
70
1
0
ENDTAB
0
TABLE
2
BLOCK_RECORD
5
1
100
AcDbSymbolTable
70
1
0
BLOCK_RECORD
5
1F
100
AcDbSymbolTableRecord
100
AcDbBlockTableRecord
2
*MODEL_SPACE
0
BLOCK_RECORD
5
1B
100
AcDbSymbolTableRecord
100
AcDbBlockTableRecord
2
*PAPER_SPACE
0
ENDTAB
0
ENDSEC
0
SECTION
2
BLOCKS
0
BLOCK
5
20
100
AcDbEntity
100
AcDbBlockBegin
2
*MODEL_SPACE
0
ENDBLK
5
21
100
AcDbEntity
100
AcDbBlockEnd
0
BLOCK
5
1C
100
AcDbEntity
100
AcDbBlockBegin
2
*PAPER_SPACE
0
ENDBLK
5
1D
100
AcDbEntity
100
AcDbBlockEnd
0
ENDSEC
0
SECTION
2
ENTITIES
0
LINE
5
100
100
AcDbEntity
8
0
100
AcDbLine
10
-121.9095744488893
20
-4.5608387386532812
30
0
11
-120.84891427710951
21
-5.6214989104331634
31
0
0
LWPOLYLINE
5
101
100
AcDbEntity
8
0
100
AcDbPolyline
90
4
70
1
43
0.0
10
-121.90957444888922
20
4.5608387386531577
10
-120.84891427710949
20
5.6214989104329334
42
0.99999999999999989
10
-123.04094529878782
20
7.8135299321112939
10
-124.10160548689952
20
6.7528697439995806
42
0.9999999925494194
0
LWPOLYLINE
5
102
100
AcDbEntity
8
0
100
AcDbPolyline
90
4
70
1
43
0.0
10
50.900000000000219
20
-1.4500000000000399
10
58.100000000000037
20
-1.4500000000000492
42
0.99999999999999989
10
58.100000000000037
20
1.449999999999942
10
50.900000000000219
20
1.4499999999999251
42
0.99999999999999989
0
LINE
5
103
100
AcDbEntity
8
0
100
AcDbLine
10
-133.223282947874
20
-6.7528697603316079
30
0
11
-134.2839431196538
21
-7.8135299321114093
31
0
0
ARC
5
104
100
AcDbEntity
8
0
100
AcDbCircle
10
-135.37995863049298
20
-6.7175144212722593
30
0
40
1.550000000000058
100
AcDbArc
50
134.9999991462287
51
315.0000000000008
0
ARC
5
105
100
AcDbEntity
8
0
100
AcDbCircle
10
-135.37995863049309
20
6.7175144212721882
30
0
40
1.550000000000002
100
AcDbArc
50
44.999999999999723
51
224.99999999999906
0
LINE
5
106
100
AcDbEntity
8
0
100
AcDbLine
10
-136.47597412500031
20
-5.6214988941012143
30
0
11
-135.4153139695523
21
-4.5608387386532714
31
0
0
ARC
5
107
100
AcDbEntity
8
0
100
AcDbCircle
10
-134.31929845871309
20
-5.6568542494924401
30
0
40
1.5500000000000074
100
AcDbArc
50
-45.000000000001883
51
134.99999914622578
0
LINE
5
108
100
AcDbEntity
8
0
100
AcDbLine
10
-134.28394311965394
20
7.8135299321113294
30
0
11
-133.22328294787408
21
6.752869760331528
31
0
0
ARC
5
109
100
AcDbEntity
8
0
100
AcDbCircle
10
-121.94492978794871
20
-6.7175144212723126
30
0
40
1.5499999999999963
100
AcDbArc
50
-134.99999999999966
51
44.999999999998806
0
CIRCLE
5
110
100
AcDbEntity
8
0
100
AcDbCircle
10
44.000000000000234
20
0
30
0
40
1.4750000000000001
0
LINE
5
111
100
AcDbEntity
8
0
100
AcDbLine
10
-135.41531396955241
20
4.5608387386532101
30
0
11
-136.47597414133227
21
5.6214989104330435
31
0
0
LWPOLYLINE
5
112
100
AcDbEntity
8
0
100
AcDbPolyline
90
30
70
1
43
0.0
10
-119.49476011246459
20
14.586292603480715
42
-0.023924779286597128
10
-118.20922236451325
20
13.670927277473965
42
0.14498302280177008
10
-103.4981231968443
20
7.5561000734545569
42
0.026499738706009097
10
-102.44036412652102
20
7.4999999999998757
10
63.780643808834071
20
7.4999999999998739
42
-0.17786859946680331
10
66.370068754910662
20
6.5487503093293125
42
-0.46267319747600372
10
66.370068754910633
20
-6.5487503093294173
42
-0.17786859946680389
10
63.78064380883405
20
-7.5
10
-102.440364126521
20
-7.5
42
0.026499738706000694
10
-103.4981231968443
20
-7.5561000734546635
42
0.14498302280177244
10
-118.20922236451325
20
-13.670927277474142
42
-0.023924779286594797
10
-119.49476011246462
20
-14.586292603480882
42
-0.35163889639393164
10
-125.0965168810044
20
-13.993999338501791
10
-126.59593216273251
20
-12.50590035714692
42
0.11737104688024003
10
-127.78185127250765
20
-11.782168584245614
42
0.28190029638586228
10
-131.38515609411002
20
-12.645935253588052
10
-136.18700869764487
20
-17.44285105702992
42
-0.35195103835883224
10
-141.78608327573937
20
-18.094610203143439
42
-0.10777563399007294
10
-146.76787132625131
20
-13.132351222517462
42
-0.35293001930681644
10
-146.19637882682122
20
-7.5122414465603171
10
-139.43953597240042
20
-0.76000862609024045
42
0.41441347880153934
10
-139.43953597240039
20
0.76000862609010511
10
-146.19637882682125
20
7.5122414465601404
42
-0.35293001930682605
10
-146.76787132625145
20
13.132351222517462
42
-0.10777563399007327
10
-141.78608327573932
20
18.094610203143265
42
-0.35195103835882896
10
-136.1870086976449
20
17.442851057029838
10
-131.38515609410996
20
12.645935253587927
42
0.28190029638585751
10
-127.78185127250757
20
11.782168584245511
42
0.11737104688025227
10
-126.59593216273251
20
12.50590035714675
10
-125.0965168810044
20
13.993999338501752
42
-0.35163889639393486
0
CIRCLE
5
113
100
AcDbEntity
8
0
100
AcDbCircle
10
65
20
0
30
0
40
1.4750000000000001
0
CIRCLE
5
114
100
AcDbEntity
8
0
100
AcDbCircle
10
-128.66244420922078
20
-5.3300000000000004e-14
30
0
40
4.0000000000000044
0
ARC
5
115
100
AcDbEntity
8
0
100
AcDbCircle
10
-134.31929845871332
20
5.656854249492369
30
0
40
1.5500000000000169
100
AcDbArc
50
-134.99999999999835
51
44.999999999997954
0
LINE
5
116
100
AcDbEntity
8
0
100
AcDbLine
10
-123.04094529878785
20
-7.8135299321114635
30
0
11
-124.10160547056761
21
-6.7528697603315813
31
0
0
ARC
5
117
100
AcDbEntity
8
0
100
AcDbCircle
10
-123.00558995972851
20
-5.6568542494924321
30
0
40
1.5499999999999967
100
AcDbArc
50
44.999999999998501
51
225.00000000000142
0
ENDSEC
0
SECTION
2
OBJECTS
0
DICTIONARY
5
C
100
AcDbDictionary
3
ACAD_GROUP
350
D
3
ACAD_MLINESTYLE
350
17
0
DICTIONARY
5
D
100
AcDbDictionary
0
DICTIONARY
5
1A
330
C
100
AcDbDictionary
0
DICTIONARY
5
17
100
AcDbDictionary
0
ENDSEC
0
EOF
