  0
SECTION
  2
HEADER
  9
$ACADVER
  1
AC1024
  9
$ACADMAINTVER
 70
     6
  9
$DWGCODEPAGE
  3
UNDEFINED
  9
$INSBASE
 10
0.0
 20
0.0
 30
0.0
  9
$EXTMIN
 10
1.000000000000000E+20
 20
1.000000000000000E+20
 30
1.000000000000000E+20
  9
$EXTMAX
 10
-1.000000000000000E+20
 20
-1.000000000000000E+20
 30
-1.000000000000000E+20
  9
$LIMMIN
 10
0.0
 20
0.0
  9
$LIMMAX
 10
12.0
 20
9.0
  9
$ORTHOMODE
 70
     0
  9
$REGENMODE
 70
     1
  9
$FILLMODE
 70
     1
  9
$QTEXTMODE
 70
     0
  9
$MIRRTEXT
 70
     1
  9
$LTSCALE
 40
1.0
  9
$ATTMODE
 70
     1
  9
$TEXTSIZE
 40
0.2
  9
$TRACEWID
 40
0.05
  9
$TEXTSTYLE
  7
Standard
  9
$CLAYER
  8
0
  9
$CELTYPE
  6
ByLayer
  9
$CECOLOR
 62
   256
  9
$CELTSCALE
 40
1.0
  9
$DISPSILH
 70
     0
  9
$DIMSCALE
 40
1.0
  9
$DIMASZ
 40
0.18
  9
$DIMEXO
 40
0.0625
  9
$DIMDLI
 40
0.38
  9
$DIMRND
 40
0.0
  9
$DIMDLE
 40
0.0
  9
$DIMEXE
 40
0.18
  9
$DIMTP
 40
0.0
  9
$DIMTM
 40
0.0
  9
$DIMTXT
 40
0.18
  9
$DIMCEN
 40
0.09
  9
$DIMTSZ
 40
0.0
  9
$DIMTOL
 70
     0
  9
$DIMLIM
 70
     0
  9
$DIMTIH
 70
     1
  9
$DIMTOH
 70
     1
  9
$DIMSE1
 70
     0
  9
$DIMSE2
 70
     0
  9
$DIMTAD
 70
     0
  9
$DIMZIN
 70
     0
  9
$DIMBLK
  1

  9
$DIMASO
 70
     1
  9
$DIMSHO
 70
     1
  9
$DIMPOST
  1

  9
$DIMAPOST
  1

  9
$DIMALT
 70
     0
  9
$DIMALTD
 70
     2
  9
$DIMALTF
 40
25.4
  9
$DIMLFAC
 40
1.0
  9
$DIMTOFL
 70
     0
  9
$DIMTVP
 40
0.0
  9
$DIMTIX
 70
     0
  9
$DIMSOXD
 70
     0
  9
$DIMSAH
 70
     0
  9
$DIMBLK1
  1

  9
$DIMBLK2
  1

  9
$DIMSTYLE
  2
Standard
  9
$DIMCLRD
 70
     0
  9
$DIMCLRE
 70
     0
  9
$DIMCLRT
 70
     0
  9
$DIMTFAC
 40
1.0
  9
$DIMGAP
 40
0.09
  9
$DIMJUST
 70
     0
  9
$DIMSD1
 70
     0
  9
$DIMSD2
 70
     0
  9
$DIMTOLJ
 70
     1
  9
$DIMTZIN
 70
     0
  9
$DIMALTZ
 70
     0
  9
$DIMALTTZ
 70
     0
  9
$DIMUPT
 70
     0
  9
$DIMDEC
 70
     4
  9
$DIMTDEC
 70
     4
  9
$DIMALTU
 70
     2
  9
$DIMALTTD
 70
     2
  9
$DIMTXSTY
  7
Standard
  9
$DIMAUNIT
 70
     0
  9
$DIMADEC
 70
     0
  9
$DIMALTRND
 40
0.0
  9
$DIMAZIN
 70
     0
  9
$DIMDSEP
 70
    46
  9
$DIMATFIT
 70
     3
  9
$DIMFRAC
 70
     0
  9
$DIMLDRBLK
  1

  9
$DIMLUNIT
 70
     2
  9
$DIMLWD
 70
    -2
  9
$DIMLWE
 70
    -2
  9
$DIMTMOVE
 70
     0
  9
$DIMFXL
 40
1.0
  9
$DIMFXLON
 70
     0
  9
$DIMJOGANG
 40
0.7853981633974483
  9
$DIMTFILL
 70
     0
  9
$DIMTFILLCLR
 70
     0
  9
$DIMARCSYM
 70
     0
  9
$DIMLTYPE
  6

  9
$DIMLTEX1
  6

  9
$DIMLTEX2
  6

  9
$DIMTXTDIRECTION
 70
     0
  9
$LUNITS
 70
     2
  9
$LUPREC
 70
     4
  9
$SKETCHINC
 40
0.1
  9
$FILLETRAD
 40
0.5
  9
$AUNITS
 70
     0
  9
$AUPREC
 70
     0
  9
$MENU
  1
.
  9
$ELEVATION
 40
0.0
  9
$PELEVATION
 40
0.0
  9
$THICKNESS
 40
0.0
  9
$LIMCHECK
 70
     0
  9
$CHAMFERA
 40
0.5
  9
$CHAMFERB
 40
0.5
  9
$CHAMFERC
 40
1.0
  9
$CHAMFERD
 40
0.0
  9
$SKPOLY
 70
     0
  9
$TDCREATE
 40
2458133.000983785
  9
$TDUCREATE
 40
2458133.20931713
  9
$TDUPDATE
 40
2458133.000983785
  9
$TDUUPDATE
 40
2458133.20931713
  9
$TDINDWG
 40
0.0000000116
  9
$TDUSRTIMER
 40
0.0000000116
  9
$USRTIMER
 70
     1
  9
$ANGBASE
 50
0.0
  9
$ANGDIR
 70
     0
  9
$PDMODE
 70
     0
  9
$PDSIZE
 40
0.0
  9
$PLINEWID
 40
0.0
  9
$SPLFRAME
 70
     0
  9
$SPLINETYPE
 70
     6
  9
$SPLINESEGS
 70
     8
  9
$HANDSEED
  5
65
  9
$SURFTAB1
 70
     6
  9
$SURFTAB2
 70
     6
  9
$SURFTYPE
 70
     6
  9
$SURFU
 70
     6
  9
$SURFV
 70
     6
  9
$UCSBASE
  2

  9
$UCSNAME
  2

  9
$UCSORG
 10
0.0
 20
0.0
 30
0.0
  9
$UCSXDIR
 10
1.0
 20
0.0
 30
0.0
  9
$UCSYDIR
 10
0.0
 20
1.0
 30
0.0
  9
$UCSORTHOREF
  2

  9
$UCSORTHOVIEW
 70
     0
  9
$UCSORGTOP
 10
0.0
 20
0.0
 30
0.0
  9
$UCSORGBOTTOM
 10
0.0
 20
0.0
 30
0.0
  9
$UCSORGLEFT
 10
0.0
 20
0.0
 30
0.0
  9
$UCSORGRIGHT
 10
0.0
 20
0.0
 30
0.0
  9
$UCSORGFRONT
 10
0.0
 20
0.0
 30
0.0
  9
$UCSORGBACK
 10
0.0
 20
0.0
 30
0.0
  9
$PUCSBASE
  2

  9
$PUCSNAME
  2

  9
$PUCSORG
 10
0.0
 20
0.0
 30
0.0
  9
$PUCSXDIR
 10
1.0
 20
0.0
 30
0.0
  9
$PUCSYDIR
 10
0.0
 20
1.0
 30
0.0
  9
$PUCSORTHOREF
  2

  9
$PUCSORTHOVIEW
 70
     0
  9
$PUCSORGTOP
 10
0.0
 20
0.0
 30
0.0
  9
$PUCSORGBOTTOM
 10
0.0
 20
0.0
 30
0.0
  9
$PUCSORGLEFT
 10
0.0
 20
0.0
 30
0.0
  9
$PUCSORGRIGHT
 10
0.0
 20
0.0
 30
0.0
  9
$PUCSORGFRONT
 10
0.0
 20
0.0
 30
0.0
  9
$PUCSORGBACK
 10
0.0
 20
0.0
 30
0.0
  9
$USERI1
 70
     0
  9
$USERI2
 70
     0
  9
$USERI3
 70
     0
  9
$USERI4
 70
     0
  9
$USERI5
 70
     0
  9
$USERR1
 40
0.0
  9
$USERR2
 40
0.0
  9
$USERR3
 40
0.0
  9
$USERR4
 40
0.0
  9
$USERR5
 40
0.0
  9
$WORLDVIEW
 70
     1
  9
$SHADEDGE
 70
     3
  9
$SHADEDIF
 70
    70
  9
$TILEMODE
 70
     1
  9
$MAXACTVP
 70
    64
  9
$PINSBASE
 10
0.0
 20
0.0
 30
0.0
  9
$PLIMCHECK
 70
     0
  9
$PEXTMIN
 10
1.000000000000000E+20
 20
1.000000000000000E+20
 30
1.000000000000000E+20
  9
$PEXTMAX
 10
-1.000000000000000E+20
 20
-1.000000000000000E+20
 30
-1.000000000000000E+20
  9
$PLIMMIN
 10
0.0
 20
0.0
  9
$PLIMMAX
 10
12.0
 20
9.0
  9
$UNITMODE
 70
     0
  9
$VISRETAIN
 70
     1
  9
$PLINEGEN
 70
     0
  9
$PSLTSCALE
 70
     1
  9
$TREEDEPTH
 70
  3020
  9
$CMLSTYLE
  2
Standard
  9
$CMLJUST
 70
     0
  9
$CMLSCALE
 40
1.0
  9
$PROXYGRAPHICS
 70
     1
  9
$MEASUREMENT
 70
     0
  9
$CELWEIGHT
370
    -1
  9
$ENDCAPS
280
     0
  9
$JOINSTYLE
280
     0
  9
$LWDISPLAY
290
     1
  9
$INSUNITS
 70
     1
  9
$HYPERLINKBASE
  1

  9
$STYLESHEET
  1

  9
$XEDIT
290
     1
  9
$CEPSNTYPE
380
     0
  9
$PSTYLEMODE
290
     1
  9
$FINGERPRINTGUID
  2
{4F3F2F63-AA1F-346B-EB29-8095A91BCD25}
  9
$VERSIONGUID
  2
{FAEB1C32-E019-11D5-929B-00C0DF256EC4}
  9
$EXTNAMES
290
     1
  9
$PSVPSCALE
 40
0.0
  9
$OLESTARTUP
290
     0
  9
$SORTENTS
280
   127
  9
$INDEXCTL
280
     0
  9
$HIDETEXT
280
     1
  9
$XCLIPFRAME
280
     2
  9
$HALOGAP
280
     0
  9
$OBSCOLOR
 70
   257
  9
$OBSLTYPE
280
     0
  9
$INTERSECTIONDISPLAY
280
     0
  9
$INTERSECTIONCOLOR
 70
   257
  9
$DIMASSOC
280
     2
  9
$PROJECTNAME
  1

  9
$CAMERADISPLAY
290
     0
  9
$LENSLENGTH
 40
50.0
  9
$CAMERAHEIGHT
 40
0.0
  9
$STEPSPERSEC
 40
2.0
  9
$STEPSIZE
 40
6.0
  9
$3DDWFPREC
 40
2.0
  9
$PSOLWIDTH
 40
0.25
  9
$PSOLHEIGHT
 40
4.0
  9
$LOFTANG1
 40
1.570796326794897
  9
$LOFTANG2
 40
1.570796326794897
  9
$LOFTMAG1
 40
0.0
  9
$LOFTMAG2
 40
0.0
  9
$LOFTPARAM
 70
     7
  9
$LOFTNORMALS
280
     1
  9
$LATITUDE
 40
37.795
  9
$LONGITUDE
 40
-122.394
  9
$NORTHDIRECTION
 40
0.0
  9
$TIMEZONE
 70
 -8000
  9
$LIGHTGLYPHDISPLAY
280
     1
  9
$TILEMODELIGHTSYNCH
280
     1
  9
$CMATERIAL
347
3C
  9
$SOLIDHIST
280
     1
  9
$SHOWHIST
280
     1
  9
$DWFFRAME
280
     2
  9
$DGNFRAME
280
     2
  9
$REALWORLDSCALE
290
     1
  9
$INTERFERECOLOR
 62
   256
  9
$CSHADOW
280
     0
  9
$SHADOWPLANELOCATION
 40
0.0
  0
ENDSEC
  0
SECTION
  2
CLASSES
  0
CLASS
  1
ACDBDICTIONARYWDFLT
  2
AcDbDictionaryWithDefault
  3
ObjectDBX Classes
 90
        0
 91
        4
280
     0
281
     0
  0
CLASS
  1
VISUALSTYLE
  2
AcDbVisualStyle
  3
ObjectDBX Classes
 90
     4095
 91
        4
280
     0
281
     0
  0
CLASS
  1
MATERIAL
  2
AcDbMaterial
  3
ObjectDBX Classes
 90
     1153
 91
        4
280
     0
281
     0
  0
CLASS
  1
SUN
  2
AcDbSun
  3
SCENEOE
 90
     1024
 91
        4
280
     0
281
     0
  0
ENDSEC
  0
SECTION
  2
TABLES
  0
TABLE
  2
VPORT
  5
8
330
0
100
AcDbSymbolTable
 70
     1
  0
VPORT
  5
29
330
8
100
AcDbSymbolTableRecord
100
AcDbViewportTableRecord
  2
*Active
 70
     0
 10
0.0
 20
0.0
 11
1.0
 21
1.0
 12
0.0
 22
0.0
 13
0.0
 23
0.0
 14
0.5
 24
0.5
 15
0.5
 25
0.5
 16
0.0
 26
0.0
 36
1.0
 17
139.699999965075
 27
-107.9499999730125
 37
0.0
 40
215.899999946025
 41
1.294117647058823
 42
50.0
 43
0.0
 44
0.0
 50
0.0
 51
0.0
 71
     0
 72
   100
 73
     1
 74
     3
 75
     0
 76
     0
 77
     0
 78
     0
281
     0
 65
     1
110
0.0
120
0.0
130
0.0
111
1.0
121
0.0
131
0.0
112
0.0
122
1.0
132
0.0
 79
     0
146
0.0
 60
     3
 61
     5
292
     1
282
     1
141
0.0
142
0.0
 63
   250
361
3F
  0
ENDTAB
  0
TABLE
  2
LTYPE
  5
5
330
0
100
AcDbSymbolTable
 70
     1
  0
LTYPE
  5
14
330
5
100
AcDbSymbolTableRecord
100
AcDbLinetypeTableRecord
  2
ByBlock
 70
     0
  3

 72
    65
 73
     0
 40
0.0
  0
LTYPE
  5
15
330
5
100
AcDbSymbolTableRecord
100
AcDbLinetypeTableRecord
  2
ByLayer
 70
     0
  3

 72
    65
 73
     0
 40
0.0
  0
LTYPE
  5
16
330
5
100
AcDbSymbolTableRecord
100
AcDbLinetypeTableRecord
  2
Continuous
 70
     0
  3
Solid line
 72
    65
 73
     0
 40
0.0
  0
ENDTAB
  0
TABLE
  2
LAYER
  5
2
330
0
100
AcDbSymbolTable
 70
     2
  0
LAYER
  5
10
330
2
100
AcDbSymbolTableRecord
100
AcDbLayerTableRecord
  2
0
 70
     0
 62
     7
  6
Continuous
370
    -3
390
F
347
3E
  0
LAYER
  5
40
330
2
100
AcDbSymbolTableRecord
100
AcDbLayerTableRecord
  2
Layer 1
 70
     0
 62
     7
  6
Continuous
370
    -3
390
F
347
3E
  0
ENDTAB
  0
TABLE
  2
STYLE
  5
3
330
0
100
AcDbSymbolTable
 70
     1
  0
STYLE
  5
11
330
3
100
AcDbSymbolTableRecord
100
AcDbTextStyleTableRecord
  2
Standard
 70
     0
 40
0.0
 41
1.0
 50
0.0
 71
     0
 42
0.2
  3
txt
  4

  0
ENDTAB
  0
TABLE
  2
VIEW
  5
6
330
0
100
AcDbSymbolTable
 70
     0
  0
ENDTAB
  0
TABLE
  2
UCS
  5
7
330
0
100
AcDbSymbolTable
 70
     0
  0
ENDTAB
  0
TABLE
  2
APPID
  5
9
330
0
100
AcDbSymbolTable
 70
     1
  0
APPID
  5
12
330
9
100
AcDbSymbolTableRecord
100
AcDbRegAppTableRecord
  2
ACAD
 70
     0
  0
ENDTAB
  0
TABLE
  2
DIMSTYLE
  5
A
330
0
100
AcDbSymbolTable
 70
     1
100
AcDbDimStyleTable
  0
DIMSTYLE
105
27
330
A
100
AcDbSymbolTableRecord
100
AcDbDimStyleTableRecord
  2
Standard
 70
     0
178
     0
340
11
  0
ENDTAB
  0
TABLE
  2
BLOCK_RECORD
  5
1
330
0
100
AcDbSymbolTable
 70
     1
  0
BLOCK_RECORD
  5
1F
330
1
100
AcDbSymbolTableRecord
100
AcDbBlockTableRecord
  2
*Model_Space
340
22
 70
     0
280
     1
281
     0
  0
BLOCK_RECORD
  5
1B
330
1
100
AcDbSymbolTableRecord
100
AcDbBlockTableRecord
  2
*Paper_Space
340
1E
 70
     0
280
     1
281
     0
  0
BLOCK_RECORD
  5
23
330
1
100
AcDbSymbolTableRecord
100
AcDbBlockTableRecord
  2
*Paper_Space0
340
26
 70
     0
280
     1
281
     0
  0
ENDTAB
  0
ENDSEC
  0
SECTION
  2
BLOCKS
  0
BLOCK
  5
20
330
1F
100
AcDbEntity
  8
0
100
AcDbBlockBegin
  2
*Model_Space
 70
     0
 10
0.0
 20
0.0
 30
0.0
  3
*Model_Space
  1

  0
ENDBLK
  5
21
330
1F
100
AcDbEntity
  8
0
100
AcDbBlockEnd
  0
BLOCK
  5
1C
330
1B
100
AcDbEntity
 67
     1
  8
0
100
AcDbBlockBegin
  2
*Paper_Space
 70
     0
 10
0.0
 20
0.0
 30
0.0
  3
*Paper_Space
  1

  0
ENDBLK
  5
1D
330
1B
100
AcDbEntity
 67
     1
  8
0
100
AcDbBlockEnd
  0
BLOCK
  5
24
330
23
100
AcDbEntity
  8
0
100
AcDbBlockBegin
  2
*Paper_Space0
 70
     0
 10
0.0
 20
0.0
 30
0.0
  3
*Paper_Space0
  1

  0
ENDBLK
  5
25
330
23
100
AcDbEntity
  8
0
100
AcDbBlockEnd
  0
ENDSEC
  0
SECTION
  2
ENTITIES
  0
SPLINE
  5
41
330
1F
100
AcDbEntity
  8
Layer 1
370
     0
100
AcDbSpline
210
0.0
220
0.0
230
1.0
 70
    11
 71
     3
 72
   449
 73
   445
 74
     0
 42
0.0000000001
 43
0.0000000001
 12
1.0
 22
0.0
 32
0.0
 13
1.0
 23
0.0
 33
0.0
 40
0.0
 40
0.0
 40
0.0
 40
0.0
 40
1.0
 40
1.0
 40
1.0
 40
2.0
 40
2.0
 40
2.0
 40
3.0
 40
3.0
 40
3.0
 40
4.0
 40
4.0
 40
4.0
 40
5.0
 40
5.0
 40
5.0
 40
6.0
 40
6.0
 40
6.0
 40
7.0
 40
7.0
 40
7.0
 40
8.0
 40
8.0
 40
8.0
 40
9.0
 40
9.0
 40
9.0
 40
10.0
 40
10.0
 40
10.0
 40
11.0
 40
11.0
 40
11.0
 40
12.0
 40
12.0
 40
12.0
 40
13.0
 40
13.0
 40
13.0
 40
14.0
 40
14.0
 40
14.0
 40
15.0
 40
15.0
 40
15.0
 40
16.0
 40
16.0
 40
16.0
 40
17.0
 40
17.0
 40
17.0
 40
18.0
 40
18.0
 40
18.0
 40
19.0
 40
19.0
 40
19.0
 40
20.0
 40
20.0
 40
20.0
 40
21.0
 40
21.0
 40
21.0
 40
22.0
 40
22.0
 40
22.0
 40
23.0
 40
23.0
 40
23.0
 40
24.0
 40
24.0
 40
24.0
 40
25.0
 40
25.0
 40
25.0
 40
26.0
 40
26.0
 40
26.0
 40
27.0
 40
27.0
 40
27.0
 40
28.0
 40
28.0
 40
28.0
 40
29.0
 40
29.0
 40
29.0
 40
30.0
 40
30.0
 40
30.0
 40
31.0
 40
31.0
 40
31.0
 40
32.0
 40
32.0
 40
32.0
 40
33.0
 40
33.0
 40
33.0
 40
34.0
 40
34.0
 40
34.0
 40
35.0
 40
35.0
 40
35.0
 40
36.0
 40
36.0
 40
36.0
 40
37.0
 40
37.0
 40
37.0
 40
38.0
 40
38.0
 40
38.0
 40
39.0
 40
39.0
 40
39.0
 40
40.0
 40
40.0
 40
40.0
 40
41.0
 40
41.0
 40
41.0
 40
42.0
 40
42.0
 40
42.0
 40
43.0
 40
43.0
 40
43.0
 40
44.0
 40
44.0
 40
44.0
 40
45.0
 40
45.0
 40
45.0
 40
46.0
 40
46.0
 40
46.0
 40
47.0
 40
47.0
 40
47.0
 40
48.0
 40
48.0
 40
48.0
 40
49.0
 40
49.0
 40
49.0
 40
50.0
 40
50.0
 40
50.0
 40
51.0
 40
51.0
 40
51.0
 40
52.0
 40
52.0
 40
52.0
 40
53.0
 40
53.0
 40
53.0
 40
54.0
 40
54.0
 40
54.0
 40
55.0
 40
55.0
 40
55.0
 40
56.0
 40
56.0
 40
56.0
 40
57.0
 40
57.0
 40
57.0
 40
58.0
 40
58.0
 40
58.0
 40
59.0
 40
59.0
 40
59.0
 40
60.0
 40
60.0
 40
60.0
 40
61.0
 40
61.0
 40
61.0
 40
62.0
 40
62.0
 40
62.0
 40
63.0
 40
63.0
 40
63.0
 40
64.0
 40
64.0
 40
64.0
 40
65.0
 40
65.0
 40
65.0
 40
66.0
 40
66.0
 40
66.0
 40
67.0
 40
67.0
 40
67.0
 40
68.0
 40
68.0
 40
68.0
 40
69.0
 40
69.0
 40
69.0
 40
70.0
 40
70.0
 40
70.0
 40
71.0
 40
71.0
 40
71.0
 40
72.0
 40
72.0
 40
72.0
 40
73.0
 40
73.0
 40
73.0
 40
74.0
 40
74.0
 40
74.0
 40
75.0
 40
75.0
 40
75.0
 40
76.0
 40
76.0
 40
76.0
 40
77.0
 40
77.0
 40
77.0
 40
78.0
 40
78.0
 40
78.0
 40
79.0
 40
79.0
 40
79.0
 40
80.0
 40
80.0
 40
80.0
 40
81.0
 40
81.0
 40
81.0
 40
82.0
 40
82.0
 40
82.0
 40
83.0
 40
83.0
 40
83.0
 40
84.0
 40
84.0
 40
84.0
 40
85.0
 40
85.0
 40
85.0
 40
86.0
 40
86.0
 40
86.0
 40
87.0
 40
87.0
 40
87.0
 40
88.0
 40
88.0
 40
88.0
 40
89.0
 40
89.0
 40
89.0
 40
90.0
 40
90.0
 40
90.0
 40
91.0
 40
91.0
 40
91.0
 40
92.0
 40
92.0
 40
92.0
 40
93.0
 40
93.0
 40
93.0
 40
94.0
 40
94.0
 40
94.0
 40
95.0
 40
95.0
 40
95.0
 40
96.0
 40
96.0
 40
96.0
 40
97.0
 40
97.0
 40
97.0
 40
98.0
 40
98.0
 40
98.0
 40
99.0
 40
99.0
 40
99.0
 40
100.0
 40
100.0
 40
100.0
 40
101.0
 40
101.0
 40
101.0
 40
102.0
 40
102.0
 40
102.0
 40
103.0
 40
103.0
 40
103.0
 40
104.0
 40
104.0
 40
104.0
 40
105.0
 40
105.0
 40
105.0
 40
106.0
 40
106.0
 40
106.0
 40
107.0
 40
107.0
 40
107.0
 40
108.0
 40
108.0
 40
108.0
 40
109.0
 40
109.0
 40
109.0
 40
110.0
 40
110.0
 40
110.0
 40
111.0
 40
111.0
 40
111.0
 40
112.0
 40
112.0
 40
112.0
 40
113.0
 40
113.0
 40
113.0
 40
114.0
 40
114.0
 40
114.0
 40
115.0
 40
115.0
 40
115.0
 40
116.0
 40
116.0
 40
116.0
 40
117.0
 40
117.0
 40
117.0
 40
118.0
 40
118.0
 40
118.0
 40
119.0
 40
119.0
 40
119.0
 40
120.0
 40
120.0
 40
120.0
 40
121.0
 40
121.0
 40
121.0
 40
122.0
 40
122.0
 40
122.0
 40
123.0
 40
123.0
 40
123.0
 40
124.0
 40
124.0
 40
124.0
 40
125.0
 40
125.0
 40
125.0
 40
126.0
 40
126.0
 40
126.0
 40
127.0
 40
127.0
 40
127.0
 40
128.0
 40
128.0
 40
128.0
 40
129.0
 40
129.0
 40
129.0
 40
130.0
 40
130.0
 40
130.0
 40
131.0
 40
131.0
 40
131.0
 40
132.0
 40
132.0
 40
132.0
 40
133.0
 40
133.0
 40
133.0
 40
134.0
 40
134.0
 40
134.0
 40
135.0
 40
135.0
 40
135.0
 40
136.0
 40
136.0
 40
136.0
 40
137.0
 40
137.0
 40
137.0
 40
138.0
 40
138.0
 40
138.0
 40
139.0
 40
139.0
 40
139.0
 40
140.0
 40
140.0
 40
140.0
 40
141.0
 40
141.0
 40
141.0
 40
142.0
 40
142.0
 40
142.0
 40
143.0
 40
143.0
 40
143.0
 40
144.0
 40
144.0
 40
144.0
 40
145.0
 40
145.0
 40
145.0
 40
146.0
 40
146.0
 40
146.0
 40
147.0
 40
147.0
 40
147.0
 40
148.0
 40
148.0
 40
148.0
 40
148.0
 10
185.7479266181584
 20
-149.4312124022678
 30
0.0
 10
184.8179230919152
 20
-148.5012088760246
 30
0.0
 10
184.3201929216786
 20
-147.1799286300467
 30
0.0
 10
184.5577322553866
 20
-145.8862952753354
 30
0.0
 10
184.5889964969203
 20
-145.7156769214259
 30
0.0
 10
184.6057913374058
 20
-145.5401493064524
 30
0.0
 10
184.6066526112771
 20
-145.3608320864451
 30
0.0
 10
184.6141456939627
 20
-143.9070879190594
 30
0.0
 10
183.4972457376447
 20
-142.6858015695383
 30
0.0
 10
182.1045658877324
 20
-142.4056291791978
 30
0.0
 10
181.6615266083293
 20
-142.3164873335195
 30
0.0
 10
181.2544024493548
 20
-142.0997047001076
 30
0.0
 10
180.9349559704901
 20
-141.7800859664661
 30
0.0
 10
180.9349559704901
 20
-141.7800859664661
 30
0.0
 10
180.671836802799
 20
-141.5169667987776
 30
0.0
 10
180.671836802799
 20
-141.5169667987776
 30
0.0
 10
180.3524764513164
 20
-141.1975203199104
 30
0.0
 10
180.1356076905199
 20
-140.7905684157127
 30
0.0
 10
180.0465519722262
 20
-140.3477013910838
 30
0.0
 10
179.7665518366676
 20
-138.954677031623
 30
0.0
 10
178.5448348502058
 20
-137.8376048205308
 30
0.0
 10
177.0908323006561
 20
-137.8453562853726
 30
0.0
 10
176.9115150806488
 20
-137.8462175592439
 30
0.0
 10
176.7359874656754
 20
-137.8630985271217
 30
0.0
 10
176.5654552391555
 20
-137.8943627686529
 30
0.0
 10
175.2723386487669
 20
-138.1318159749711
 30
0.0
 10
173.9516612944964
 20
-137.6344303142907
 30
0.0
 10
173.0220022778018
 20
-136.7046851702064
 30
0.0
 10
173.0220022778018
 20
-136.7046851702064
 30
0.0
 10
157.0630280793227
 20
-120.7451080800123
 30
0.0
 10
157.0630280793227
 20
-120.7451080800123
 30
0.0
 10
155.0001910301371
 20
-118.6822710308343
 30
0.0
 10
153.8413470362913
 20
-115.8844228598733
 30
0.0
 10
153.8413470362913
 20
-112.9671160029637
 30
0.0
 10
153.8413470362913
 20
-112.9671160029637
 30
0.0
 10
153.8413470362913
 20
-111.1836761976396
 30
0.0
 10
153.8413470362913
 20
-111.1836761976396
 30
0.0
 10
153.8413470362913
 20
-110.631427391354
 30
0.0
 10
154.2890371945995
 20
-110.1837372330458
 30
0.0
 10
154.841286000885
 20
-110.1837372330458
 30
0.0
 10
154.841286000885
 20
-110.1837372330458
 30
0.0
 10
155.3413416105691
 20
-110.1837372330458
 30
0.0
 10
155.3413416105691
 20
-110.1837372330458
 30
0.0
 10
155.8935904168546
 20
-110.1837372330458
 30
0.0
 10
156.3412805751628
 20
-110.631427391354
 30
0.0
 10
156.3412805751628
 20
-111.1836761976396
 30
0.0
 10
156.3412805751628
 20
-111.1836761976396
 30
0.0
 10
156.3412805751628
 20
-111.5131995808037
 30
0.0
 10
156.3412805751628
 20
-111.5131995808037
 30
0.0
 10
156.3412805751628
 20
-112.0655345144738
 30
0.0
 10
156.789056860853
 20
-112.513224672782
 30
0.0
 10
157.3413056671386
 20
-112.513224672782
 30
0.0
 10
157.3413056671386
 20
-112.513224672782
 30
0.0
 10
157.8412751494406
 20
-112.513224672782
 30
0.0
 10
157.8412751494406
 20
-112.513224672782
 30
0.0
 10
158.3935239557262
 20
-112.513224672782
 30
0.0
 10
158.8412141140344
 20
-112.0655345144738
 30
0.0
 10
158.8412141140344
 20
-111.5132857081883
 30
0.0
 10
158.8412141140344
 20
-111.5132857081883
 30
0.0
 10
158.8412141140344
 20
-110.1837372330458
 30
0.0
 10
158.8412141140344
 20
-110.1837372330458
 30
0.0
 10
158.8412141140344
 20
-110.1837372330458
 30
0.0
 10
158.8412141140344
 20
-105.9516096841903
 30
0.0
 10
158.8412141140344
 20
-105.9516096841903
 30
0.0
 10
158.8412141140344
 20
-105.9516096841903
 30
0.0
 10
158.8412141140344
 20
-104.6247311580463
 30
0.0
 10
158.8412141140344
 20
-104.6247311580463
 30
0.0
 10
158.8412141140344
 20
-104.0723962243717
 30
0.0
 10
158.3934378283339
 20
-103.6247060660635
 30
0.0
 10
157.8411890220484
 20
-103.6247060660635
 30
0.0
 10
157.8411890220484
 20
-103.6247060660635
 30
0.0
 10
157.3412195397566
 20
-103.6247060660635
 30
0.0
 10
157.3412195397566
 20
-103.6247060660635
 30
0.0
 10
156.788970733471
 20
-103.6247060660635
 30
0.0
 10
156.3412805751628
 20
-104.0723962243717
 30
0.0
 10
156.3412805751628
 20
-104.6246450306573
 30
0.0
 10
156.3412805751628
 20
-104.6246450306573
 30
0.0
 10
156.3412805751628
 20
-104.9515845922075
 30
0.0
 10
156.3412805751628
 20
-104.9515845922075
 30
0.0
 10
156.3412805751628
 20
-105.503833398493
 30
0.0
 10
155.8935042894624
 20
-105.9516096841903
 30
0.0
 10
155.3412554831768
 20
-105.9516096841903
 30
0.0
 10
155.3412554831768
 20
-105.9516096841903
 30
0.0
 10
154.841372128267
 20
-105.9516096841903
 30
0.0
 10
154.841372128267
 20
-105.9516096841903
 30
0.0
 10
154.2891233219815
 20
-105.9516096841903
 30
0.0
 10
153.8413470362913
 20
-105.503833398493
 30
0.0
 10
153.8413470362913
 20
-104.9515845922075
 30
0.0
 10
153.8413470362913
 20
-104.9515845922075
 30
0.0
 10
153.8413470362913
 20
-103.2188738179011
 30
0.0
 10
153.8413470362913
 20
-103.2188738179011
 30
0.0
 10
153.8413470362913
 20
-100.3021698527034
 30
0.0
 10
154.9997603932065
 20
-97.50483844606569
 30
0.0
 10
157.0617361685106
 20
-95.44208752427235
 30
0.0
 10
157.0617361685106
 20
-95.44208752427235
 30
0.0
 10
173.0576590160741
 20
-79.44048026915817
 30
0.0
 10
173.0576590160741
 20
-79.44048026915817
 30
0.0
 10
173.9831839181865
 20
-78.51461085749727
 30
0.0
 10
175.2957652980666
 20
-78.0157610312331
 30
0.0
 10
176.5847477738729
 20
-78.24434311667943
 30
0.0
 10
176.7543325991394
 20
-78.27440157479016
 30
0.0
 10
176.9288266854673
 20
-78.29007675924805
 30
0.0
 10
177.1069381220547
 20
-78.29007675924805
 30
0.0
 10
178.5521556781171
 20
-78.28999063185898
 30
0.0
 10
179.7661211997268
 20
-77.17464096850935
 30
0.0
 10
180.0462074626776
 20
-75.78919581911613
 30
0.0
 10
180.1356938179121
 20
-75.34607041232779
 30
0.0
 10
180.3520458143858
 20
-74.9387739985822
 30
0.0
 10
180.6716645480248
 20
-74.61906913755102
 30
0.0
 10
180.6716645480248
 20
-74.61906913755102
 30
0.0
 10
180.9359894991357
 20
-74.35483031383237
 30
0.0
 10
180.9359894991357
 20
-74.35483031383237
 30
0.0
 10
181.2556082327746
 20
-74.03521158019024
 30
0.0
 10
181.6629046465234
 20
-73.81885958371655
 30
0.0
 10
182.1060300533085
 20
-73.72937322848526
 30
0.0
 10
183.4917335848683
 20
-73.4493730929235
 30
0.0
 10
184.6069971208256
 20
-72.23506306175814
 30
0.0
 10
184.6067387386694
 20
-70.78950099614731
 30
0.0
 10
184.6066526112771
 20
-70.61130343217468
 30
0.0
 10
184.5909774268192
 20
-70.43672321845773
 30
0.0
 10
184.5608328413233
 20
-70.26705226580917
 30
0.0
 10
184.3317339915542
 20
-68.97712238874642
 30
0.0
 10
184.8305838178184
 20
-67.6634213528316
 30
0.0
 10
185.7567977390278
 20
-66.73686292207366
 30
0.0
 10
185.7567977390278
 20
-66.73686292207366
 30
0.0
 10
188.7887401482141
 20
-63.7038008568597
 30
0.0
 10
188.7887401482141
 20
-63.7038008568597
 30
0.0
 10
189.569657167328
 20
-62.9226254555793
 30
0.0
 10
189.5693987851718
 20
-61.65638060997573
 30
0.0
 10
188.7883095112734
 20
-60.87537746346958
 30
0.0
 10
188.7883095112734
 20
-60.87537746346958
 30
0.0
 10
187.0203726356354
 20
-59.10804347953642
 30
0.0
 10
187.0203726356354
 20
-59.10804347953642
 30
0.0
 10
186.2391111069628
 20
-58.32704033303028
 30
0.0
 10
184.9727801339772
 20
-58.32721258780455
 30
0.0
 10
184.191863114853
 20
-59.108474116474
 30
0.0
 10
184.191863114853
 20
-59.108474116474
 30
0.0
 10
181.1609542343225
 20
-62.14050265304238
 30
0.0
 10
181.1609542343225
 20
-62.14050265304238
 30
0.0
 10
180.2347403131131
 20
-63.06697495641127
 30
0.0
 10
178.9208670224208
 20
-63.56582478267545
 30
0.0
 10
177.6311094001355
 20
-63.3362952959726
 30
0.0
 10
177.4613523200947
 20
-63.30615071047666
 30
0.0
 10
177.2867721063848
 20
-63.29030327124452
 30
0.0
 10
177.1084884150231
 20
-63.29021714385546
 30
0.0
 10
175.6623234576972
 20
-63.2894419973732
 30
0.0
 10
174.4475827895981
 20
-64.40487778810804
 30
0.0
 10
174.1676687814216
 20
-65.79109808398738
 30
0.0
 10
174.0781824261973
 20
-66.2341373633905
 30
0.0
 10
173.8618304297237
 20
-66.64143377713224
 30
0.0
 10
173.5422116960745
 20
-66.96096638338916
 30
0.0
 10
173.5422116960745
 20
-66.96096638338916
 30
0.0
 10
173.2779728723558
 20
-67.22529133449687
 30
0.0
 10
173.2779728723558
 20
-67.22529133449687
 30
0.0
 10
172.9583541387169
 20
-67.54499619552807
 30
0.0
 10
172.5510577249681
 20
-67.76143431938696
 30
0.0
 10
172.107932318183
 20
-67.85092067461825
 30
0.0
 10
170.7212813853699
 20
-68.13092081018
 30
0.0
 10
169.6056733398538
 20
-69.34617824260188
 30
0.0
 10
169.6069652506659
 20
-70.79277383685829
 30
0.0
 10
169.6071375054401
 20
-70.97122978299423
 30
0.0
 10
169.6229849446723
 20
-71.1458961240964
 30
0.0
 10
169.6533017849425
 20
-71.31565320413401
 30
0.0
 10
169.8835202907391
 20
-72.60609984551955
 30
0.0
 10
169.3848427192492
 20
-73.92083441007993
 30
0.0
 10
168.458112033717
 20
-74.84790960516067
 30
0.0
 10
168.458112033717
 20
-74.84790960516067
 30
0.0
 10
152.4792424088055
 20
-90.83246363762287
 30
0.0
 10
152.4792424088055
 20
-90.83246363762287
 30
0.0
 10
150.4161469774636
 20
-92.89624808806178
 30
0.0
 10
147.6176959147952
 20
-94.05569497362261
 30
0.0
 10
144.6996139114066
 20
-94.05569497362261
 30
0.0
 10
144.6996139114066
 20
-94.05569497362261
 30
0.0
 10
134.9311317903627
 20
-94.05569497362261
 30
0.0
 10
134.9311317903627
 20
-94.05569497362261
 30
0.0
 10
132.0136526786788
 20
-94.05569497362261
 30
0.0
 10
129.2157183803332
 20
-92.89667872499551
 30
0.0
 10
127.1527952037656
 20
-90.8336694210427
 30
0.0
 10
127.1527952037656
 20
-90.8336694210427
 30
0.0
 10
111.1930458587972
 20
-74.87323105697726
 30
0.0
 10
111.1930458587972
 20
-74.87323105697726
 30
0.0
 10
110.2635590968768
 20
-73.94365816766779
 30
0.0
 10
109.7659150540324
 20
-72.62323919556059
 30
0.0
 10
110.0027653686434
 20
-71.33012260517206
 30
0.0
 10
110.0340296101771
 20
-71.1596765060374
 30
0.0
 10
110.0508244506626
 20
-70.98414889106392
 30
0.0
 10
110.0516857245339
 20
-70.80500392583093
 30
0.0
 10
110.0587481702787
 20
-69.35169039537828
 30
0.0
 10
108.9419343413529
 20
-68.13074855540575
 30
0.0
 10
107.5495990009892
 20
-67.85057616506973
 30
0.0
 10
107.1065597215861
 20
-67.76143431938696
 30
0.0
 10
106.6995216900038
 20
-67.54465168597955
 30
0.0
 10
106.3799890837469
 20
-67.22511907972262
 30
0.0
 10
106.3799890837469
 20
-67.22511907972262
 30
0.0
 10
106.1168699160558
 20
-66.96191378464952
 30
0.0
 10
106.1168699160558
 20
-66.96191378464952
 30
0.0
 10
105.7973373097989
 20
-66.64246730577781
 30
0.0
 10
105.5806408037767
 20
-66.23542927419554
 30
0.0
 10
105.491498958101
 20
-65.79247612218147
 30
0.0
 10
105.2114126951502
 20
-64.4000546544287
 30
0.0
 10
103.9903847277853
 20
-63.28324082549975
 30
0.0
 10
102.5370711973327
 20
-63.29021714385546
 30
0.0
 10
102.3579262320997
 20
-63.29107841772677
 30
0.0
 10
102.1823986171262
 20
-63.30778713083023
 30
0.0
 10
102.0120386453806
 20
-63.3390513723608
 30
0.0
 10
100.7189220549921
 20
-63.57590168697173
 30
0.0
 10
99.3985892102701
 20
-63.07817151673833
 30
0.0
 10
98.4691024483497
 20
-62.14868475481793
 30
0.0
 10
98.4691024483497
 20
-62.14868475481793
 30
0.0
 10
95.46592658647542
 20
-59.14542276555138
 30
0.0
 10
95.46592658647542
 20
-59.14542276555138
 30
0.0
 10
94.68492343996928
 20
-58.36441961904524
 30
0.0
 10
93.41859246697344
 20
-58.36441961904524
 30
0.0
 10
92.6375893204673
 20
-59.14542276555138
 30
0.0
 10
92.6375893204673
 20
-59.14542276555138
 30
0.0
 10
90.8699108269856
 20
-60.91310125903307
 30
0.0
 10
90.8699108269856
 20
-60.91310125903307
 30
0.0
 10
90.08882155309746
 20
-61.69419053292827
 30
0.0
 10
90.08882155309746
 20
-62.96052150591705
 30
0.0
 10
90.86982469960361
 20
-63.74152465242319
 30
0.0
 10
90.86982469960361
 20
-63.74152465242319
 30
0.0
 10
93.8931543700666
 20
-66.7650265776675
 30
0.0
 10
93.8931543700666
 20
-66.7650265776675
 30
0.0
 10
94.81661221488781
 20
-67.68857054987393
 30
0.0
 10
95.3167539519641
 20
-68.99598428652624
 30
0.0
 10
95.09514818487027
 20
-70.28298583243037
 30
0.0
 10
95.0660371280199
 20
-70.45188163859282
 30
0.0
 10
95.05122321743333
 20
-70.62568670582368
 30
0.0
 10
95.05191223653038
 20
-70.80310912331404
 30
0.0
 10
95.05802728102184
 20
-72.24126423363158
 30
0.0
 10
96.1719127787851
 20
-73.44911471076018
 30
0.0
 10
97.55132901107913
 20
-73.72902871893673
 30
0.0
 10
97.99454054525653
 20
-73.81894571110175
 30
0.0
 10
98.40218146855385
 20
-74.03486707064171
 30
0.0
 10
98.72188632958503
 20
-74.3546580590581
 30
0.0
 10
98.72188632958503
 20
-74.3546580590581
 30
0.0
 10
98.98741706410553
 20
-74.6201026661966
 30
0.0
 10
98.98741706410553
 20
-74.6201026661966
 30
0.0
 10
99.30712192513671
 20
-74.93989365461684
 30
0.0
 10
99.52304328467989
 20
-75.3474484505219
 30
0.0
 10
99.6129602768449
 20
-75.79057385731024
 30
0.0
 10
99.89287428502145
 20
-77.16999008960427
 30
0.0
 10
101.1007247621501
 20
-78.2838755873746
 30
0.0
 10
102.5387937450753
 20
-78.28999063185898
 30
0.0
 10
102.7162161625657
 20
-78.2908519057303
 30
0.0
 10
102.8899351024146
 20
-78.27595186775852
 30
0.0
 10
103.0589170359661
 20
-78.24692693829337
 30
0.0
 10
104.3458324544811
 20
-78.0253211712066
 30
0.0
 10
105.6531600637412
 20
-78.52546290827581
 30
0.0
 10
106.5765317811804
 20
-79.44892075309703
 30
0.0
 10
106.5765317811804
 20
-79.44892075309703
 30
0.0
 10
122.6196524368918
 20
-95.49273042790553
 30
0.0
 10
122.6196524368918
 20
-95.49273042790553
 30
0.0
 10
124.6824894860672
 20
-97.55565360447314
 30
0.0
 10
125.8413334799232
 20
-100.3535017754336
 30
0.0
 10
125.8413334799232
 20
-103.2708086323431
 30
0.0
 10
125.8413334799232
 20
-103.2708086323431
 30
0.0
 10
125.8413334799232
 20
-104.927641178585
 30
0.0
 10
125.8413334799232
 20
-104.927641178585
 30
0.0
 10
125.8413334799232
 20
-105.4798899848705
 30
0.0
 10
125.393643321615
 20
-105.9275801431788
 30
0.0
 10
124.8413945153295
 20
-105.9275801431788
 30
0.0
 10
124.8413945153295
 20
-105.9275801431788
 30
0.0
 10
124.3413389056455
 20
-105.9275801431788
 30
0.0
 10
124.3413389056455
 20
-105.9275801431788
 30
0.0
 10
123.7890900993599
 20
-105.9275801431788
 30
0.0
 10
123.3413999410517
 20
-105.4798899848705
 30
0.0
 10
123.3413999410517
 20
-104.927641178585
 30
0.0
 10
123.3413999410517
 20
-104.927641178585
 30
0.0
 10
123.3413999410517
 20
-104.5981177954208
 30
0.0
 10
123.3413999410517
 20
-104.5981177954208
 30
0.0
 10
123.3413999410517
 20
-104.0458689891353
 30
0.0
 10
122.8937097827435
 20
-103.5981788308271
 30
0.0
 10
122.3414609764579
 20
-103.5981788308271
 30
0.0
 10
122.3414609764579
 20
-103.5981788308271
 30
0.0
 10
121.8414053667739
 20
-103.5981788308271
 30
0.0
 10
121.8414053667739
 20
-103.5981788308271
 30
0.0
 10
121.2891565604884
 20
-103.5981788308271
 30
0.0
 10
120.8414664021801
 20
-104.0458689891353
 30
0.0
 10
120.8414664021801
 20
-104.5981177954208
 30
0.0
 10
120.8414664021801
 20
-104.5981177954208
 30
0.0
 10
120.8414664021801
 20
-105.9275801431788
 30
0.0
 10
120.8414664021801
 20
-105.9275801431788
 30
0.0
 10
120.8414664021801
 20
-105.9275801431788
 30
0.0
 10
120.8414664021801
 20
-110.1597076920336
 30
0.0
 10
120.8414664021801
 20
-110.1597076920336
 30
0.0
 10
120.8414664021801
 20
-110.1597076920336
 30
0.0
 10
120.8414664021801
 20
-111.4866723455673
 30
0.0
 10
120.8414664021801
 20
-111.4866723455673
 30
0.0
 10
120.8414664021801
 20
-112.0389211518528
 30
0.0
 10
121.2891565604884
 20
-112.486611310161
 30
0.0
 10
121.8414053667739
 20
-112.486611310161
 30
0.0
 10
121.8414053667739
 20
-112.486611310161
 30
0.0
 10
122.3412887216837
 20
-112.486611310161
 30
0.0
 10
122.3412887216837
 20
-112.486611310161
 30
0.0
 10
122.8936236553512
 20
-112.486611310161
 30
0.0
 10
123.3413999410517
 20
-112.0388350244631
 30
0.0
 10
123.3413999410517
 20
-111.486500090793
 30
0.0
 10
123.3413999410517
 20
-111.486500090793
 30
0.0
 10
123.3413999410517
 20
-111.1597327840171
 30
0.0
 10
123.3413999410517
 20
-111.1597327840171
 30
0.0
 10
123.3413999410517
 20
-110.6073978503418
 30
0.0
 10
123.7891762267419
 20
-110.1597076920336
 30
0.0
 10
124.3414250330274
 20
-110.1597076920336
 30
0.0
 10
124.3414250330274
 20
-110.1597076920336
 30
0.0
 10
124.8412222605552
 20
-110.1597076920336
 30
0.0
 10
124.8412222605552
 20
-110.1597076920336
 30
0.0
 10
125.3935571942228
 20
-110.1597076920336
 30
0.0
 10
125.8413334799232
 20
-110.6074839777315
 30
0.0
 10
125.8413334799232
 20
-111.1598189114016
 30
0.0
 10
125.8413334799232
 20
-111.1598189114016
 30
0.0
 10
125.8413334799232
 20
-112.9244829463363
 30
0.0
 10
125.8413334799232
 20
-112.9244829463363
 30
0.0
 10
125.8413334799232
 20
-115.8411869115334
 30
0.0
 10
124.68300625039
 20
-118.638432190782
 30
0.0
 10
122.6209443476937
 20
-120.701269239965
 30
0.0
 10
122.6209443476937
 20
-120.701269239965
 30
0.0
 10
106.626916302647
 20
-136.7009816925623
 30
0.0
 10
106.626916302647
 20
-136.7009816925623
 30
0.0
 10
105.698290814598
 20
-137.6299516901599
 30
0.0
 10
104.3795943902366
 20
-138.1281124973271
 30
0.0
 10
103.0872529463271
 20
-137.8933292400073
 30
0.0
 10
102.9168929745815
 20
-137.8624095080246
 30
0.0
 10
102.7416237417745
 20
-137.8458730496954
 30
0.0
 10
102.5626510313158
 20
-137.845270157988
 30
0.0
 10
101.1114906855363
 20
-137.8401025147602
 30
0.0
 10
99.89244364808067
 20
-138.9565718341399
 30
0.0
 10
99.61235738512985
 20
-140.3470123719868
 30
0.0
 10
99.52312941206188
 20
-140.7900516513899
 30
0.0
 10
99.30651903343193
 20
-141.1970896829722
 30
0.0
 10
98.98698642717501
 20
-141.5166222892291
 30
0.0
 10
98.98698642717501
 20
-141.5166222892291
 30
0.0
 10
98.7234366225534
 20
-141.7802582212404
 30
0.0
 10
98.7234366225534
 20
-141.7802582212404
 30
0.0
 10
98.40390401629648
 20
-142.0997908274973
 30
0.0
 10
97.99677985732194
 20
-142.3164873335195
 30
0.0
 10
97.55374057791882
 20
-142.4057153065875
 30
0.0
 10
96.16252489359293
 20
-142.6858015695383
 30
0.0
 10
95.04596944682346
 20
-143.9057098808653
 30
0.0
 10
95.05191223653038
 20
-145.3577315005084
 30
0.0
 10
95.0526873830197
 20
-145.5367042109671
 30
0.0
 10
95.0692238413489
 20
-145.7120595711663
 30
0.0
 10
95.10031582809815
 20
-145.8824195429119
 30
0.0
 10
95.33578810451496
 20
-147.1747609868189
 30
0.0
 10
94.83814406167063
 20
-148.4939741755056
 30
0.0
 10
93.90943244623953
 20
-149.4231164278775
 30
0.0
 10
93.90943244623953
 20
-149.4231164278775
 30
0.0
 10
90.86965244482934
 20
-152.4639299579332
 30
0.0
 10
90.86965244482934
 20
-152.4639299579332
 30
0.0
 10
90.08873542570521
 20
-153.2451053592137
 30
0.0
 10
90.08899380787173
 20
-154.5113502048172
 30
0.0
 10
90.87008308175987
 20
-155.2922672239388
 30
0.0
 10
90.87008308175987
 20
-155.2922672239388
 30
0.0
 10
92.63801995740809
 20
-157.0596873352565
 30
0.0
 10
92.63801995740809
 20
-157.0596873352565
 30
0.0
 10
93.41919535868848
 20
-157.8406043543781
 30
0.0
 10
94.68552633167405
 20
-157.8404320996038
 30
0.0
 10
95.4664433507982
 20
-157.0591705709337
 30
0.0
 10
95.4664433507982
 20
-157.0591705709337
 30
0.0
 10
98.52207079144054
 20
-154.0025096016458
 30
0.0
 10
98.52207079144054
 20
-154.0025096016458
 30
0.0
 10
99.44578701841802
 20
-153.0784488651173
 30
0.0
 10
100.7542342837159
 20
-152.5784793828178
 30
0.0
 10
102.0415803391718
 20
-152.8015493154877
 30
0.0
 10
102.2106484001053
 20
-152.8308326271124
 30
0.0
 10
102.3846257221104
 20
-152.8458187924732
 30
0.0
 10
102.562134266993
 20
-152.8452159007658
 30
0.0
 10
104.0017535428867
 20
-152.8403066396968
 30
0.0
 10
105.2109820582094
 20
-151.7259905049927
 30
0.0
 10
105.4908960663859
 20
-150.3452823618943
 30
0.0
 10
105.5806408037767
 20
-149.9021569551015
 30
0.0
 10
105.7967344180941
 20
-149.4946021591964
 30
0.0
 10
106.1164392791253
 20
-149.1748972981652
 30
0.0
 10
106.1164392791253
 20
-149.1748972981652
 30
0.0
 10
106.3815393767153
 20
-148.9097972005752
 30
0.0
 10
106.3815393767153
 20
-148.9097972005752
 30
0.0
 10
106.7012442377465
 20
-148.5900062121595
 30
0.0
 10
107.1087990336515
 20
-148.3739125978446
 30
0.0
 10
107.5519244404366
 20
-148.2841678604539
 30
0.0
 10
108.9329770930913
 20
-148.0042538522773
 30
0.0
 10
110.0472071004031
 20
-146.7946808274061
 30
0.0
 10
110.0516857245339
 20
-145.3545447871871
 30
0.0
 10
110.0522024888567
 20
-145.1769501149225
 30
0.0
 10
110.0371301961139
 20
-145.0028866655277
 30
0.0
 10
110.007760757097
 20
-144.8338186045916
 30
0.0
 10
109.7841740601043
 20
-143.545869657431
 30
0.0
 10
110.2838851602397
 20
-142.2365611182618
 30
0.0
 10
111.208032024158
 20
-141.312069744795
 30
0.0
 10
111.208032024158
 20
-141.312069744795
 30
0.0
 10
127.2354774954116
 20
-125.278853738601
 30
0.0
 10
127.2354774954116
 20
-125.278853738601
 30
0.0
 10
129.2985729267535
 20
-123.2150692881621
 30
0.0
 10
132.0970239894219
 20
-122.0556224026013
 30
0.0
 10
135.0151059928208
 20
-122.0556224026013
 30
0.0
 10
135.0151059928208
 20
-122.0556224026013
 30
0.0
 10
144.6250275941509
 20
-122.0556224026013
 30
0.0
 10
144.6250275941509
 20
-122.0556224026013
 30
0.0
 10
147.5425067058347
 20
-122.0556224026013
 30
0.0
 10
150.3404410041804
 20
-123.214638651229
 30
0.0
 10
152.403364180748
 20
-125.2776479551812
 30
0.0
 10
152.403364180748
 20
-125.2776479551812
 30
0.0
 10
168.447604492487
 20
-141.3224911586353
 30
0.0
 10
168.447604492487
 20
-141.3224911586353
 30
0.0
 10
169.3707178277597
 20
-142.2457767486822
 30
0.0
 10
169.870945692218
 20
-143.5525875936272
 30
0.0
 10
169.6499428168392
 20
-144.839330757368
 30
0.0
 10
169.6209178873811
 20
-145.0082265635298
 30
0.0
 10
169.6061901041765
 20
-145.1818593759864
 30
0.0
 10
169.6070513780479
 20
-145.3591956660922
 30
0.0
 10
169.6135970594698
 20
-146.7967478846973
 30
0.0
 10
170.7273103024691
 20
-148.0040815975031
 30
0.0
 10
172.1062097704404
 20
-148.2839956056796
 30
0.0
 10
172.5494213046177
 20
-148.3739987252343
 30
0.0
 10
172.9570622279048
 20
-148.5899200847698
 30
0.0
 10
173.2768532163282
 20
-148.9097110731907
 30
0.0
 10
173.2768532163282
 20
-148.9097110731907
 30
0.0
 10
173.542470078241
 20
-149.175414062488
 30
0.0
 10
173.542470078241
 20
-149.175414062488
 30
0.0
 10
173.8622610666542
 20
-149.4951189235192
 30
0.0
 10
174.0780962988051
 20
-149.902759846814
 30
0.0
 10
174.1680132909701
 20
-150.3458852536016
 30
0.0
 10
174.4479272991467
 20
-151.7247847215729
 30
0.0
 10
175.6552610119525
 20
-152.8384979645696
 30
0.0
 10
177.0928132305652
 20
-152.8451297733761
 30
0.0
 10
177.2700633932813
 20
-152.8459910472475
 30
0.0
 10
177.4437823331199
 20
-152.8312632640506
 30
0.0
 10
177.6125920118972
 20
-152.8022383345848
 30
0.0
 10
178.899249048256
 20
-152.5813215865957
 30
0.0
 10
180.2060598931932
 20
-153.081549451054
 30
0.0
 10
181.1291732284659
 20
-154.0047489137112
 30
0.0
 10
181.1291732284659
 20
-154.0047489137112
 30
0.0
 10
184.1882457645935
 20
-157.0639075772285
 30
0.0
 10
184.1882457645935
 20
-157.0639075772285
 30
0.0
 10
184.9692489110997
 20
-157.8449968511192
 30
0.0
 10
186.2356660114775
 20
-157.8449968511192
 30
0.0
 10
187.0167552853759
 20
-157.0639075772285
 30
0.0
 10
187.0167552853759
 20
-157.0639075772285
 30
0.0
 10
188.7843476514653
 20
-155.2963152111314
 30
0.0
 10
188.7843476514653
 20
-155.2963152111314
 30
0.0
 10
189.5654369253637
 20
-154.5152259372407
 30
0.0
 10
189.5654369253637
 20
-153.2488949642474
 30
0.0
 10
188.7843476514653
 20
-152.4678056903567
 30
0.0
 10
188.7843476514653
 20
-152.4678056903567
 30
0.0
 10
185.7479266181584
 20
-149.4312124022678
 30
0.0
 10
185.7479266181584
 20
-149.4312124022678
 30
0.0
  0
SPLINE
  5
42
330
1F
100
AcDbEntity
  8
Layer 1
370
     0
100
AcDbSpline
210
0.0
220
0.0
230
1.0
 70
    11
 71
     3
 72
    17
 73
    13
 74
     0
 42
0.0000000001
 43
0.0000000001
 12
1.0
 22
0.0
 32
0.0
 13
1.0
 23
0.0
 33
0.0
 40
0.0
 40
0.0
 40
0.0
 40
0.0
 40
1.0
 40
1.0
 40
1.0
 40
2.0
 40
2.0
 40
2.0
 40
3.0
 40
3.0
 40
3.0
 40
4.0
 40
4.0
 40
4.0
 40
4.0
 10
185.6067638306451
 20
-61.04022528243879
 30
0.0
 10
186.2970748385072
 20
-61.04022528243879
 30
0.0
 10
186.8567306000861
 20
-61.59988104401763
 30
0.0
 10
186.8567306000861
 20
-62.2902781792617
 30
0.0
 10
186.8567306000861
 20
-62.98058918712056
 30
0.0
 10
186.2970748385072
 20
-63.54024494869939
 30
0.0
 10
185.6067638306451
 20
-63.54024494869939
 30
0.0
 10
184.9163666954011
 20
-63.54024494869939
 30
0.0
 10
184.3567109338222
 20
-62.98058918712056
 30
0.0
 10
184.3567109338222
 20
-62.2902781792617
 30
0.0
 10
184.3567109338222
 20
-61.59988104401763
 30
0.0
 10
184.9163666954011
 20
-61.04022528243879
 30
0.0
 10
185.6067638306451
 20
-61.04022528243879
 30
0.0
  0
SPLINE
  5
43
330
1F
100
AcDbEntity
  8
Layer 1
370
     0
100
AcDbSpline
210
0.0
220
0.0
230
1.0
 70
    11
 71
     3
 72
    17
 73
    13
 74
     0
 42
0.0000000001
 43
0.0000000001
 12
1.0
 22
0.0
 32
0.0
 13
1.0
 23
0.0
 33
0.0
 40
0.0
 40
0.0
 40
0.0
 40
0.0
 40
1.0
 40
1.0
 40
1.0
 40
2.0
 40
2.0
 40
2.0
 40
3.0
 40
3.0
 40
3.0
 40
4.0
 40
4.0
 40
4.0
 40
4.0
 10
181.6433537296395
 20
-69.79007879587633
 30
0.0
 10
182.195602535925
 20
-69.79007879587633
 30
0.0
 10
182.6432926942332
 20
-70.2378550815736
 30
0.0
 10
182.6432926942332
 20
-70.79010388785915
 30
0.0
 10
182.6432926942332
 20
-71.34243882152991
 30
0.0
 10
182.195602535925
 20
-71.79012897983812
 30
0.0
 10
181.6433537296395
 20
-71.79012897983812
 30
0.0
 10
181.0911049233539
 20
-71.79012897983812
 30
0.0
 10
180.6433286376637
 20
-71.34243882152991
 30
0.0
 10
180.6433286376637
 20
-70.79010388785915
 30
0.0
 10
180.6433286376637
 20
-70.2378550815736
 30
0.0
 10
181.0910187959719
 20
-69.79007879587633
 30
0.0
 10
181.6433537296395
 20
-69.79007879587633
 30
0.0
  0
SPLINE
  5
44
330
1F
100
AcDbEntity
  8
Layer 1
370
     0
100
AcDbSpline
210
0.0
220
0.0
230
1.0
 70
    11
 71
     3
 72
    17
 73
    13
 74
     0
 42
0.0000000001
 43
0.0000000001
 12
1.0
 22
0.0
 32
0.0
 13
1.0
 23
0.0
 33
0.0
 40
0.0
 40
0.0
 40
0.0
 40
0.0
 40
1.0
 40
1.0
 40
1.0
 40
2.0
 40
2.0
 40
2.0
 40
3.0
 40
3.0
 40
3.0
 40
4.0
 40
4.0
 40
4.0
 40
4.0
 10
177.1433700068061
 20
-76.29011270267146
 30
0.0
 10
176.5911212005206
 20
-76.29011270267146
 30
0.0
 10
176.1434310422124
 20
-75.84242254436325
 30
0.0
 10
176.1434310422124
 20
-75.2901737380777
 30
0.0
 10
176.1434310422124
 20
-74.73792493179215
 30
0.0
 10
176.5911212005206
 20
-74.29014864609873
 30
0.0
 10
177.1433700068061
 20
-74.29014864609873
 30
0.0
 10
177.6957049404839
 20
-74.29014864609873
 30
0.0
 10
178.1433950987922
 20
-74.73783880440693
 30
0.0
 10
178.1433950987922
 20
-75.2901737380777
 30
0.0
 10
178.1433950987922
 20
-75.84242254436325
 30
0.0
 10
177.6957049404839
 20
-76.29011270267146
 30
0.0
 10
177.1433700068061
 20
-76.29011270267146
 30
0.0
  0
SPLINE
  5
45
330
1F
100
AcDbEntity
  8
Layer 1
370
     0
100
AcDbSpline
210
0.0
220
0.0
230
1.0
 70
    11
 71
     3
 72
    17
 73
    13
 74
     0
 42
0.0000000001
 43
0.0000000001
 12
1.0
 22
0.0
 32
0.0
 13
1.0
 23
0.0
 33
0.0
 40
0.0
 40
0.0
 40
0.0
 40
0.0
 40
1.0
 40
1.0
 40
1.0
 40
2.0
 40
2.0
 40
2.0
 40
3.0
 40
3.0
 40
3.0
 40
4.0
 40
4.0
 40
4.0
 40
4.0
 10
177.1433700068061
 20
-65.29018120043204
 30
0.0
 10
177.6956188130917
 20
-65.29018120043204
 30
0.0
 10
178.1433089713999
 20
-65.73787135874026
 30
0.0
 10
178.1433089713999
 20
-66.29012016502581
 30
0.0
 10
178.1433089713999
 20
-66.84245509869656
 30
0.0
 10
177.6956188130917
 20
-67.29014525700478
 30
0.0
 10
177.1433700068061
 20
-67.29014525700478
 30
0.0
 10
176.5910350731386
 20
-67.29014525700478
 30
0.0
 10
176.1433449148304
 20
-66.84245509869656
 30
0.0
 10
176.1433449148304
 20
-66.29020629241101
 30
0.0
 10
176.1433449148304
 20
-65.73787135874026
 30
0.0
 10
176.5910350731386
 20
-65.29018120043204
 30
0.0
 10
177.1433700068061
 20
-65.29018120043204
 30
0.0
  0
SPLINE
  5
46
330
1F
100
AcDbEntity
  8
Layer 1
370
     0
100
AcDbSpline
210
0.0
220
0.0
230
1.0
 70
    11
 71
     3
 72
    17
 73
    13
 74
     0
 42
0.0000000001
 43
0.0000000001
 12
1.0
 22
0.0
 32
0.0
 13
1.0
 23
0.0
 33
0.0
 40
0.0
 40
0.0
 40
0.0
 40
0.0
 40
1.0
 40
1.0
 40
1.0
 40
2.0
 40
2.0
 40
2.0
 40
3.0
 40
3.0
 40
3.0
 40
4.0
 40
4.0
 40
4.0
 40
4.0
 10
175.3755192585502
 20
-69.02242539437746
 30
0.0
 10
176.35185931907
 20
-68.04608533385765
 30
0.0
 10
177.9347945671603
 20
-68.04608533385765
 30
0.0
 10
178.9110485002878
 20
-69.0223392669884
 30
0.0
 10
179.8873885608076
 20
-69.9986793275082
 30
0.0
 10
179.8873885608076
 20
-71.5816145755953
 30
0.0
 10
178.9111346276801
 20
-72.55786850872605
 30
0.0
 10
177.9347945671603
 20
-73.53420856924585
 30
0.0
 10
176.35185931907
 20
-73.53420856924585
 30
0.0
 10
175.3756053859424
 20
-72.5579546361151
 30
0.0
 10
174.3992653254226
 20
-71.5816145755953
 30
0.0
 10
174.3992653254226
 20
-69.9986793275082
 30
0.0
 10
175.3755192585502
 20
-69.02242539437746
 30
0.0
  0
SPLINE
  5
47
330
1F
100
AcDbEntity
  8
Layer 1
370
     0
100
AcDbSpline
210
0.0
220
0.0
230
1.0
 70
    11
 71
     3
 72
    17
 73
    13
 74
     0
 42
0.0000000001
 43
0.0000000001
 12
1.0
 22
0.0
 32
0.0
 13
1.0
 23
0.0
 33
0.0
 40
0.0
 40
0.0
 40
0.0
 40
0.0
 40
1.0
 40
1.0
 40
1.0
 40
2.0
 40
2.0
 40
2.0
 40
3.0
 40
3.0
 40
3.0
 40
4.0
 40
4.0
 40
4.0
 40
4.0
 10
172.6433862839728
 20
-69.79016492326538
 30
0.0
 10
173.1956350902583
 20
-69.79016492326538
 30
0.0
 10
173.6433252485666
 20
-70.2379412089588
 30
0.0
 10
173.6433252485666
 20
-70.79019001524435
 30
0.0
 10
173.6433252485666
 20
-71.34243882152991
 30
0.0
 10
173.1956350902583
 20
-71.79012897983812
 30
0.0
 10
172.6433862839728
 20
-71.79021510722718
 30
0.0
 10
172.0910513503052
 20
-71.79021510722718
 30
0.0
 10
171.643361191997
 20
-71.34243882152991
 30
0.0
 10
171.643361191997
 20
-70.79019001524435
 30
0.0
 10
171.643361191997
 20
-70.2379412089588
 30
0.0
 10
172.0910513503052
 20
-69.79016492326538
 30
0.0
 10
172.6433862839728
 20
-69.79016492326538
 30
0.0
  0
SPLINE
  5
48
330
1F
100
AcDbEntity
  8
Layer 1
370
     0
100
AcDbSpline
210
0.0
220
0.0
230
1.0
 70
    11
 71
     3
 72
    17
 73
    13
 74
     0
 42
0.0000000001
 43
0.0000000001
 12
1.0
 22
0.0
 32
0.0
 13
1.0
 23
0.0
 33
0.0
 40
0.0
 40
0.0
 40
0.0
 40
0.0
 40
1.0
 40
1.0
 40
1.0
 40
2.0
 40
2.0
 40
2.0
 40
3.0
 40
3.0
 40
3.0
 40
4.0
 40
4.0
 40
4.0
 40
4.0
 10
94.05180101716235
 20
-63.57719359777677
 30
0.0
 10
93.36149000931056
 20
-63.57719359777677
 30
0.0
 10
92.80183424773172
 20
-63.01753783619794
 30
0.0
 10
92.80183424773172
 20
-62.32722682834292
 30
0.0
 10
92.80183424773172
 20
-61.63691582048406
 30
0.0
 10
93.36149000931056
 20
-61.07726005890522
 30
0.0
 10
94.05180101716235
 20
-61.07726005890522
 30
0.0
 10
94.74219815240642
 20
-61.07726005890522
 30
0.0
 10
95.30185391398525
 20
-61.63691582048406
 30
0.0
 10
95.30185391398525
 20
-62.32722682834292
 30
0.0
 10
95.30185391398525
 20
-63.01753783619794
 30
0.0
 10
94.74219815240642
 20
-63.57719359777677
 30
0.0
 10
94.05180101716235
 20
-63.57719359777677
 30
0.0
  0
SPLINE
  5
49
330
1F
100
AcDbEntity
  8
Layer 1
370
     0
100
AcDbSpline
210
0.0
220
0.0
230
1.0
 70
    11
 71
     3
 72
    17
 73
    13
 74
     0
 42
0.0000000001
 43
0.0000000001
 12
1.0
 22
0.0
 32
0.0
 13
1.0
 23
0.0
 33
0.0
 40
0.0
 40
0.0
 40
0.0
 40
0.0
 40
1.0
 40
1.0
 40
1.0
 40
2.0
 40
2.0
 40
2.0
 40
3.0
 40
3.0
 40
3.0
 40
4.0
 40
4.0
 40
4.0
 40
4.0
 10
98.05172913031167
 20
-71.79021510722718
 30
0.0
 10
97.49948032402612
 20
-71.79021510722718
 30
0.0
 10
97.05179016571792
 20
-71.34243882152991
 30
0.0
 10
97.05179016571792
 20
-70.79019001524435
 30
0.0
 10
97.05179016571792
 20
-70.2379412089588
 30
0.0
 10
97.49948032402612
 20
-69.79016492326538
 30
0.0
 10
98.05172913031167
 20
-69.79016492326538
 30
0.0
 10
98.6040640639895
 20
-69.79016492326538
 30
0.0
 10
99.0517542222977
 20
-70.2379412089588
 30
0.0
 10
99.0517542222977
 20
-70.79019001524435
 30
0.0
 10
99.0517542222977
 20
-71.34243882152991
 30
0.0
 10
98.6040640639895
 20
-71.79012897983812
 30
0.0
 10
98.05172913031167
 20
-71.79021510722718
 30
0.0
  0
SPLINE
  5
4A
330
1F
100
AcDbEntity
  8
Layer 1
370
     0
100
AcDbSpline
210
0.0
220
0.0
230
1.0
 70
    11
 71
     3
 72
    17
 73
    13
 74
     0
 42
0.0000000001
 43
0.0000000001
 12
1.0
 22
0.0
 32
0.0
 13
1.0
 23
0.0
 33
0.0
 40
0.0
 40
0.0
 40
0.0
 40
0.0
 40
1.0
 40
1.0
 40
1.0
 40
2.0
 40
2.0
 40
2.0
 40
3.0
 40
3.0
 40
3.0
 40
4.0
 40
4.0
 40
4.0
 40
4.0
 10
102.551712853145
 20
-65.29018120043204
 30
0.0
 10
103.1040477868228
 20
-65.29018120043204
 30
0.0
 10
103.551737945131
 20
-65.73787135874026
 30
0.0
 10
103.551824072513
 20
-66.29012016502581
 30
0.0
 10
103.551824072513
 20
-66.84245509869656
 30
0.0
 10
103.1040477868228
 20
-67.29014525700478
 30
0.0
 10
102.5517989805373
 20
-67.29014525700478
 30
0.0
 10
101.9994640468595
 20
-67.29014525700478
 30
0.0
 10
101.5517738885513
 20
-66.84245509869656
 30
0.0
 10
101.5517738885513
 20
-66.29020629241101
 30
0.0
 10
101.5517738885513
 20
-65.73787135874026
 30
0.0
 10
101.9994640468595
 20
-65.29018120043204
 30
0.0
 10
102.551712853145
 20
-65.29018120043204
 30
0.0
  0
SPLINE
  5
4B
330
1F
100
AcDbEntity
  8
Layer 1
370
     0
100
AcDbSpline
210
0.0
220
0.0
230
1.0
 70
    11
 71
     3
 72
    17
 73
    13
 74
     0
 42
0.0000000001
 43
0.0000000001
 12
1.0
 22
0.0
 32
0.0
 13
1.0
 23
0.0
 33
0.0
 40
0.0
 40
0.0
 40
0.0
 40
0.0
 40
1.0
 40
1.0
 40
1.0
 40
2.0
 40
2.0
 40
2.0
 40
3.0
 40
3.0
 40
3.0
 40
4.0
 40
4.0
 40
4.0
 40
4.0
 10
102.5518851079193
 20
-76.29011270267146
 30
0.0
 10
101.9995501742517
 20
-76.29011270267146
 30
0.0
 10
101.5518600159435
 20
-75.84242254436325
 30
0.0
 10
101.5518600159435
 20
-75.2901737380777
 30
0.0
 10
101.5518600159435
 20
-74.73792493179215
 30
0.0
 10
101.9995501742517
 20
-74.29014864609873
 30
0.0
 10
102.5517989805373
 20
-74.29014864609873
 30
0.0
 10
103.1041339142048
 20
-74.29014864609873
 30
0.0
 10
103.551824072513
 20
-74.73783880440693
 30
0.0
 10
103.551824072513
 20
-75.2901737380777
 30
0.0
 10
103.551824072513
 20
-75.84242254436325
 30
0.0
 10
103.1041339142048
 20
-76.29011270267146
 30
0.0
 10
102.5518851079193
 20
-76.29011270267146
 30
0.0
  0
SPLINE
  5
4C
330
1F
100
AcDbEntity
  8
Layer 1
370
     0
100
AcDbSpline
210
0.0
220
0.0
230
1.0
 70
    11
 71
     3
 72
    17
 73
    13
 74
     0
 42
0.0000000001
 43
0.0000000001
 12
1.0
 22
0.0
 32
0.0
 13
1.0
 23
0.0
 33
0.0
 40
0.0
 40
0.0
 40
0.0
 40
0.0
 40
1.0
 40
1.0
 40
1.0
 40
2.0
 40
2.0
 40
2.0
 40
3.0
 40
3.0
 40
3.0
 40
4.0
 40
4.0
 40
4.0
 40
4.0
 10
104.319563601401
 20
-72.55786850872605
 30
0.0
 10
103.3432235408812
 20
-73.53420856924585
 30
0.0
 10
101.7603744201831
 20
-73.53420856924585
 30
0.0
 10
100.7840343596633
 20
-72.5579546361151
 30
0.0
 10
99.80769429914352
 20
-71.5816145755953
 30
0.0
 10
99.80769429914352
 20
-69.9986793275082
 30
0.0
 10
100.7840343596633
 20
-69.02242539437746
 30
0.0
 10
101.7602882928011
 20
-68.04608533385765
 30
0.0
 10
103.3432235408812
 20
-68.04608533385765
 30
0.0
 10
104.319563601401
 20
-69.0223392669884
 30
0.0
 10
105.2958175345388
 20
-69.9986793275082
 30
0.0
 10
105.2959036619208
 20
-71.5816145755953
 30
0.0
 10
104.319563601401
 20
-72.55786850872605
 30
0.0
  0
SPLINE
  5
4D
330
1F
100
AcDbEntity
  8
Layer 1
370
     0
100
AcDbSpline
210
0.0
220
0.0
230
1.0
 70
    11
 71
     3
 72
    17
 73
    13
 74
     0
 42
0.0000000001
 43
0.0000000001
 12
1.0
 22
0.0
 32
0.0
 13
1.0
 23
0.0
 33
0.0
 40
0.0
 40
0.0
 40
0.0
 40
0.0
 40
1.0
 40
1.0
 40
1.0
 40
2.0
 40
2.0
 40
2.0
 40
3.0
 40
3.0
 40
3.0
 40
4.0
 40
4.0
 40
4.0
 40
4.0
 10
107.0517827033706
 20
-71.79012897983812
 30
0.0
 10
106.4994477696928
 20
-71.79012897983812
 30
0.0
 10
106.0517576113846
 20
-71.34243882152991
 30
0.0
 10
106.0517576113846
 20
-70.79010388785915
 30
0.0
 10
106.0517576113846
 20
-70.2378550815736
 30
0.0
 10
106.4994477696928
 20
-69.79007879587633
 30
0.0
 10
107.0517827033706
 20
-69.79007879587633
 30
0.0
 10
107.6040315096562
 20
-69.79007879587633
 30
0.0
 10
108.0518077953464
 20
-70.2378550815736
 30
0.0
 10
108.0518077953464
 20
-70.79010388785915
 30
0.0
 10
108.0518077953464
 20
-71.34243882152991
 30
0.0
 10
107.6040315096562
 20
-71.79012897983812
 30
0.0
 10
107.0517827033706
 20
-71.79012897983812
 30
0.0
  0
SPLINE
  5
4E
330
1F
100
AcDbEntity
  8
Layer 1
370
     0
100
AcDbSpline
210
0.0
220
0.0
230
1.0
 70
    11
 71
     3
 72
    17
 73
    13
 74
     0
 42
0.0000000001
 43
0.0000000001
 12
1.0
 22
0.0
 32
0.0
 13
1.0
 23
0.0
 33
0.0
 40
0.0
 40
0.0
 40
0.0
 40
0.0
 40
1.0
 40
1.0
 40
1.0
 40
2.0
 40
2.0
 40
2.0
 40
3.0
 40
3.0
 40
3.0
 40
4.0
 40
4.0
 40
4.0
 40
4.0
 10
94.05180101716235
 20
-155.1275916597438
 30
0.0
 10
93.36149000931056
 20
-155.1275916597438
 30
0.0
 10
92.80183424773172
 20
-154.567935898165
 30
0.0
 10
92.80183424773172
 20
-153.8776248903055
 30
0.0
 10
92.80183424773172
 20
-153.1872277550615
 30
0.0
 10
93.36149000931056
 20
-152.6275719934826
 30
0.0
 10
94.05180101716235
 20
-152.6275719934826
 30
0.0
 10
94.74219815240642
 20
-152.6275719934826
 30
0.0
 10
95.30185391398525
 20
-153.1872277550615
 30
0.0
 10
95.30185391398525
 20
-153.8776248903055
 30
0.0
 10
95.30185391398525
 20
-154.567935898165
 30
0.0
 10
94.74219815240642
 20
-155.1275916597438
 30
0.0
 10
94.05180101716235
 20
-155.1275916597438
 30
0.0
  0
SPLINE
  5
4F
330
1F
100
AcDbEntity
  8
Layer 1
370
     0
100
AcDbSpline
210
0.0
220
0.0
230
1.0
 70
    11
 71
     3
 72
    17
 73
    13
 74
     0
 42
0.0000000001
 43
0.0000000001
 12
1.0
 22
0.0
 32
0.0
 13
1.0
 23
0.0
 33
0.0
 40
0.0
 40
0.0
 40
0.0
 40
0.0
 40
1.0
 40
1.0
 40
1.0
 40
2.0
 40
2.0
 40
2.0
 40
3.0
 40
3.0
 40
3.0
 40
4.0
 40
4.0
 40
4.0
 40
4.0
 10
98.05172913031167
 20
-146.3452681213553
 30
0.0
 10
97.49948032402612
 20
-146.3452681213553
 30
0.0
 10
97.05179016571792
 20
-145.897577963047
 30
0.0
 10
97.05179016571792
 20
-145.3452430293769
 30
0.0
 10
97.05179016571792
 20
-144.7929942230914
 30
0.0
 10
97.49948032402612
 20
-144.3452179373935
 30
0.0
 10
98.05172913031167
 20
-144.3452179373935
 30
0.0
 10
98.6040640639895
 20
-144.3452179373935
 30
0.0
 10
99.0517542222977
 20
-144.7929080957017
 30
0.0
 10
99.0517542222977
 20
-145.3452430293769
 30
0.0
 10
99.0517542222977
 20
-145.897577963047
 30
0.0
 10
98.6040640639895
 20
-146.3452681213553
 30
0.0
 10
98.05172913031167
 20
-146.3452681213553
 30
0.0
  0
SPLINE
  5
50
330
1F
100
AcDbEntity
  8
Layer 1
370
     0
100
AcDbSpline
210
0.0
220
0.0
230
1.0
 70
    11
 71
     3
 72
    17
 73
    13
 74
     0
 42
0.0000000001
 43
0.0000000001
 12
1.0
 22
0.0
 32
0.0
 13
1.0
 23
0.0
 33
0.0
 40
0.0
 40
0.0
 40
0.0
 40
0.0
 40
1.0
 40
1.0
 40
1.0
 40
2.0
 40
2.0
 40
2.0
 40
3.0
 40
3.0
 40
3.0
 40
4.0
 40
4.0
 40
4.0
 40
4.0
 10
102.551712853145
 20
-139.8452342145602
 30
0.0
 10
103.1040477868228
 20
-139.8452342145602
 30
0.0
 10
103.551737945131
 20
-140.2929243728684
 30
0.0
 10
103.551824072513
 20
-140.8451731791539
 30
0.0
 10
103.551824072513
 20
-141.3975081128291
 30
0.0
 10
103.1040477868228
 20
-141.8451982711374
 30
0.0
 10
102.5517989805373
 20
-141.8451982711374
 30
0.0
 10
101.9994640468595
 20
-141.8451982711374
 30
0.0
 10
101.5517738885513
 20
-141.3975081128291
 30
0.0
 10
101.5517738885513
 20
-140.8452593065436
 30
0.0
 10
101.5517738885513
 20
-140.2929243728684
 30
0.0
 10
101.9994640468595
 20
-139.8452342145602
 30
0.0
 10
102.551712853145
 20
-139.8452342145602
 30
0.0
  0
SPLINE
  5
51
330
1F
100
AcDbEntity
  8
Layer 1
370
     0
100
AcDbSpline
210
0.0
220
0.0
230
1.0
 70
    11
 71
     3
 72
    17
 73
    13
 74
     0
 42
0.0000000001
 43
0.0000000001
 12
1.0
 22
0.0
 32
0.0
 13
1.0
 23
0.0
 33
0.0
 40
0.0
 40
0.0
 40
0.0
 40
0.0
 40
1.0
 40
1.0
 40
1.0
 40
2.0
 40
2.0
 40
2.0
 40
3.0
 40
3.0
 40
3.0
 40
4.0
 40
4.0
 40
4.0
 40
4.0
 10
102.5518851079193
 20
-150.8452518441886
 30
0.0
 10
101.9995501742517
 20
-150.8452518441886
 30
0.0
 10
101.5518600159435
 20
-150.3975616858804
 30
0.0
 10
101.5518600159435
 20
-149.8452267522103
 30
0.0
 10
101.5518600159435
 20
-149.292891818535
 30
0.0
 10
101.9995501742517
 20
-148.8452016602268
 30
0.0
 10
102.5517989805373
 20
-148.8452016602268
 30
0.0
 10
103.1041339142048
 20
-148.8452016602268
 30
0.0
 10
103.551824072513
 20
-149.292891818535
 30
0.0
 10
103.551824072513
 20
-149.8452267522103
 30
0.0
 10
103.551824072513
 20
-150.3974755584958
 30
0.0
 10
103.1041339142048
 20
-150.8452518441886
 30
0.0
 10
102.5518851079193
 20
-150.8452518441886
 30
0.0
  0
SPLINE
  5
52
330
1F
100
AcDbEntity
  8
Layer 1
370
     0
100
AcDbSpline
210
0.0
220
0.0
230
1.0
 70
    11
 71
     3
 72
    17
 73
    13
 74
     0
 42
0.0000000001
 43
0.0000000001
 12
1.0
 22
0.0
 32
0.0
 13
1.0
 23
0.0
 33
0.0
 40
0.0
 40
0.0
 40
0.0
 40
0.0
 40
1.0
 40
1.0
 40
1.0
 40
2.0
 40
2.0
 40
2.0
 40
3.0
 40
3.0
 40
3.0
 40
4.0
 40
4.0
 40
4.0
 40
4.0
 10
104.319563601401
 20
-147.1130076502432
 30
0.0
 10
103.3432235408812
 20
-148.0892615833784
 30
0.0
 10
101.7603744201831
 20
-148.089347710763
 30
0.0
 10
100.7840343596633
 20
-147.1130076502432
 30
0.0
 10
99.80769429914352
 20
-146.1366675897234
 30
0.0
 10
99.80769429914352
 20
-144.5538184690253
 30
0.0
 10
100.7840343596633
 20
-143.5774784085056
 30
0.0
 10
101.7602882928011
 20
-142.6011383479857
 30
0.0
 10
103.3432235408812
 20
-142.6011383479857
 30
0.0
 10
104.319563601401
 20
-143.5774784085056
 30
0.0
 10
105.2958175345388
 20
-144.5537323416408
 30
0.0
 10
105.2959036619208
 20
-146.1366675897234
 30
0.0
 10
104.319563601401
 20
-147.1130076502432
 30
0.0
  0
SPLINE
  5
53
330
1F
100
AcDbEntity
  8
Layer 1
370
     0
100
AcDbSpline
210
0.0
220
0.0
230
1.0
 70
    11
 71
     3
 72
    17
 73
    13
 74
     0
 42
0.0000000001
 43
0.0000000001
 12
1.0
 22
0.0
 32
0.0
 13
1.0
 23
0.0
 33
0.0
 40
0.0
 40
0.0
 40
0.0
 40
0.0
 40
1.0
 40
1.0
 40
1.0
 40
2.0
 40
2.0
 40
2.0
 40
3.0
 40
3.0
 40
3.0
 40
4.0
 40
4.0
 40
4.0
 40
4.0
 10
107.0517827033706
 20
-146.3451819939707
 30
0.0
 10
106.4994477696928
 20
-146.3451819939707
 30
0.0
 10
106.0517576113846
 20
-145.8974918356625
 30
0.0
 10
106.0517576113846
 20
-145.3451569019873
 30
0.0
 10
106.0517576113846
 20
-144.7929080957017
 30
0.0
 10
106.4994477696928
 20
-144.3452179373935
 30
0.0
 10
107.0517827033706
 20
-144.3452179373935
 30
0.0
 10
107.6040315096562
 20
-144.3452179373935
 30
0.0
 10
108.0518077953464
 20
-144.7929080957017
 30
0.0
 10
108.0518077953464
 20
-145.3451569019873
 30
0.0
 10
108.0518077953464
 20
-145.8974918356625
 30
0.0
 10
107.6040315096562
 20
-146.3451819939707
 30
0.0
 10
107.0517827033706
 20
-146.3451819939707
 30
0.0
  0
SPLINE
  5
54
330
1F
100
AcDbEntity
  8
Layer 1
370
     0
100
AcDbSpline
210
0.0
220
0.0
230
1.0
 70
    11
 71
     3
 72
    17
 73
    13
 74
     0
 42
0.0000000001
 43
0.0000000001
 12
1.0
 22
0.0
 32
0.0
 13
1.0
 23
0.0
 33
0.0
 40
0.0
 40
0.0
 40
0.0
 40
0.0
 40
1.0
 40
1.0
 40
1.0
 40
2.0
 40
2.0
 40
2.0
 40
3.0
 40
3.0
 40
3.0
 40
4.0
 40
4.0
 40
4.0
 40
4.0
 10
129.8413563327862
 20
-96.55566615083956
 30
0.0
 10
130.6697230256623
 20
-96.55566615083956
 30
0.0
 10
131.3413046563885
 20
-97.22724778156642
 30
0.0
 10
131.3413046563885
 20
-98.05571782648914
 30
0.0
 10
131.3413046563885
 20
-98.88408451936266
 30
0.0
 10
130.6697230256623
 20
-99.55566615008952
 30
0.0
 10
129.8413563327862
 20
-99.55566615008952
 30
0.0
 10
129.0128862878648
 20
-99.55566615008952
 30
0.0
 10
128.3413046571386
 20
-98.88408451936266
 30
0.0
 10
128.3413046571386
 20
-98.05571782648914
 30
0.0
 10
128.3413046571386
 20
-97.22724778156642
 30
0.0
 10
129.0128862878648
 20
-96.55566615083956
 30
0.0
 10
129.8413563327862
 20
-96.55566615083956
 30
0.0
  0
SPLINE
  5
55
330
1F
100
AcDbEntity
  8
Layer 1
370
     0
100
AcDbSpline
210
0.0
220
0.0
230
1.0
 70
    11
 71
     3
 72
    17
 73
    13
 74
     0
 42
0.0000000001
 43
0.0000000001
 12
1.0
 22
0.0
 32
0.0
 13
1.0
 23
0.0
 33
0.0
 40
0.0
 40
0.0
 40
0.0
 40
0.0
 40
1.0
 40
1.0
 40
1.0
 40
2.0
 40
2.0
 40
2.0
 40
3.0
 40
3.0
 40
3.0
 40
4.0
 40
4.0
 40
4.0
 40
4.0
 10
129.8413563327862
 20
-119.5556512253847
 30
0.0
 10
129.0128862878638
 20
-119.5556512253847
 30
0.0
 10
128.341304657137
 20
-118.8840695946578
 30
0.0
 10
128.341304657137
 20
-118.055702901784
 30
0.0
 10
128.341304657137
 20
-117.2272328568616
 30
0.0
 10
129.0128862878638
 20
-116.5556512261347
 30
0.0
 10
129.8413563327862
 20
-116.5556512261347
 30
0.0
 10
130.6697230256633
 20
-116.5556512261347
 30
0.0
 10
131.3413046563902
 20
-117.2272328568616
 30
0.0
 10
131.3413046563902
 20
-118.055702901784
 30
0.0
 10
131.3413046563902
 20
-118.8840695946578
 30
0.0
 10
130.6697230256633
 20
-119.5556512253847
 30
0.0
 10
129.8413563327862
 20
-119.5556512253847
 30
0.0
  0
SPLINE
  5
56
330
1F
100
AcDbEntity
  8
Layer 1
370
     0
100
AcDbSpline
210
0.0
220
0.0
230
1.0
 70
    11
 71
     3
 72
    23
 73
    19
 74
     0
 42
0.0000000001
 43
0.0000000001
 12
1.0
 22
0.0
 32
0.0
 13
1.0
 23
0.0
 33
0.0
 40
0.0
 40
0.0
 40
0.0
 40
0.0
 40
1.0
 40
1.0
 40
1.0
 40
2.0
 40
2.0
 40
2.0
 40
3.0
 40
3.0
 40
3.0
 40
4.0
 40
4.0
 40
4.0
 40
5.0
 40
5.0
 40
5.0
 40
6.0
 40
6.0
 40
6.0
 40
6.0
 10
129.5330116745247
 20
-112.4717973995745
 30
0.0
 10
129.5330116745247
 20
-112.4717973995745
 30
0.0
 10
129.533183929299
 20
-103.6463240402354
 30
0.0
 10
129.533183929299
 20
-103.6463240402354
 30
0.0
 10
129.533183929299
 20
-102.7554223477498
 30
0.0
 10
130.6102930327623
 20
-102.3091963550209
 30
0.0
 10
131.2402287422402
 20
-102.9392181918878
 30
0.0
 10
131.2402287422402
 20
-102.9392181918878
 30
0.0
 10
135.6520180206512
 20
-107.3512658524583
 30
0.0
 10
135.6520180206512
 20
-107.3512658524583
 30
0.0
 10
136.0425195939042
 20
-107.7416812983261
 30
0.0
 10
136.0425195939042
 20
-108.3747175937411
 30
0.0
 10
135.6521041480435
 20
-108.7653052943787
 30
0.0
 10
135.6521041480435
 20
-108.7653052943787
 30
0.0
 10
131.2403148696325
 20
-113.1788171205323
 30
0.0
 10
131.2403148696325
 20
-113.1788171205323
 30
0.0
 10
130.6103791601546
 20
-113.8089250847845
 30
0.0
 10
129.5330116745247
 20
-113.3627852194446
 30
0.0
 10
129.5330116745247
 20
-112.4717973995745
 30
0.0
  0
SPLINE
  5
57
330
1F
100
AcDbEntity
  8
Layer 1
370
     0
100
AcDbSpline
210
0.0
220
0.0
230
1.0
 70
    11
 71
     3
 72
    23
 73
    19
 74
     0
 42
0.0000000001
 43
0.0000000001
 12
1.0
 22
0.0
 32
0.0
 13
1.0
 23
0.0
 33
0.0
 40
0.0
 40
0.0
 40
0.0
 40
0.0
 40
1.0
 40
1.0
 40
1.0
 40
2.0
 40
2.0
 40
2.0
 40
3.0
 40
3.0
 40
3.0
 40
4.0
 40
4.0
 40
4.0
 40
5.0
 40
5.0
 40
5.0
 40
6.0
 40
6.0
 40
6.0
 40
6.0
 10
143.8654701670353
 20
-108.7647024026714
 30
0.0
 10
143.4749685937823
 20
-108.3742008294183
 30
0.0
 10
143.4749685937823
 20
-107.7411645340033
 30
0.0
 10
143.8652979122611
 20
-107.3506629607503
 30
0.0
 10
143.8652979122611
 20
-107.3506629607503
 30
0.0
 10
148.418077723411
 20
-102.79624672925
 30
0.0
 10
148.418077723411
 20
-102.79624672925
 30
0.0
 10
149.0479273054967
 20
-102.1660526376087
 30
0.0
 10
150.1252947911265
 20
-102.6121925029486
 30
0.0
 10
150.1252947911265
 20
-103.5031803228232
 30
0.0
 10
150.1252947911265
 20
-103.5031803228232
 30
0.0
 10
150.1252086637343
 20
-112.6103763654661
 30
0.0
 10
150.1252086637343
 20
-112.6103763654661
 30
0.0
 10
150.1252086637343
 20
-113.5012780579517
 30
0.0
 10
149.0480995602709
 20
-113.9475040506812
 30
0.0
 10
148.418077723411
 20
-113.3174822138136
 30
0.0
 10
148.418077723411
 20
-113.3174822138136
 30
0.0
 10
143.8654701670353
 20
-108.7647024026714
 30
0.0
 10
143.8654701670353
 20
-108.7647024026714
 30
0.0
  0
SPLINE
  5
58
330
1F
100
AcDbEntity
  8
Layer 1
370
     0
100
AcDbSpline
210
0.0
220
0.0
230
1.0
 70
    11
 71
     3
 72
    17
 73
    13
 74
     0
 42
0.0000000001
 43
0.0000000001
 12
1.0
 22
0.0
 32
0.0
 13
1.0
 23
0.0
 33
0.0
 40
0.0
 40
0.0
 40
0.0
 40
0.0
 40
1.0
 40
1.0
 40
1.0
 40
2.0
 40
2.0
 40
2.0
 40
3.0
 40
3.0
 40
3.0
 40
4.0
 40
4.0
 40
4.0
 40
4.0
 10
149.8413414080811
 20
-119.5556512253847
 30
0.0
 10
149.0128713631587
 20
-119.5556512253847
 30
0.0
 10
148.3412897324324
 20
-118.8840695946578
 30
0.0
 10
148.3412897324324
 20
-118.055702901784
 30
0.0
 10
148.3412897324324
 20
-117.2272328568616
 30
0.0
 10
149.0128713631587
 20
-116.5556512261347
 30
0.0
 10
149.8413414080811
 20
-116.5556512261347
 30
0.0
 10
150.6698114530041
 20
-116.5556512261347
 30
0.0
 10
151.341289731685
 20
-117.2272328568616
 30
0.0
 10
151.341289731685
 20
-118.055702901784
 30
0.0
 10
151.341289731685
 20
-118.8840695946578
 30
0.0
 10
150.6698114530041
 20
-119.5556512253847
 30
0.0
 10
149.8413414080811
 20
-119.5556512253847
 30
0.0
  0
SPLINE
  5
59
330
1F
100
AcDbEntity
  8
Layer 1
370
     0
100
AcDbSpline
210
0.0
220
0.0
230
1.0
 70
    11
 71
     3
 72
    17
 73
    13
 74
     0
 42
0.0000000001
 43
0.0000000001
 12
1.0
 22
0.0
 32
0.0
 13
1.0
 23
0.0
 33
0.0
 40
0.0
 40
0.0
 40
0.0
 40
0.0
 40
1.0
 40
1.0
 40
1.0
 40
2.0
 40
2.0
 40
2.0
 40
3.0
 40
3.0
 40
3.0
 40
4.0
 40
4.0
 40
4.0
 40
4.0
 10
149.8413414080811
 20
-99.55566615008952
 30
0.0
 10
149.0128713631587
 20
-99.55566615008952
 30
0.0
 10
148.3412897324318
 20
-98.88408451936266
 30
0.0
 10
148.3412897324318
 20
-98.05571782648914
 30
0.0
 10
148.3412897324318
 20
-97.22724778156642
 30
0.0
 10
149.0128713631587
 20
-96.55566615083956
 30
0.0
 10
149.8413414080811
 20
-96.55566615083956
 30
0.0
 10
150.6698114530041
 20
-96.55566615083956
 30
0.0
 10
151.3412897316856
 20
-97.22724778156642
 30
0.0
 10
151.3412897316856
 20
-98.05571782648914
 30
0.0
 10
151.3412897316856
 20
-98.88408451936266
 30
0.0
 10
150.6698114530041
 20
-99.55566615008952
 30
0.0
 10
149.8413414080811
 20
-99.55566615008952
 30
0.0
  0
SPLINE
  5
5A
330
1F
100
AcDbEntity
  8
Layer 1
370
     0
100
AcDbSpline
210
0.0
220
0.0
230
1.0
 70
    11
 71
     3
 72
    17
 73
    13
 74
     0
 42
0.0000000001
 43
0.0000000001
 12
1.0
 22
0.0
 32
0.0
 13
1.0
 23
0.0
 33
0.0
 40
0.0
 40
0.0
 40
0.0
 40
0.0
 40
1.0
 40
1.0
 40
1.0
 40
2.0
 40
2.0
 40
2.0
 40
3.0
 40
3.0
 40
3.0
 40
4.0
 40
4.0
 40
4.0
 40
4.0
 10
172.6068682718291
 20
-146.3452681213553
 30
0.0
 10
172.0545333381616
 20
-146.3452681213553
 30
0.0
 10
171.6068431798534
 20
-145.897577963047
 30
0.0
 10
171.6068431798534
 20
-145.3452430293769
 30
0.0
 10
171.6068431798534
 20
-144.7929942230914
 30
0.0
 10
172.0545333381616
 20
-144.3452179373935
 30
0.0
 10
172.6068682718291
 20
-144.3452179373935
 30
0.0
 10
173.1591170781147
 20
-144.3452179373935
 30
0.0
 10
173.6068072364229
 20
-144.7929080957017
 30
0.0
 10
173.6068072364229
 20
-145.3452430293769
 30
0.0
 10
173.6068072364229
 20
-145.897577963047
 30
0.0
 10
173.1591170781147
 20
-146.3452681213553
 30
0.0
 10
172.6068682718291
 20
-146.3452681213553
 30
0.0
  0
SPLINE
  5
5B
330
1F
100
AcDbEntity
  8
Layer 1
370
     0
100
AcDbSpline
210
0.0
220
0.0
230
1.0
 70
    11
 71
     3
 72
    17
 73
    13
 74
     0
 42
0.0000000001
 43
0.0000000001
 12
1.0
 22
0.0
 32
0.0
 13
1.0
 23
0.0
 33
0.0
 40
0.0
 40
0.0
 40
0.0
 40
0.0
 40
1.0
 40
1.0
 40
1.0
 40
2.0
 40
2.0
 40
2.0
 40
3.0
 40
3.0
 40
3.0
 40
4.0
 40
4.0
 40
4.0
 40
4.0
 10
177.1068519946625
 20
-139.8452342145602
 30
0.0
 10
177.659100800948
 20
-139.8452342145602
 30
0.0
 10
178.1067909592562
 20
-140.2929243728684
 30
0.0
 10
178.1067909592562
 20
-140.8451731791539
 30
0.0
 10
178.1067909592562
 20
-141.3975081128291
 30
0.0
 10
177.659100800948
 20
-141.8451982711374
 30
0.0
 10
177.1068519946625
 20
-141.8451982711374
 30
0.0
 10
176.5546031883769
 20
-141.8451982711374
 30
0.0
 10
176.1068269026867
 20
-141.3975081128291
 30
0.0
 10
176.1068269026867
 20
-140.8452593065436
 30
0.0
 10
176.1068269026867
 20
-140.2929243728684
 30
0.0
 10
176.5545170609949
 20
-139.8452342145602
 30
0.0
 10
177.1068519946625
 20
-139.8452342145602
 30
0.0
  0
SPLINE
  5
5C
330
1F
100
AcDbEntity
  8
Layer 1
370
     0
100
AcDbSpline
210
0.0
220
0.0
230
1.0
 70
    11
 71
     3
 72
    17
 73
    13
 74
     0
 42
0.0000000001
 43
0.0000000001
 12
1.0
 22
0.0
 32
0.0
 13
1.0
 23
0.0
 33
0.0
 40
0.0
 40
0.0
 40
0.0
 40
0.0
 40
1.0
 40
1.0
 40
1.0
 40
2.0
 40
2.0
 40
2.0
 40
3.0
 40
3.0
 40
3.0
 40
4.0
 40
4.0
 40
4.0
 40
4.0
 10
177.1069381220547
 20
-150.8452518441886
 30
0.0
 10
176.5546031883769
 20
-150.8452518441886
 30
0.0
 10
176.1069130300687
 20
-150.3975616858804
 30
0.0
 10
176.1069130300687
 20
-149.8452267522103
 30
0.0
 10
176.1069130300687
 20
-149.292891818535
 30
0.0
 10
176.5546031883769
 20
-148.8452016602268
 30
0.0
 10
177.1068519946625
 20
-148.8452016602268
 30
0.0
 10
177.6591869283403
 20
-148.8452016602268
 30
0.0
 10
178.1068770866485
 20
-149.292891818535
 30
0.0
 10
178.1068770866485
 20
-149.8452267522103
 30
0.0
 10
178.1068770866485
 20
-150.3974755584958
 30
0.0
 10
177.6591869283403
 20
-150.8452518441886
 30
0.0
 10
177.1069381220547
 20
-150.8452518441886
 30
0.0
  0
SPLINE
  5
5D
330
1F
100
AcDbEntity
  8
Layer 1
370
     0
100
AcDbSpline
210
0.0
220
0.0
230
1.0
 70
    11
 71
     3
 72
    17
 73
    13
 74
     0
 42
0.0000000001
 43
0.0000000001
 12
1.0
 22
0.0
 32
0.0
 13
1.0
 23
0.0
 33
0.0
 40
0.0
 40
0.0
 40
0.0
 40
0.0
 40
1.0
 40
1.0
 40
1.0
 40
2.0
 40
2.0
 40
2.0
 40
3.0
 40
3.0
 40
3.0
 40
4.0
 40
4.0
 40
4.0
 40
4.0
 10
178.8746166155364
 20
-147.1130076502432
 30
0.0
 10
177.8983626823986
 20
-148.0892615833784
 30
0.0
 10
176.3154274343186
 20
-148.089347710763
 30
0.0
 10
175.3390873737988
 20
-147.1130076502432
 30
0.0
 10
174.362747313279
 20
-146.1366675897234
 30
0.0
 10
174.362747313279
 20
-144.5538184690253
 30
0.0
 10
175.3390873737988
 20
-143.5774784085056
 30
0.0
 10
176.3153413069263
 20
-142.6011383479857
 30
0.0
 10
177.8982765550166
 20
-142.6011383479857
 30
0.0
 10
178.8746166155364
 20
-143.5774784085056
 30
0.0
 10
179.850870548664
 20
-144.5537323416408
 30
0.0
 10
179.850870548664
 20
-146.1366675897234
 30
0.0
 10
178.8746166155364
 20
-147.1130076502432
 30
0.0
  0
SPLINE
  5
5E
330
1F
100
AcDbEntity
  8
Layer 1
370
     0
100
AcDbSpline
210
0.0
220
0.0
230
1.0
 70
    11
 71
     3
 72
    17
 73
    13
 74
     0
 42
0.0000000001
 43
0.0000000001
 12
1.0
 22
0.0
 32
0.0
 13
1.0
 23
0.0
 33
0.0
 40
0.0
 40
0.0
 40
0.0
 40
0.0
 40
1.0
 40
1.0
 40
1.0
 40
2.0
 40
2.0
 40
2.0
 40
3.0
 40
3.0
 40
3.0
 40
4.0
 40
4.0
 40
4.0
 40
4.0
 10
181.6068357174958
 20
-146.3451819939707
 30
0.0
 10
181.0545869112103
 20
-146.3451819939707
 30
0.0
 10
180.6068967529021
 20
-145.8974918356625
 30
0.0
 10
180.6068106255201
 20
-145.3451569019873
 30
0.0
 10
180.6068106255201
 20
-144.7929080957017
 30
0.0
 10
181.0545869112103
 20
-144.3452179373935
 30
0.0
 10
181.6068357174958
 20
-144.3452179373935
 30
0.0
 10
182.1590845237814
 20
-144.3452179373935
 30
0.0
 10
182.6068608094818
 20
-144.7929080957017
 30
0.0
 10
182.6068608094818
 20
-145.3451569019873
 30
0.0
 10
182.6068608094818
 20
-145.8974918356625
 30
0.0
 10
182.1590845237814
 20
-146.3451819939707
 30
0.0
 10
181.6068357174958
 20
-146.3451819939707
 30
0.0
  0
SPLINE
  5
5F
330
1F
100
AcDbEntity
  8
Layer 1
370
     0
100
AcDbSpline
210
0.0
220
0.0
230
1.0
 70
    11
 71
     3
 72
    17
 73
    13
 74
     0
 42
0.0000000001
 43
0.0000000001
 12
1.0
 22
0.0
 32
0.0
 13
1.0
 23
0.0
 33
0.0
 40
0.0
 40
0.0
 40
0.0
 40
0.0
 40
1.0
 40
1.0
 40
1.0
 40
2.0
 40
2.0
 40
2.0
 40
3.0
 40
3.0
 40
3.0
 40
4.0
 40
4.0
 40
4.0
 40
4.0
 10
185.6024574612886
 20
-155.1320702838747
 30
0.0
 10
184.9120603260445
 20
-155.1320702838747
 30
0.0
 10
184.3524045644657
 20
-154.5724145222958
 30
0.0
 10
184.3524045644657
 20
-153.8821035144364
 30
0.0
 10
184.3524045644657
 20
-153.1917063791923
 30
0.0
 10
184.9120603260445
 20
-152.6320506176134
 30
0.0
 10
185.6024574612886
 20
-152.6320506176134
 30
0.0
 10
186.2927684691506
 20
-152.6320506176134
 30
0.0
 10
186.8524242307295
 20
-153.1917063791923
 30
0.0
 10
186.8524242307295
 20
-153.8821035144364
 30
0.0
 10
186.8524242307295
 20
-154.5724145222958
 30
0.0
 10
186.2927684691506
 20
-155.1320702838747
 30
0.0
 10
185.6024574612886
 20
-155.1320702838747
 30
0.0
  0
SPLINE
  5
60
330
1F
100
AcDbEntity
  8
Layer 1
370
     0
100
AcDbSpline
210
0.0
220
0.0
230
1.0
 70
    11
 71
     3
 72
    23
 73
    19
 74
     0
 42
0.0000000001
 43
0.0000000001
 12
1.0
 22
0.0
 32
0.0
 13
1.0
 23
0.0
 33
0.0
 40
0.0
 40
0.0
 40
0.0
 40
0.0
 40
1.0
 40
1.0
 40
1.0
 40
2.0
 40
2.0
 40
2.0
 40
3.0
 40
3.0
 40
3.0
 40
4.0
 40
4.0
 40
4.0
 40
5.0
 40
5.0
 40
5.0
 40
6.0
 40
6.0
 40
6.0
 40
6.0
 10
135.4141517106684
 20
-97.76065431977956
 30
0.0
 10
135.4141517106684
 20
-97.76065431977956
 30
0.0
 10
144.2396250700072
 20
-97.76082657415533
 30
0.0
 10
144.2396250700072
 20
-97.76082657415533
 30
0.0
 10
145.1305267624928
 20
-97.7608265741162
 30
0.0
 10
145.5767527552673
 20
-98.83793567755838
 30
0.0
 10
144.9467309184292
 20
-99.46787138706455
 30
0.0
 10
144.9467309184292
 20
-99.46787138706455
 30
0.0
 10
140.5346832580596
 20
-103.8796606656731
 30
0.0
 10
140.5346832580596
 20
-103.8796606656731
 30
0.0
 10
140.1442678122097
 20
-104.2701622389442
 30
0.0
 10
139.5112315167951
 20
-104.2701622389724
 30
0.0
 10
139.1206438161388
 20
-103.8797467931257
 30
0.0
 10
139.1206438161388
 20
-103.8797467931257
 30
0.0
 10
134.7071319897838
 20
-99.46795751491562
 30
0.0
 10
134.7071319897838
 20
-99.46795751491562
 30
0.0
 10
134.0770240255033
 20
-98.83802180546593
 30
0.0
 10
134.5231638907976
 20
-97.76065431981871
 30
0.0
 10
135.4141517106684
 20
-97.76065431977956
 30
0.0
  0
SPLINE
  5
61
330
1F
100
AcDbEntity
  8
Layer 1
370
     0
100
AcDbSpline
210
0.0
220
0.0
230
1.0
 70
    11
 71
     3
 72
    23
 73
    19
 74
     0
 42
0.0000000001
 43
0.0000000001
 12
1.0
 22
0.0
 32
0.0
 13
1.0
 23
0.0
 33
0.0
 40
0.0
 40
0.0
 40
0.0
 40
0.0
 40
1.0
 40
1.0
 40
1.0
 40
2.0
 40
2.0
 40
2.0
 40
3.0
 40
3.0
 40
3.0
 40
4.0
 40
4.0
 40
4.0
 40
5.0
 40
5.0
 40
5.0
 40
6.0
 40
6.0
 40
6.0
 40
6.0
 10
139.1212467082139
 20
-112.093112812125
 30
0.0
 10
139.5117482814496
 20
-111.7026112388501
 30
0.0
 10
140.1447845768643
 20
-111.7026112388218
 30
0.0
 10
140.5352861501347
 20
-112.0929405572827
 30
0.0
 10
140.5352861501347
 20
-112.0929405572827
 30
0.0
 10
145.0897023818397
 20
-116.6457203682285
 30
0.0
 10
145.0897023818397
 20
-116.6457203682285
 30
0.0
 10
145.7198964735085
 20
-117.275569950286
 30
0.0
 10
145.2737566082187
 20
-118.3529374359338
 30
0.0
 10
144.382768788344
 20
-118.3529374359723
 30
0.0
 10
144.382768788344
 20
-118.3529374359723
 30
0.0
 10
135.2755727457009
 20
-118.352851308992
 30
0.0
 10
135.2755727457009
 20
-118.352851308992
 30
0.0
 10
134.3846710532153
 20
-118.3528513090344
 30
0.0
 10
133.9384450604369
 20
-117.275742205589
 30
0.0
 10
134.5684668972751
 20
-116.6457203686983
 30
0.0
 10
134.5684668972751
 20
-116.6457203686983
 30
0.0
 10
139.1212467082139
 20
-112.093112812125
 30
0.0
 10
139.1212467082139
 20
-112.093112812125
 30
0.0
  0
HATCH
  5
62
330
1F
100
AcDbEntity
  8
Layer 1
 62
     7
420
 16777215
100
AcDbHatch
 10
0.0
 20
0.0
 30
0.0
210
0.0
220
0.0
230
1.0
  2
SOLID
 70
     1
 71
     0
 91
       33
 92
        1
 93
        1
 72
     4
 94
        3
 73
     0
 74
     1
 95
      449
 96
      445
 40
0.0
 40
0.0
 40
0.0
 40
0.0
 40
1.0
 40
1.0
 40
1.0
 40
2.0
 40
2.0
 40
2.0
 40
3.0
 40
3.0
 40
3.0
 40
4.0
 40
4.0
 40
4.0
 40
5.0
 40
5.0
 40
5.0
 40
6.0
 40
6.0
 40
6.0
 40
7.0
 40
7.0
 40
7.0
 40
8.0
 40
8.0
 40
8.0
 40
9.0
 40
9.0
 40
9.0
 40
10.0
 40
10.0
 40
10.0
 40
11.0
 40
11.0
 40
11.0
 40
12.0
 40
12.0
 40
12.0
 40
13.0
 40
13.0
 40
13.0
 40
14.0
 40
14.0
 40
14.0
 40
15.0
 40
15.0
 40
15.0
 40
16.0
 40
16.0
 40
16.0
 40
17.0
 40
17.0
 40
17.0
 40
18.0
 40
18.0
 40
18.0
 40
19.0
 40
19.0
 40
19.0
 40
20.0
 40
20.0
 40
20.0
 40
21.0
 40
21.0
 40
21.0
 40
22.0
 40
22.0
 40
22.0
 40
23.0
 40
23.0
 40
23.0
 40
24.0
 40
24.0
 40
24.0
 40
25.0
 40
25.0
 40
25.0
 40
26.0
 40
26.0
 40
26.0
 40
27.0
 40
27.0
 40
27.0
 40
28.0
 40
28.0
 40
28.0
 40
29.0
 40
29.0
 40
29.0
 40
30.0
 40
30.0
 40
30.0
 40
31.0
 40
31.0
 40
31.0
 40
32.0
 40
32.0
 40
32.0
 40
33.0
 40
33.0
 40
33.0
 40
34.0
 40
34.0
 40
34.0
 40
35.0
 40
35.0
 40
35.0
 40
36.0
 40
36.0
 40
36.0
 40
37.0
 40
37.0
 40
37.0
 40
38.0
 40
38.0
 40
38.0
 40
39.0
 40
39.0
 40
39.0
 40
40.0
 40
40.0
 40
40.0
 40
41.0
 40
41.0
 40
41.0
 40
42.0
 40
42.0
 40
42.0
 40
43.0
 40
43.0
 40
43.0
 40
44.0
 40
44.0
 40
44.0
 40
45.0
 40
45.0
 40
45.0
 40
46.0
 40
46.0
 40
46.0
 40
47.0
 40
47.0
 40
47.0
 40
48.0
 40
48.0
 40
48.0
 40
49.0
 40
49.0
 40
49.0
 40
50.0
 40
50.0
 40
50.0
 40
51.0
 40
51.0
 40
51.0
 40
52.0
 40
52.0
 40
52.0
 40
53.0
 40
53.0
 40
53.0
 40
54.0
 40
54.0
 40
54.0
 40
55.0
 40
55.0
 40
55.0
 40
56.0
 40
56.0
 40
56.0
 40
57.0
 40
57.0
 40
57.0
 40
58.0
 40
58.0
 40
58.0
 40
59.0
 40
59.0
 40
59.0
 40
60.0
 40
60.0
 40
60.0
 40
61.0
 40
61.0
 40
61.0
 40
62.0
 40
62.0
 40
62.0
 40
63.0
 40
63.0
 40
63.0
 40
64.0
 40
64.0
 40
64.0
 40
65.0
 40
65.0
 40
65.0
 40
66.0
 40
66.0
 40
66.0
 40
67.0
 40
67.0
 40
67.0
 40
68.0
 40
68.0
 40
68.0
 40
69.0
 40
69.0
 40
69.0
 40
70.0
 40
70.0
 40
70.0
 40
71.0
 40
71.0
 40
71.0
 40
72.0
 40
72.0
 40
72.0
 40
73.0
 40
73.0
 40
73.0
 40
74.0
 40
74.0
 40
74.0
 40
75.0
 40
75.0
 40
75.0
 40
76.0
 40
76.0
 40
76.0
 40
77.0
 40
77.0
 40
77.0
 40
78.0
 40
78.0
 40
78.0
 40
79.0
 40
79.0
 40
79.0
 40
80.0
 40
80.0
 40
80.0
 40
81.0
 40
81.0
 40
81.0
 40
82.0
 40
82.0
 40
82.0
 40
83.0
 40
83.0
 40
83.0
 40
84.0
 40
84.0
 40
84.0
 40
85.0
 40
85.0
 40
85.0
 40
86.0
 40
86.0
 40
86.0
 40
87.0
 40
87.0
 40
87.0
 40
88.0
 40
88.0
 40
88.0
 40
89.0
 40
89.0
 40
89.0
 40
90.0
 40
90.0
 40
90.0
 40
91.0
 40
91.0
 40
91.0
 40
92.0
 40
92.0
 40
92.0
 40
93.0
 40
93.0
 40
93.0
 40
94.0
 40
94.0
 40
94.0
 40
95.0
 40
95.0
 40
95.0
 40
96.0
 40
96.0
 40
96.0
 40
97.0
 40
97.0
 40
97.0
 40
98.0
 40
98.0
 40
98.0
 40
99.0
 40
99.0
 40
99.0
 40
100.0
 40
100.0
 40
100.0
 40
101.0
 40
101.0
 40
101.0
 40
102.0
 40
102.0
 40
102.0
 40
103.0
 40
103.0
 40
103.0
 40
104.0
 40
104.0
 40
104.0
 40
105.0
 40
105.0
 40
105.0
 40
106.0
 40
106.0
 40
106.0
 40
107.0
 40
107.0
 40
107.0
 40
108.0
 40
108.0
 40
108.0
 40
109.0
 40
109.0
 40
109.0
 40
110.0
 40
110.0
 40
110.0
 40
111.0
 40
111.0
 40
111.0
 40
112.0
 40
112.0
 40
112.0
 40
113.0
 40
113.0
 40
113.0
 40
114.0
 40
114.0
 40
114.0
 40
115.0
 40
115.0
 40
115.0
 40
116.0
 40
116.0
 40
116.0
 40
117.0
 40
117.0
 40
117.0
 40
118.0
 40
118.0
 40
118.0
 40
119.0
 40
119.0
 40
119.0
 40
120.0
 40
120.0
 40
120.0
 40
121.0
 40
121.0
 40
121.0
 40
122.0
 40
122.0
 40
122.0
 40
123.0
 40
123.0
 40
123.0
 40
124.0
 40
124.0
 40
124.0
 40
125.0
 40
125.0
 40
125.0
 40
126.0
 40
126.0
 40
126.0
 40
127.0
 40
127.0
 40
127.0
 40
128.0
 40
128.0
 40
128.0
 40
129.0
 40
129.0
 40
129.0
 40
130.0
 40
130.0
 40
130.0
 40
131.0
 40
131.0
 40
131.0
 40
132.0
 40
132.0
 40
132.0
 40
133.0
 40
133.0
 40
133.0
 40
134.0
 40
134.0
 40
134.0
 40
135.0
 40
135.0
 40
135.0
 40
136.0
 40
136.0
 40
136.0
 40
137.0
 40
137.0
 40
137.0
 40
138.0
 40
138.0
 40
138.0
 40
139.0
 40
139.0
 40
139.0
 40
140.0
 40
140.0
 40
140.0
 40
141.0
 40
141.0
 40
141.0
 40
142.0
 40
142.0
 40
142.0
 40
143.0
 40
143.0
 40
143.0
 40
144.0
 40
144.0
 40
144.0
 40
145.0
 40
145.0
 40
145.0
 40
146.0
 40
146.0
 40
146.0
 40
147.0
 40
147.0
 40
147.0
 40
148.0
 40
148.0
 40
148.0
 40
148.0
 10
185.7479266181584
 20
-149.4312124022678
 10
184.8179230919152
 20
-148.5012088760246
 10
184.3201929216786
 20
-147.1799286300467
 10
184.5577322553866
 20
-145.8862952753354
 10
184.5889964969203
 20
-145.7156769214259
 10
184.6057913374058
 20
-145.5401493064524
 10
184.6066526112771
 20
-145.3608320864451
 10
184.6141456939627
 20
-143.9070879190594
 10
183.4972457376447
 20
-142.6858015695383
 10
182.1045658877324
 20
-142.4056291791978
 10
181.6615266083293
 20
-142.3164873335195
 10
181.2544024493548
 20
-142.0997047001076
 10
180.9349559704901
 20
-141.7800859664661
 10
180.9349559704901
 20
-141.7800859664661
 10
180.671836802799
 20
-141.5169667987776
 10
180.671836802799
 20
-141.5169667987776
 10
180.3524764513164
 20
-141.1975203199104
 10
180.1356076905199
 20
-140.7905684157127
 10
180.0465519722262
 20
-140.3477013910838
 10
179.7665518366676
 20
-138.954677031623
 10
178.5448348502058
 20
-137.8376048205308
 10
177.0908323006561
 20
-137.8453562853726
 10
176.9115150806488
 20
-137.8462175592439
 10
176.7359874656754
 20
-137.8630985271217
 10
176.5654552391555
 20
-137.8943627686529
 10
175.2723386487669
 20
-138.1318159749711
 10
173.9516612944964
 20
-137.6344303142907
 10
173.0220022778018
 20
-136.7046851702064
 10
173.0220022778018
 20
-136.7046851702064
 10
157.0630280793227
 20
-120.7451080800123
 10
157.0630280793227
 20
-120.7451080800123
 10
155.0001910301371
 20
-118.6822710308343
 10
153.8413470362913
 20
-115.8844228598733
 10
153.8413470362913
 20
-112.9671160029637
 10
153.8413470362913
 20
-112.9671160029637
 10
153.8413470362913
 20
-111.1836761976396
 10
153.8413470362913
 20
-111.1836761976396
 10
153.8413470362913
 20
-110.631427391354
 10
154.2890371945995
 20
-110.1837372330458
 10
154.841286000885
 20
-110.1837372330458
 10
154.841286000885
 20
-110.1837372330458
 10
155.3413416105691
 20
-110.1837372330458
 10
155.3413416105691
 20
-110.1837372330458
 10
155.8935904168546
 20
-110.1837372330458
 10
156.3412805751628
 20
-110.631427391354
 10
156.3412805751628
 20
-111.1836761976396
 10
156.3412805751628
 20
-111.1836761976396
 10
156.3412805751628
 20
-111.5131995808037
 10
156.3412805751628
 20
-111.5131995808037
 10
156.3412805751628
 20
-112.0655345144738
 10
156.789056860853
 20
-112.513224672782
 10
157.3413056671386
 20
-112.513224672782
 10
157.3413056671386
 20
-112.513224672782
 10
157.8412751494406
 20
-112.513224672782
 10
157.8412751494406
 20
-112.513224672782
 10
158.3935239557262
 20
-112.513224672782
 10
158.8412141140344
 20
-112.0655345144738
 10
158.8412141140344
 20
-111.5132857081883
 10
158.8412141140344
 20
-111.5132857081883
 10
158.8412141140344
 20
-110.1837372330458
 10
158.8412141140344
 20
-110.1837372330458
 10
158.8412141140344
 20
-110.1837372330458
 10
158.8412141140344
 20
-105.9516096841903
 10
158.8412141140344
 20
-105.9516096841903
 10
158.8412141140344
 20
-105.9516096841903
 10
158.8412141140344
 20
-104.6247311580463
 10
158.8412141140344
 20
-104.6247311580463
 10
158.8412141140344
 20
-104.0723962243717
 10
158.3934378283339
 20
-103.6247060660635
 10
157.8411890220484
 20
-103.6247060660635
 10
157.8411890220484
 20
-103.6247060660635
 10
157.3412195397566
 20
-103.6247060660635
 10
157.3412195397566
 20
-103.6247060660635
 10
156.788970733471
 20
-103.6247060660635
 10
156.3412805751628
 20
-104.0723962243717
 10
156.3412805751628
 20
-104.6246450306573
 10
156.3412805751628
 20
-104.6246450306573
 10
156.3412805751628
 20
-104.9515845922075
 10
156.3412805751628
 20
-104.9515845922075
 10
156.3412805751628
 20
-105.503833398493
 10
155.8935042894624
 20
-105.9516096841903
 10
155.3412554831768
 20
-105.9516096841903
 10
155.3412554831768
 20
-105.9516096841903
 10
154.841372128267
 20
-105.9516096841903
 10
154.841372128267
 20
-105.9516096841903
 10
154.2891233219815
 20
-105.9516096841903
 10
153.8413470362913
 20
-105.503833398493
 10
153.8413470362913
 20
-104.9515845922075
 10
153.8413470362913
 20
-104.9515845922075
 10
153.8413470362913
 20
-103.2188738179011
 10
153.8413470362913
 20
-103.2188738179011
 10
153.8413470362913
 20
-100.3021698527034
 10
154.9997603932065
 20
-97.50483844606569
 10
157.0617361685106
 20
-95.44208752427235
 10
157.0617361685106
 20
-95.44208752427235
 10
173.0576590160741
 20
-79.44048026915817
 10
173.0576590160741
 20
-79.44048026915817
 10
173.9831839181865
 20
-78.51461085749727
 10
175.2957652980666
 20
-78.0157610312331
 10
176.5847477738729
 20
-78.24434311667943
 10
176.7543325991394
 20
-78.27440157479016
 10
176.9288266854673
 20
-78.29007675924805
 10
177.1069381220547
 20
-78.29007675924805
 10
178.5521556781171
 20
-78.28999063185898
 10
179.7661211997268
 20
-77.17464096850935
 10
180.0462074626776
 20
-75.78919581911613
 10
180.1356938179121
 20
-75.34607041232779
 10
180.3520458143858
 20
-74.9387739985822
 10
180.6716645480248
 20
-74.61906913755102
 10
180.6716645480248
 20
-74.61906913755102
 10
180.9359894991357
 20
-74.35483031383237
 10
180.9359894991357
 20
-74.35483031383237
 10
181.2556082327746
 20
-74.03521158019024
 10
181.6629046465234
 20
-73.81885958371655
 10
182.1060300533085
 20
-73.72937322848526
 10
183.4917335848683
 20
-73.4493730929235
 10
184.6069971208256
 20
-72.23506306175814
 10
184.6067387386694
 20
-70.78950099614731
 10
184.6066526112771
 20
-70.61130343217468
 10
184.5909774268192
 20
-70.43672321845773
 10
184.5608328413233
 20
-70.26705226580917
 10
184.3317339915542
 20
-68.97712238874642
 10
184.8305838178184
 20
-67.6634213528316
 10
185.7567977390278
 20
-66.73686292207366
 10
185.7567977390278
 20
-66.73686292207366
 10
188.7887401482141
 20
-63.7038008568597
 10
188.7887401482141
 20
-63.7038008568597
 10
189.569657167328
 20
-62.9226254555793
 10
189.5693987851718
 20
-61.65638060997573
 10
188.7883095112734
 20
-60.87537746346958
 10
188.7883095112734
 20
-60.87537746346958
 10
187.0203726356354
 20
-59.10804347953642
 10
187.0203726356354
 20
-59.10804347953642
 10
186.2391111069628
 20
-58.32704033303028
 10
184.9727801339772
 20
-58.32721258780455
 10
184.191863114853
 20
-59.108474116474
 10
184.191863114853
 20
-59.108474116474
 10
181.1609542343225
 20
-62.14050265304238
 10
181.1609542343225
 20
-62.14050265304238
 10
180.2347403131131
 20
-63.06697495641127
 10
178.9208670224208
 20
-63.56582478267545
 10
177.6311094001355
 20
-63.3362952959726
 10
177.4613523200947
 20
-63.30615071047666
 10
177.2867721063848
 20
-63.29030327124452
 10
177.1084884150231
 20
-63.29021714385546
 10
175.6623234576972
 20
-63.2894419973732
 10
174.4475827895981
 20
-64.40487778810804
 10
174.1676687814216
 20
-65.79109808398738
 10
174.0781824261973
 20
-66.2341373633905
 10
173.8618304297237
 20
-66.64143377713224
 10
173.5422116960745
 20
-66.96096638338916
 10
173.5422116960745
 20
-66.96096638338916
 10
173.2779728723558
 20
-67.22529133449687
 10
173.2779728723558
 20
-67.22529133449687
 10
172.9583541387169
 20
-67.54499619552807
 10
172.5510577249681
 20
-67.76143431938696
 10
172.107932318183
 20
-67.85092067461825
 10
170.7212813853699
 20
-68.13092081018
 10
169.6056733398538
 20
-69.34617824260188
 10
169.6069652506659
 20
-70.79277383685829
 10
169.6071375054401
 20
-70.97122978299423
 10
169.6229849446723
 20
-71.1458961240964
 10
169.6533017849425
 20
-71.31565320413401
 10
169.8835202907391
 20
-72.60609984551955
 10
169.3848427192492
 20
-73.92083441007993
 10
168.458112033717
 20
-74.84790960516067
 10
168.458112033717
 20
-74.84790960516067
 10
152.4792424088055
 20
-90.83246363762287
 10
152.4792424088055
 20
-90.83246363762287
 10
150.4161469774636
 20
-92.89624808806178
 10
147.6176959147952
 20
-94.05569497362261
 10
144.6996139114066
 20
-94.05569497362261
 10
144.6996139114066
 20
-94.05569497362261
 10
134.9311317903627
 20
-94.05569497362261
 10
134.9311317903627
 20
-94.05569497362261
 10
132.0136526786788
 20
-94.05569497362261
 10
129.2157183803332
 20
-92.89667872499551
 10
127.1527952037656
 20
-90.8336694210427
 10
127.1527952037656
 20
-90.8336694210427
 10
111.1930458587972
 20
-74.87323105697726
 10
111.1930458587972
 20
-74.87323105697726
 10
110.2635590968768
 20
-73.94365816766779
 10
109.7659150540324
 20
-72.62323919556059
 10
110.0027653686434
 20
-71.33012260517206
 10
110.0340296101771
 20
-71.1596765060374
 10
110.0508244506626
 20
-70.98414889106392
 10
110.0516857245339
 20
-70.80500392583093
 10
110.0587481702787
 20
-69.35169039537828
 10
108.9419343413529
 20
-68.13074855540575
 10
107.5495990009892
 20
-67.85057616506973
 10
107.1065597215861
 20
-67.76143431938696
 10
106.6995216900038
 20
-67.54465168597955
 10
106.3799890837469
 20
-67.22511907972262
 10
106.3799890837469
 20
-67.22511907972262
 10
106.1168699160558
 20
-66.96191378464952
 10
106.1168699160558
 20
-66.96191378464952
 10
105.7973373097989
 20
-66.64246730577781
 10
105.5806408037767
 20
-66.23542927419554
 10
105.491498958101
 20
-65.79247612218147
 10
105.2114126951502
 20
-64.4000546544287
 10
103.9903847277853
 20
-63.28324082549975
 10
102.5370711973327
 20
-63.29021714385546
 10
102.3579262320997
 20
-63.29107841772677
 10
102.1823986171262
 20
-63.30778713083023
 10
102.0120386453806
 20
-63.3390513723608
 10
100.7189220549921
 20
-63.57590168697173
 10
99.3985892102701
 20
-63.07817151673833
 10
98.4691024483497
 20
-62.14868475481793
 10
98.4691024483497
 20
-62.14868475481793
 10
95.46592658647542
 20
-59.14542276555138
 10
95.46592658647542
 20
-59.14542276555138
 10
94.68492343996928
 20
-58.36441961904524
 10
93.41859246697344
 20
-58.36441961904524
 10
92.6375893204673
 20
-59.14542276555138
 10
92.6375893204673
 20
-59.14542276555138
 10
90.8699108269856
 20
-60.91310125903307
 10
90.8699108269856
 20
-60.91310125903307
 10
90.08882155309746
 20
-61.69419053292827
 10
90.08882155309746
 20
-62.96052150591705
 10
90.86982469960361
 20
-63.74152465242319
 10
90.86982469960361
 20
-63.74152465242319
 10
93.8931543700666
 20
-66.7650265776675
 10
93.8931543700666
 20
-66.7650265776675
 10
94.81661221488781
 20
-67.68857054987393
 10
95.3167539519641
 20
-68.99598428652624
 10
95.09514818487027
 20
-70.28298583243037
 10
95.0660371280199
 20
-70.45188163859282
 10
95.05122321743333
 20
-70.62568670582368
 10
95.05191223653038
 20
-70.80310912331404
 10
95.05802728102184
 20
-72.24126423363158
 10
96.1719127787851
 20
-73.44911471076018
 10
97.55132901107913
 20
-73.72902871893673
 10
97.99454054525653
 20
-73.81894571110175
 10
98.40218146855385
 20
-74.03486707064171
 10
98.72188632958503
 20
-74.3546580590581
 10
98.72188632958503
 20
-74.3546580590581
 10
98.98741706410553
 20
-74.6201026661966
 10
98.98741706410553
 20
-74.6201026661966
 10
99.30712192513671
 20
-74.93989365461684
 10
99.52304328467989
 20
-75.3474484505219
 10
99.6129602768449
 20
-75.79057385731024
 10
99.89287428502145
 20
-77.16999008960427
 10
101.1007247621501
 20
-78.2838755873746
 10
102.5387937450753
 20
-78.28999063185898
 10
102.7162161625657
 20
-78.2908519057303
 10
102.8899351024146
 20
-78.27595186775852
 10
103.0589170359661
 20
-78.24692693829337
 10
104.3458324544811
 20
-78.0253211712066
 10
105.6531600637412
 20
-78.52546290827581
 10
106.5765317811804
 20
-79.44892075309703
 10
106.5765317811804
 20
-79.44892075309703
 10
122.6196524368918
 20
-95.49273042790553
 10
122.6196524368918
 20
-95.49273042790553
 10
124.6824894860672
 20
-97.55565360447314
 10
125.8413334799232
 20
-100.3535017754336
 10
125.8413334799232
 20
-103.2708086323431
 10
125.8413334799232
 20
-103.2708086323431
 10
125.8413334799232
 20
-104.927641178585
 10
125.8413334799232
 20
-104.927641178585
 10
125.8413334799232
 20
-105.4798899848705
 10
125.393643321615
 20
-105.9275801431788
 10
124.8413945153295
 20
-105.9275801431788
 10
124.8413945153295
 20
-105.9275801431788
 10
124.3413389056455
 20
-105.9275801431788
 10
124.3413389056455
 20
-105.9275801431788
 10
123.7890900993599
 20
-105.9275801431788
 10
123.3413999410517
 20
-105.4798899848705
 10
123.3413999410517
 20
-104.927641178585
 10
123.3413999410517
 20
-104.927641178585
 10
123.3413999410517
 20
-104.5981177954208
 10
123.3413999410517
 20
-104.5981177954208
 10
123.3413999410517
 20
-104.0458689891353
 10
122.8937097827435
 20
-103.5981788308271
 10
122.3414609764579
 20
-103.5981788308271
 10
122.3414609764579
 20
-103.5981788308271
 10
121.8414053667739
 20
-103.5981788308271
 10
121.8414053667739
 20
-103.5981788308271
 10
121.2891565604884
 20
-103.5981788308271
 10
120.8414664021801
 20
-104.0458689891353
 10
120.8414664021801
 20
-104.5981177954208
 10
120.8414664021801
 20
-104.5981177954208
 10
120.8414664021801
 20
-105.9275801431788
 10
120.8414664021801
 20
-105.9275801431788
 10
120.8414664021801
 20
-105.9275801431788
 10
120.8414664021801
 20
-110.1597076920336
 10
120.8414664021801
 20
-110.1597076920336
 10
120.8414664021801
 20
-110.1597076920336
 10
120.8414664021801
 20
-111.4866723455673
 10
120.8414664021801
 20
-111.4866723455673
 10
120.8414664021801
 20
-112.0389211518528
 10
121.2891565604884
 20
-112.486611310161
 10
121.8414053667739
 20
-112.486611310161
 10
121.8414053667739
 20
-112.486611310161
 10
122.3412887216837
 20
-112.486611310161
 10
122.3412887216837
 20
-112.486611310161
 10
122.8936236553512
 20
-112.486611310161
 10
123.3413999410517
 20
-112.0388350244631
 10
123.3413999410517
 20
-111.486500090793
 10
123.3413999410517
 20
-111.486500090793
 10
123.3413999410517
 20
-111.1597327840171
 10
123.3413999410517
 20
-111.1597327840171
 10
123.3413999410517
 20
-110.6073978503418
 10
123.7891762267419
 20
-110.1597076920336
 10
124.3414250330274
 20
-110.1597076920336
 10
124.3414250330274
 20
-110.1597076920336
 10
124.8412222605552
 20
-110.1597076920336
 10
124.8412222605552
 20
-110.1597076920336
 10
125.3935571942228
 20
-110.1597076920336
 10
125.8413334799232
 20
-110.6074839777315
 10
125.8413334799232
 20
-111.1598189114016
 10
125.8413334799232
 20
-111.1598189114016
 10
125.8413334799232
 20
-112.9244829463363
 10
125.8413334799232
 20
-112.9244829463363
 10
125.8413334799232
 20
-115.8411869115334
 10
124.68300625039
 20
-118.638432190782
 10
122.6209443476937
 20
-120.701269239965
 10
122.6209443476937
 20
-120.701269239965
 10
106.626916302647
 20
-136.7009816925623
 10
106.626916302647
 20
-136.7009816925623
 10
105.698290814598
 20
-137.6299516901599
 10
104.3795943902366
 20
-138.1281124973271
 10
103.0872529463271
 20
-137.8933292400073
 10
102.9168929745815
 20
-137.8624095080246
 10
102.7416237417745
 20
-137.8458730496954
 10
102.5626510313158
 20
-137.845270157988
 10
101.1114906855363
 20
-137.8401025147602
 10
99.89244364808067
 20
-138.9565718341399
 10
99.61235738512985
 20
-140.3470123719868
 10
99.52312941206188
 20
-140.7900516513899
 10
99.30651903343193
 20
-141.1970896829722
 10
98.98698642717501
 20
-141.5166222892291
 10
98.98698642717501
 20
-141.5166222892291
 10
98.7234366225534
 20
-141.7802582212404
 10
98.7234366225534
 20
-141.7802582212404
 10
98.40390401629648
 20
-142.0997908274973
 10
97.99677985732194
 20
-142.3164873335195
 10
97.55374057791882
 20
-142.4057153065875
 10
96.16252489359293
 20
-142.6858015695383
 10
95.04596944682346
 20
-143.9057098808653
 10
95.05191223653038
 20
-145.3577315005084
 10
95.0526873830197
 20
-145.5367042109671
 10
95.0692238413489
 20
-145.7120595711663
 10
95.10031582809815
 20
-145.8824195429119
 10
95.33578810451496
 20
-147.1747609868189
 10
94.83814406167063
 20
-148.4939741755056
 10
93.90943244623953
 20
-149.4231164278775
 10
93.90943244623953
 20
-149.4231164278775
 10
90.86965244482934
 20
-152.4639299579332
 10
90.86965244482934
 20
-152.4639299579332
 10
90.08873542570521
 20
-153.2451053592137
 10
90.08899380787173
 20
-154.5113502048172
 10
90.87008308175987
 20
-155.2922672239388
 10
90.87008308175987
 20
-155.2922672239388
 10
92.63801995740809
 20
-157.0596873352565
 10
92.63801995740809
 20
-157.0596873352565
 10
93.41919535868848
 20
-157.8406043543781
 10
94.68552633167405
 20
-157.8404320996038
 10
95.4664433507982
 20
-157.0591705709337
 10
95.4664433507982
 20
-157.0591705709337
 10
98.52207079144054
 20
-154.0025096016458
 10
98.52207079144054
 20
-154.0025096016458
 10
99.44578701841802
 20
-153.0784488651173
 10
100.7542342837159
 20
-152.5784793828178
 10
102.0415803391718
 20
-152.8015493154877
 10
102.2106484001053
 20
-152.8308326271124
 10
102.3846257221104
 20
-152.8458187924732
 10
102.562134266993
 20
-152.8452159007658
 10
104.0017535428867
 20
-152.8403066396968
 10
105.2109820582094
 20
-151.7259905049927
 10
105.4908960663859
 20
-150.3452823618943
 10
105.5806408037767
 20
-149.9021569551015
 10
105.7967344180941
 20
-149.4946021591964
 10
106.1164392791253
 20
-149.1748972981652
 10
106.1164392791253
 20
-149.1748972981652
 10
106.3815393767153
 20
-148.9097972005752
 10
106.3815393767153
 20
-148.9097972005752
 10
106.7012442377465
 20
-148.5900062121595
 10
107.1087990336515
 20
-148.3739125978446
 10
107.5519244404366
 20
-148.2841678604539
 10
108.9329770930913
 20
-148.0042538522773
 10
110.0472071004031
 20
-146.7946808274061
 10
110.0516857245339
 20
-145.3545447871871
 10
110.0522024888567
 20
-145.1769501149225
 10
110.0371301961139
 20
-145.0028866655277
 10
110.007760757097
 20
-144.8338186045916
 10
109.7841740601043
 20
-143.545869657431
 10
110.2838851602397
 20
-142.2365611182618
 10
111.208032024158
 20
-141.312069744795
 10
111.208032024158
 20
-141.312069744795
 10
127.2354774954116
 20
-125.278853738601
 10
127.2354774954116
 20
-125.278853738601
 10
129.2985729267535
 20
-123.2150692881621
 10
132.0970239894219
 20
-122.0556224026013
 10
135.0151059928208
 20
-122.0556224026013
 10
135.0151059928208
 20
-122.0556224026013
 10
144.6250275941509
 20
-122.0556224026013
 10
144.6250275941509
 20
-122.0556224026013
 10
147.5425067058347
 20
-122.0556224026013
 10
150.3404410041804
 20
-123.214638651229
 10
152.403364180748
 20
-125.2776479551812
 10
152.403364180748
 20
-125.2776479551812
 10
168.447604492487
 20
-141.3224911586353
 10
168.447604492487
 20
-141.3224911586353
 10
169.3707178277597
 20
-142.2457767486822
 10
169.870945692218
 20
-143.5525875936272
 10
169.6499428168392
 20
-144.839330757368
 10
169.6209178873811
 20
-145.0082265635298
 10
169.6061901041765
 20
-145.1818593759864
 10
169.6070513780479
 20
-145.3591956660922
 10
169.6135970594698
 20
-146.7967478846973
 10
170.7273103024691
 20
-148.0040815975031
 10
172.1062097704404
 20
-148.2839956056796
 10
172.5494213046177
 20
-148.3739987252343
 10
172.9570622279048
 20
-148.5899200847698
 10
173.2768532163282
 20
-148.9097110731907
 10
173.2768532163282
 20
-148.9097110731907
 10
173.542470078241
 20
-149.175414062488
 10
173.542470078241
 20
-149.175414062488
 10
173.8622610666542
 20
-149.4951189235192
 10
174.0780962988051
 20
-149.902759846814
 10
174.1680132909701
 20
-150.3458852536016
 10
174.4479272991467
 20
-151.7247847215729
 10
175.6552610119525
 20
-152.8384979645696
 10
177.0928132305652
 20
-152.8451297733761
 10
177.2700633932813
 20
-152.8459910472475
 10
177.4437823331199
 20
-152.8312632640506
 10
177.6125920118972
 20
-152.8022383345848
 10
178.899249048256
 20
-152.5813215865957
 10
180.2060598931932
 20
-153.081549451054
 10
181.1291732284659
 20
-154.0047489137112
 10
181.1291732284659
 20
-154.0047489137112
 10
184.1882457645935
 20
-157.0639075772285
 10
184.1882457645935
 20
-157.0639075772285
 10
184.9692489110997
 20
-157.8449968511192
 10
186.2356660114775
 20
-157.8449968511192
 10
187.0167552853759
 20
-157.0639075772285
 10
187.0167552853759
 20
-157.0639075772285
 10
188.7843476514653
 20
-155.2963152111314
 10
188.7843476514653
 20
-155.2963152111314
 10
189.5654369253637
 20
-154.5152259372407
 10
189.5654369253637
 20
-153.2488949642474
 10
188.7843476514653
 20
-152.4678056903567
 10
188.7843476514653
 20
-152.4678056903567
 10
185.7479266181584
 20
-149.4312124022678
 10
185.7479266181584
 20
-149.4312124022678
 97
        0
 97
        0
 92
        1
 93
        1
 72
     4
 94
        3
 73
     0
 74
     1
 95
       17
 96
       13
 40
0.0
 40
0.0
 40
0.0
 40
0.0
 40
1.0
 40
1.0
 40
1.0
 40
2.0
 40
2.0
 40
2.0
 40
3.0
 40
3.0
 40
3.0
 40
4.0
 40
4.0
 40
4.0
 40
4.0
 10
185.6067638306451
 20
-61.04022528243879
 10
186.2970748385072
 20
-61.04022528243879
 10
186.8567306000861
 20
-61.59988104401763
 10
186.8567306000861
 20
-62.2902781792617
 10
186.8567306000861
 20
-62.98058918712056
 10
186.2970748385072
 20
-63.54024494869939
 10
185.6067638306451
 20
-63.54024494869939
 10
184.9163666954011
 20
-63.54024494869939
 10
184.3567109338222
 20
-62.98058918712056
 10
184.3567109338222
 20
-62.2902781792617
 10
184.3567109338222
 20
-61.59988104401763
 10
184.9163666954011
 20
-61.04022528243879
 10
185.6067638306451
 20
-61.04022528243879
 97
        0
 97
        0
 92
        1
 93
        1
 72
     4
 94
        3
 73
     0
 74
     1
 95
       17
 96
       13
 40
0.0
 40
0.0
 40
0.0
 40
0.0
 40
1.0
 40
1.0
 40
1.0
 40
2.0
 40
2.0
 40
2.0
 40
3.0
 40
3.0
 40
3.0
 40
4.0
 40
4.0
 40
4.0
 40
4.0
 10
181.6433537296395
 20
-69.79007879587633
 10
182.195602535925
 20
-69.79007879587633
 10
182.6432926942332
 20
-70.2378550815736
 10
182.6432926942332
 20
-70.79010388785915
 10
182.6432926942332
 20
-71.34243882152991
 10
182.195602535925
 20
-71.79012897983812
 10
181.6433537296395
 20
-71.79012897983812
 10
181.0911049233539
 20
-71.79012897983812
 10
180.6433286376637
 20
-71.34243882152991
 10
180.6433286376637
 20
-70.79010388785915
 10
180.6433286376637
 20
-70.2378550815736
 10
181.0910187959719
 20
-69.79007879587633
 10
181.6433537296395
 20
-69.79007879587633
 97
        0
 97
        0
 92
        1
 93
        1
 72
     4
 94
        3
 73
     0
 74
     1
 95
       17
 96
       13
 40
0.0
 40
0.0
 40
0.0
 40
0.0
 40
1.0
 40
1.0
 40
1.0
 40
2.0
 40
2.0
 40
2.0
 40
3.0
 40
3.0
 40
3.0
 40
4.0
 40
4.0
 40
4.0
 40
4.0
 10
177.1433700068061
 20
-76.29011270267146
 10
176.5911212005206
 20
-76.29011270267146
 10
176.1434310422124
 20
-75.84242254436325
 10
176.1434310422124
 20
-75.2901737380777
 10
176.1434310422124
 20
-74.73792493179215
 10
176.5911212005206
 20
-74.29014864609873
 10
177.1433700068061
 20
-74.29014864609873
 10
177.6957049404839
 20
-74.29014864609873
 10
178.1433950987922
 20
-74.73783880440693
 10
178.1433950987922
 20
-75.2901737380777
 10
178.1433950987922
 20
-75.84242254436325
 10
177.6957049404839
 20
-76.29011270267146
 10
177.1433700068061
 20
-76.29011270267146
 97
        0
 97
        0
 92
        1
 93
        1
 72
     4
 94
        3
 73
     0
 74
     1
 95
       17
 96
       13
 40
0.0
 40
0.0
 40
0.0
 40
0.0
 40
1.0
 40
1.0
 40
1.0
 40
2.0
 40
2.0
 40
2.0
 40
3.0
 40
3.0
 40
3.0
 40
4.0
 40
4.0
 40
4.0
 40
4.0
 10
177.1433700068061
 20
-65.29018120043204
 10
177.6956188130917
 20
-65.29018120043204
 10
178.1433089713999
 20
-65.73787135874026
 10
178.1433089713999
 20
-66.29012016502581
 10
178.1433089713999
 20
-66.84245509869656
 10
177.6956188130917
 20
-67.29014525700478
 10
177.1433700068061
 20
-67.29014525700478
 10
176.5910350731386
 20
-67.29014525700478
 10
176.1433449148304
 20
-66.84245509869656
 10
176.1433449148304
 20
-66.29020629241101
 10
176.1433449148304
 20
-65.73787135874026
 10
176.5910350731386
 20
-65.29018120043204
 10
177.1433700068061
 20
-65.29018120043204
 97
        0
 97
        0
 92
        1
 93
        1
 72
     4
 94
        3
 73
     0
 74
     1
 95
       17
 96
       13
 40
0.0
 40
0.0
 40
0.0
 40
0.0
 40
1.0
 40
1.0
 40
1.0
 40
2.0
 40
2.0
 40
2.0
 40
3.0
 40
3.0
 40
3.0
 40
4.0
 40
4.0
 40
4.0
 40
4.0
 10
175.3755192585502
 20
-69.02242539437746
 10
176.35185931907
 20
-68.04608533385765
 10
177.9347945671603
 20
-68.04608533385765
 10
178.9110485002878
 20
-69.0223392669884
 10
179.8873885608076
 20
-69.9986793275082
 10
179.8873885608076
 20
-71.5816145755953
 10
178.9111346276801
 20
-72.55786850872605
 10
177.9347945671603
 20
-73.53420856924585
 10
176.35185931907
 20
-73.53420856924585
 10
175.3756053859424
 20
-72.5579546361151
 10
174.3992653254226
 20
-71.5816145755953
 10
174.3992653254226
 20
-69.9986793275082
 10
175.3755192585502
 20
-69.02242539437746
 97
        0
 97
        0
 92
        1
 93
        1
 72
     4
 94
        3
 73
     0
 74
     1
 95
       17
 96
       13
 40
0.0
 40
0.0
 40
0.0
 40
0.0
 40
1.0
 40
1.0
 40
1.0
 40
2.0
 40
2.0
 40
2.0
 40
3.0
 40
3.0
 40
3.0
 40
4.0
 40
4.0
 40
4.0
 40
4.0
 10
172.6433862839728
 20
-69.79016492326538
 10
173.1956350902583
 20
-69.79016492326538
 10
173.6433252485666
 20
-70.2379412089588
 10
173.6433252485666
 20
-70.79019001524435
 10
173.6433252485666
 20
-71.34243882152991
 10
173.1956350902583
 20
-71.79012897983812
 10
172.6433862839728
 20
-71.79021510722718
 10
172.0910513503052
 20
-71.79021510722718
 10
171.643361191997
 20
-71.34243882152991
 10
171.643361191997
 20
-70.79019001524435
 10
171.643361191997
 20
-70.2379412089588
 10
172.0910513503052
 20
-69.79016492326538
 10
172.6433862839728
 20
-69.79016492326538
 97
        0
 97
        0
 92
        1
 93
        1
 72
     4
 94
        3
 73
     0
 74
     1
 95
       17
 96
       13
 40
0.0
 40
0.0
 40
0.0
 40
0.0
 40
1.0
 40
1.0
 40
1.0
 40
2.0
 40
2.0
 40
2.0
 40
3.0
 40
3.0
 40
3.0
 40
4.0
 40
4.0
 40
4.0
 40
4.0
 10
94.05180101716235
 20
-63.57719359777677
 10
93.36149000931056
 20
-63.57719359777677
 10
92.80183424773172
 20
-63.01753783619794
 10
92.80183424773172
 20
-62.32722682834292
 10
92.80183424773172
 20
-61.63691582048406
 10
93.36149000931056
 20
-61.07726005890522
 10
94.05180101716235
 20
-61.07726005890522
 10
94.74219815240642
 20
-61.07726005890522
 10
95.30185391398525
 20
-61.63691582048406
 10
95.30185391398525
 20
-62.32722682834292
 10
95.30185391398525
 20
-63.01753783619794
 10
94.74219815240642
 20
-63.57719359777677
 10
94.05180101716235
 20
-63.57719359777677
 97
        0
 97
        0
 92
        1
 93
        1
 72
     4
 94
        3
 73
     0
 74
     1
 95
       17
 96
       13
 40
0.0
 40
0.0
 40
0.0
 40
0.0
 40
1.0
 40
1.0
 40
1.0
 40
2.0
 40
2.0
 40
2.0
 40
3.0
 40
3.0
 40
3.0
 40
4.0
 40
4.0
 40
4.0
 40
4.0
 10
98.05172913031167
 20
-71.79021510722718
 10
97.49948032402612
 20
-71.79021510722718
 10
97.05179016571792
 20
-71.34243882152991
 10
97.05179016571792
 20
-70.79019001524435
 10
97.05179016571792
 20
-70.2379412089588
 10
97.49948032402612
 20
-69.79016492326538
 10
98.05172913031167
 20
-69.79016492326538
 10
98.6040640639895
 20
-69.79016492326538
 10
99.0517542222977
 20
-70.2379412089588
 10
99.0517542222977
 20
-70.79019001524435
 10
99.0517542222977
 20
-71.34243882152991
 10
98.6040640639895
 20
-71.79012897983812
 10
98.05172913031167
 20
-71.79021510722718
 97
        0
 97
        0
 92
        1
 93
        1
 72
     4
 94
        3
 73
     0
 74
     1
 95
       17
 96
       13
 40
0.0
 40
0.0
 40
0.0
 40
0.0
 40
1.0
 40
1.0
 40
1.0
 40
2.0
 40
2.0
 40
2.0
 40
3.0
 40
3.0
 40
3.0
 40
4.0
 40
4.0
 40
4.0
 40
4.0
 10
102.551712853145
 20
-65.29018120043204
 10
103.1040477868228
 20
-65.29018120043204
 10
103.551737945131
 20
-65.73787135874026
 10
103.551824072513
 20
-66.29012016502581
 10
103.551824072513
 20
-66.84245509869656
 10
103.1040477868228
 20
-67.29014525700478
 10
102.5517989805373
 20
-67.29014525700478
 10
101.9994640468595
 20
-67.29014525700478
 10
101.5517738885513
 20
-66.84245509869656
 10
101.5517738885513
 20
-66.29020629241101
 10
101.5517738885513
 20
-65.73787135874026
 10
101.9994640468595
 20
-65.29018120043204
 10
102.551712853145
 20
-65.29018120043204
 97
        0
 97
        0
 92
        1
 93
        1
 72
     4
 94
        3
 73
     0
 74
     1
 95
       17
 96
       13
 40
0.0
 40
0.0
 40
0.0
 40
0.0
 40
1.0
 40
1.0
 40
1.0
 40
2.0
 40
2.0
 40
2.0
 40
3.0
 40
3.0
 40
3.0
 40
4.0
 40
4.0
 40
4.0
 40
4.0
 10
102.5518851079193
 20
-76.29011270267146
 10
101.9995501742517
 20
-76.29011270267146
 10
101.5518600159435
 20
-75.84242254436325
 10
101.5518600159435
 20
-75.2901737380777
 10
101.5518600159435
 20
-74.73792493179215
 10
101.9995501742517
 20
-74.29014864609873
 10
102.5517989805373
 20
-74.29014864609873
 10
103.1041339142048
 20
-74.29014864609873
 10
103.551824072513
 20
-74.73783880440693
 10
103.551824072513
 20
-75.2901737380777
 10
103.551824072513
 20
-75.84242254436325
 10
103.1041339142048
 20
-76.29011270267146
 10
102.5518851079193
 20
-76.29011270267146
 97
        0
 97
        0
 92
        1
 93
        1
 72
     4
 94
        3
 73
     0
 74
     1
 95
       17
 96
       13
 40
0.0
 40
0.0
 40
0.0
 40
0.0
 40
1.0
 40
1.0
 40
1.0
 40
2.0
 40
2.0
 40
2.0
 40
3.0
 40
3.0
 40
3.0
 40
4.0
 40
4.0
 40
4.0
 40
4.0
 10
104.319563601401
 20
-72.55786850872605
 10
103.3432235408812
 20
-73.53420856924585
 10
101.7603744201831
 20
-73.53420856924585
 10
100.7840343596633
 20
-72.5579546361151
 10
99.80769429914352
 20
-71.5816145755953
 10
99.80769429914352
 20
-69.9986793275082
 10
100.7840343596633
 20
-69.02242539437746
 10
101.7602882928011
 20
-68.04608533385765
 10
103.3432235408812
 20
-68.04608533385765
 10
104.319563601401
 20
-69.0223392669884
 10
105.2958175345388
 20
-69.9986793275082
 10
105.2959036619208
 20
-71.5816145755953
 10
104.319563601401
 20
-72.55786850872605
 97
        0
 97
        0
 92
        1
 93
        1
 72
     4
 94
        3
 73
     0
 74
     1
 95
       17
 96
       13
 40
0.0
 40
0.0
 40
0.0
 40
0.0
 40
1.0
 40
1.0
 40
1.0
 40
2.0
 40
2.0
 40
2.0
 40
3.0
 40
3.0
 40
3.0
 40
4.0
 40
4.0
 40
4.0
 40
4.0
 10
107.0517827033706
 20
-71.79012897983812
 10
106.4994477696928
 20
-71.79012897983812
 10
106.0517576113846
 20
-71.34243882152991
 10
106.0517576113846
 20
-70.79010388785915
 10
106.0517576113846
 20
-70.2378550815736
 10
106.4994477696928
 20
-69.79007879587633
 10
107.0517827033706
 20
-69.79007879587633
 10
107.6040315096562
 20
-69.79007879587633
 10
108.0518077953464
 20
-70.2378550815736
 10
108.0518077953464
 20
-70.79010388785915
 10
108.0518077953464
 20
-71.34243882152991
 10
107.6040315096562
 20
-71.79012897983812
 10
107.0517827033706
 20
-71.79012897983812
 97
        0
 97
        0
 92
        1
 93
        1
 72
     4
 94
        3
 73
     0
 74
     1
 95
       17
 96
       13
 40
0.0
 40
0.0
 40
0.0
 40
0.0
 40
1.0
 40
1.0
 40
1.0
 40
2.0
 40
2.0
 40
2.0
 40
3.0
 40
3.0
 40
3.0
 40
4.0
 40
4.0
 40
4.0
 40
4.0
 10
94.05180101716235
 20
-155.1275916597438
 10
93.36149000931056
 20
-155.1275916597438
 10
92.80183424773172
 20
-154.567935898165
 10
92.80183424773172
 20
-153.8776248903055
 10
92.80183424773172
 20
-153.1872277550615
 10
93.36149000931056
 20
-152.6275719934826
 10
94.05180101716235
 20
-152.6275719934826
 10
94.74219815240642
 20
-152.6275719934826
 10
95.30185391398525
 20
-153.1872277550615
 10
95.30185391398525
 20
-153.8776248903055
 10
95.30185391398525
 20
-154.567935898165
 10
94.74219815240642
 20
-155.1275916597438
 10
94.05180101716235
 20
-155.1275916597438
 97
        0
 97
        0
 92
        1
 93
        1
 72
     4
 94
        3
 73
     0
 74
     1
 95
       17
 96
       13
 40
0.0
 40
0.0
 40
0.0
 40
0.0
 40
1.0
 40
1.0
 40
1.0
 40
2.0
 40
2.0
 40
2.0
 40
3.0
 40
3.0
 40
3.0
 40
4.0
 40
4.0
 40
4.0
 40
4.0
 10
98.05172913031167
 20
-146.3452681213553
 10
97.49948032402612
 20
-146.3452681213553
 10
97.05179016571792
 20
-145.897577963047
 10
97.05179016571792
 20
-145.3452430293769
 10
97.05179016571792
 20
-144.7929942230914
 10
97.49948032402612
 20
-144.3452179373935
 10
98.05172913031167
 20
-144.3452179373935
 10
98.6040640639895
 20
-144.3452179373935
 10
99.0517542222977
 20
-144.7929080957017
 10
99.0517542222977
 20
-145.3452430293769
 10
99.0517542222977
 20
-145.897577963047
 10
98.6040640639895
 20
-146.3452681213553
 10
98.05172913031167
 20
-146.3452681213553
 97
        0
 97
        0
 92
        1
 93
        1
 72
     4
 94
        3
 73
     0
 74
     1
 95
       17
 96
       13
 40
0.0
 40
0.0
 40
0.0
 40
0.0
 40
1.0
 40
1.0
 40
1.0
 40
2.0
 40
2.0
 40
2.0
 40
3.0
 40
3.0
 40
3.0
 40
4.0
 40
4.0
 40
4.0
 40
4.0
 10
102.551712853145
 20
-139.8452342145602
 10
103.1040477868228
 20
-139.8452342145602
 10
103.551737945131
 20
-140.2929243728684
 10
103.551824072513
 20
-140.8451731791539
 10
103.551824072513
 20
-141.3975081128291
 10
103.1040477868228
 20
-141.8451982711374
 10
102.5517989805373
 20
-141.8451982711374
 10
101.9994640468595
 20
-141.8451982711374
 10
101.5517738885513
 20
-141.3975081128291
 10
101.5517738885513
 20
-140.8452593065436
 10
101.5517738885513
 20
-140.2929243728684
 10
101.9994640468595
 20
-139.8452342145602
 10
102.551712853145
 20
-139.8452342145602
 97
        0
 97
        0
 92
        1
 93
        1
 72
     4
 94
        3
 73
     0
 74
     1
 95
       17
 96
       13
 40
0.0
 40
0.0
 40
0.0
 40
0.0
 40
1.0
 40
1.0
 40
1.0
 40
2.0
 40
2.0
 40
2.0
 40
3.0
 40
3.0
 40
3.0
 40
4.0
 40
4.0
 40
4.0
 40
4.0
 10
102.5518851079193
 20
-150.8452518441886
 10
101.9995501742517
 20
-150.8452518441886
 10
101.5518600159435
 20
-150.3975616858804
 10
101.5518600159435
 20
-149.8452267522103
 10
101.5518600159435
 20
-149.292891818535
 10
101.9995501742517
 20
-148.8452016602268
 10
102.5517989805373
 20
-148.8452016602268
 10
103.1041339142048
 20
-148.8452016602268
 10
103.551824072513
 20
-149.292891818535
 10
103.551824072513
 20
-149.8452267522103
 10
103.551824072513
 20
-150.3974755584958
 10
103.1041339142048
 20
-150.8452518441886
 10
102.5518851079193
 20
-150.8452518441886
 97
        0
 97
        0
 92
        1
 93
        1
 72
     4
 94
        3
 73
     0
 74
     1
 95
       17
 96
       13
 40
0.0
 40
0.0
 40
0.0
 40
0.0
 40
1.0
 40
1.0
 40
1.0
 40
2.0
 40
2.0
 40
2.0
 40
3.0
 40
3.0
 40
3.0
 40
4.0
 40
4.0
 40
4.0
 40
4.0
 10
104.319563601401
 20
-147.1130076502432
 10
103.3432235408812
 20
-148.0892615833784
 10
101.7603744201831
 20
-148.089347710763
 10
100.7840343596633
 20
-147.1130076502432
 10
99.80769429914352
 20
-146.1366675897234
 10
99.80769429914352
 20
-144.5538184690253
 10
100.7840343596633
 20
-143.5774784085056
 10
101.7602882928011
 20
-142.6011383479857
 10
103.3432235408812
 20
-142.6011383479857
 10
104.319563601401
 20
-143.5774784085056
 10
105.2958175345388
 20
-144.5537323416408
 10
105.2959036619208
 20
-146.1366675897234
 10
104.319563601401
 20
-147.1130076502432
 97
        0
 97
        0
 92
        1
 93
        1
 72
     4
 94
        3
 73
     0
 74
     1
 95
       17
 96
       13
 40
0.0
 40
0.0
 40
0.0
 40
0.0
 40
1.0
 40
1.0
 40
1.0
 40
2.0
 40
2.0
 40
2.0
 40
3.0
 40
3.0
 40
3.0
 40
4.0
 40
4.0
 40
4.0
 40
4.0
 10
107.0517827033706
 20
-146.3451819939707
 10
106.4994477696928
 20
-146.3451819939707
 10
106.0517576113846
 20
-145.8974918356625
 10
106.0517576113846
 20
-145.3451569019873
 10
106.0517576113846
 20
-144.7929080957017
 10
106.4994477696928
 20
-144.3452179373935
 10
107.0517827033706
 20
-144.3452179373935
 10
107.6040315096562
 20
-144.3452179373935
 10
108.0518077953464
 20
-144.7929080957017
 10
108.0518077953464
 20
-145.3451569019873
 10
108.0518077953464
 20
-145.8974918356625
 10
107.6040315096562
 20
-146.3451819939707
 10
107.0517827033706
 20
-146.3451819939707
 97
        0
 97
        0
 92
        1
 93
        1
 72
     4
 94
        3
 73
     0
 74
     1
 95
       17
 96
       13
 40
0.0
 40
0.0
 40
0.0
 40
0.0
 40
1.0
 40
1.0
 40
1.0
 40
2.0
 40
2.0
 40
2.0
 40
3.0
 40
3.0
 40
3.0
 40
4.0
 40
4.0
 40
4.0
 40
4.0
 10
129.8413563327862
 20
-96.55566615083956
 10
130.6697230256623
 20
-96.55566615083956
 10
131.3413046563885
 20
-97.22724778156642
 10
131.3413046563885
 20
-98.05571782648914
 10
131.3413046563885
 20
-98.88408451936266
 10
130.6697230256623
 20
-99.55566615008952
 10
129.8413563327862
 20
-99.55566615008952
 10
129.0128862878648
 20
-99.55566615008952
 10
128.3413046571386
 20
-98.88408451936266
 10
128.3413046571386
 20
-98.05571782648914
 10
128.3413046571386
 20
-97.22724778156642
 10
129.0128862878648
 20
-96.55566615083956
 10
129.8413563327862
 20
-96.55566615083956
 97
        0
 97
        0
 92
        1
 93
        1
 72
     4
 94
        3
 73
     0
 74
     1
 95
       17
 96
       13
 40
0.0
 40
0.0
 40
0.0
 40
0.0
 40
1.0
 40
1.0
 40
1.0
 40
2.0
 40
2.0
 40
2.0
 40
3.0
 40
3.0
 40
3.0
 40
4.0
 40
4.0
 40
4.0
 40
4.0
 10
129.8413563327862
 20
-119.5556512253847
 10
129.0128862878638
 20
-119.5556512253847
 10
128.341304657137
 20
-118.8840695946578
 10
128.341304657137
 20
-118.055702901784
 10
128.341304657137
 20
-117.2272328568616
 10
129.0128862878638
 20
-116.5556512261347
 10
129.8413563327862
 20
-116.5556512261347
 10
130.6697230256633
 20
-116.5556512261347
 10
131.3413046563902
 20
-117.2272328568616
 10
131.3413046563902
 20
-118.055702901784
 10
131.3413046563902
 20
-118.8840695946578
 10
130.6697230256633
 20
-119.5556512253847
 10
129.8413563327862
 20
-119.5556512253847
 97
        0
 97
        0
 92
        1
 93
        1
 72
     4
 94
        3
 73
     0
 74
     1
 95
       23
 96
       19
 40
0.0
 40
0.0
 40
0.0
 40
0.0
 40
1.0
 40
1.0
 40
1.0
 40
2.0
 40
2.0
 40
2.0
 40
3.0
 40
3.0
 40
3.0
 40
4.0
 40
4.0
 40
4.0
 40
5.0
 40
5.0
 40
5.0
 40
6.0
 40
6.0
 40
6.0
 40
6.0
 10
129.5330116745247
 20
-112.4717973995745
 10
129.5330116745247
 20
-112.4717973995745
 10
129.533183929299
 20
-103.6463240402354
 10
129.533183929299
 20
-103.6463240402354
 10
129.533183929299
 20
-102.7554223477498
 10
130.6102930327623
 20
-102.3091963550209
 10
131.2402287422402
 20
-102.9392181918878
 10
131.2402287422402
 20
-102.9392181918878
 10
135.6520180206512
 20
-107.3512658524583
 10
135.6520180206512
 20
-107.3512658524583
 10
136.0425195939042
 20
-107.7416812983261
 10
136.0425195939042
 20
-108.3747175937411
 10
135.6521041480435
 20
-108.7653052943787
 10
135.6521041480435
 20
-108.7653052943787
 10
131.2403148696325
 20
-113.1788171205323
 10
131.2403148696325
 20
-113.1788171205323
 10
130.6103791601546
 20
-113.8089250847845
 10
129.5330116745247
 20
-113.3627852194446
 10
129.5330116745247
 20
-112.4717973995745
 97
        0
 97
        0
 92
        1
 93
        1
 72
     4
 94
        3
 73
     0
 74
     1
 95
       23
 96
       19
 40
0.0
 40
0.0
 40
0.0
 40
0.0
 40
1.0
 40
1.0
 40
1.0
 40
2.0
 40
2.0
 40
2.0
 40
3.0
 40
3.0
 40
3.0
 40
4.0
 40
4.0
 40
4.0
 40
5.0
 40
5.0
 40
5.0
 40
6.0
 40
6.0
 40
6.0
 40
6.0
 10
143.8654701670353
 20
-108.7647024026714
 10
143.4749685937823
 20
-108.3742008294183
 10
143.4749685937823
 20
-107.7411645340033
 10
143.8652979122611
 20
-107.3506629607503
 10
143.8652979122611
 20
-107.3506629607503
 10
148.418077723411
 20
-102.79624672925
 10
148.418077723411
 20
-102.79624672925
 10
149.0479273054967
 20
-102.1660526376087
 10
150.1252947911265
 20
-102.6121925029486
 10
150.1252947911265
 20
-103.5031803228232
 10
150.1252947911265
 20
-103.5031803228232
 10
150.1252086637343
 20
-112.6103763654661
 10
150.1252086637343
 20
-112.6103763654661
 10
150.1252086637343
 20
-113.5012780579517
 10
149.0480995602709
 20
-113.9475040506812
 10
148.418077723411
 20
-113.3174822138136
 10
148.418077723411
 20
-113.3174822138136
 10
143.8654701670353
 20
-108.7647024026714
 10
143.8654701670353
 20
-108.7647024026714
 97
        0
 97
        0
 92
        1
 93
        1
 72
     4
 94
        3
 73
     0
 74
     1
 95
       17
 96
       13
 40
0.0
 40
0.0
 40
0.0
 40
0.0
 40
1.0
 40
1.0
 40
1.0
 40
2.0
 40
2.0
 40
2.0
 40
3.0
 40
3.0
 40
3.0
 40
4.0
 40
4.0
 40
4.0
 40
4.0
 10
149.8413414080811
 20
-119.5556512253847
 10
149.0128713631587
 20
-119.5556512253847
 10
148.3412897324324
 20
-118.8840695946578
 10
148.3412897324324
 20
-118.055702901784
 10
148.3412897324324
 20
-117.2272328568616
 10
149.0128713631587
 20
-116.5556512261347
 10
149.8413414080811
 20
-116.5556512261347
 10
150.6698114530041
 20
-116.5556512261347
 10
151.341289731685
 20
-117.2272328568616
 10
151.341289731685
 20
-118.055702901784
 10
151.341289731685
 20
-118.8840695946578
 10
150.6698114530041
 20
-119.5556512253847
 10
149.8413414080811
 20
-119.5556512253847
 97
        0
 97
        0
 92
        1
 93
        1
 72
     4
 94
        3
 73
     0
 74
     1
 95
       17
 96
       13
 40
0.0
 40
0.0
 40
0.0
 40
0.0
 40
1.0
 40
1.0
 40
1.0
 40
2.0
 40
2.0
 40
2.0
 40
3.0
 40
3.0
 40
3.0
 40
4.0
 40
4.0
 40
4.0
 40
4.0
 10
149.8413414080811
 20
-99.55566615008952
 10
149.0128713631587
 20
-99.55566615008952
 10
148.3412897324318
 20
-98.88408451936266
 10
148.3412897324318
 20
-98.05571782648914
 10
148.3412897324318
 20
-97.22724778156642
 10
149.0128713631587
 20
-96.55566615083956
 10
149.8413414080811
 20
-96.55566615083956
 10
150.6698114530041
 20
-96.55566615083956
 10
151.3412897316856
 20
-97.22724778156642
 10
151.3412897316856
 20
-98.05571782648914
 10
151.3412897316856
 20
-98.88408451936266
 10
150.6698114530041
 20
-99.55566615008952
 10
149.8413414080811
 20
-99.55566615008952
 97
        0
 97
        0
 92
        1
 93
        1
 72
     4
 94
        3
 73
     0
 74
     1
 95
       17
 96
       13
 40
0.0
 40
0.0
 40
0.0
 40
0.0
 40
1.0
 40
1.0
 40
1.0
 40
2.0
 40
2.0
 40
2.0
 40
3.0
 40
3.0
 40
3.0
 40
4.0
 40
4.0
 40
4.0
 40
4.0
 10
172.6068682718291
 20
-146.3452681213553
 10
172.0545333381616
 20
-146.3452681213553
 10
171.6068431798534
 20
-145.897577963047
 10
171.6068431798534
 20
-145.3452430293769
 10
171.6068431798534
 20
-144.7929942230914
 10
172.0545333381616
 20
-144.3452179373935
 10
172.6068682718291
 20
-144.3452179373935
 10
173.1591170781147
 20
-144.3452179373935
 10
173.6068072364229
 20
-144.7929080957017
 10
173.6068072364229
 20
-145.3452430293769
 10
173.6068072364229
 20
-145.897577963047
 10
173.1591170781147
 20
-146.3452681213553
 10
172.6068682718291
 20
-146.3452681213553
 97
        0
 97
        0
 92
        1
 93
        1
 72
     4
 94
        3
 73
     0
 74
     1
 95
       17
 96
       13
 40
0.0
 40
0.0
 40
0.0
 40
0.0
 40
1.0
 40
1.0
 40
1.0
 40
2.0
 40
2.0
 40
2.0
 40
3.0
 40
3.0
 40
3.0
 40
4.0
 40
4.0
 40
4.0
 40
4.0
 10
177.1068519946625
 20
-139.8452342145602
 10
177.659100800948
 20
-139.8452342145602
 10
178.1067909592562
 20
-140.2929243728684
 10
178.1067909592562
 20
-140.8451731791539
 10
178.1067909592562
 20
-141.3975081128291
 10
177.659100800948
 20
-141.8451982711374
 10
177.1068519946625
 20
-141.8451982711374
 10
176.5546031883769
 20
-141.8451982711374
 10
176.1068269026867
 20
-141.3975081128291
 10
176.1068269026867
 20
-140.8452593065436
 10
176.1068269026867
 20
-140.2929243728684
 10
176.5545170609949
 20
-139.8452342145602
 10
177.1068519946625
 20
-139.8452342145602
 97
        0
 97
        0
 92
        1
 93
        1
 72
     4
 94
        3
 73
     0
 74
     1
 95
       17
 96
       13
 40
0.0
 40
0.0
 40
0.0
 40
0.0
 40
1.0
 40
1.0
 40
1.0
 40
2.0
 40
2.0
 40
2.0
 40
3.0
 40
3.0
 40
3.0
 40
4.0
 40
4.0
 40
4.0
 40
4.0
 10
177.1069381220547
 20
-150.8452518441886
 10
176.5546031883769
 20
-150.8452518441886
 10
176.1069130300687
 20
-150.3975616858804
 10
176.1069130300687
 20
-149.8452267522103
 10
176.1069130300687
 20
-149.292891818535
 10
176.5546031883769
 20
-148.8452016602268
 10
177.1068519946625
 20
-148.8452016602268
 10
177.6591869283403
 20
-148.8452016602268
 10
178.1068770866485
 20
-149.292891818535
 10
178.1068770866485
 20
-149.8452267522103
 10
178.1068770866485
 20
-150.3974755584958
 10
177.6591869283403
 20
-150.8452518441886
 10
177.1069381220547
 20
-150.8452518441886
 97
        0
 97
        0
 92
        1
 93
        1
 72
     4
 94
        3
 73
     0
 74
     1
 95
       17
 96
       13
 40
0.0
 40
0.0
 40
0.0
 40
0.0
 40
1.0
 40
1.0
 40
1.0
 40
2.0
 40
2.0
 40
2.0
 40
3.0
 40
3.0
 40
3.0
 40
4.0
 40
4.0
 40
4.0
 40
4.0
 10
178.8746166155364
 20
-147.1130076502432
 10
177.8983626823986
 20
-148.0892615833784
 10
176.3154274343186
 20
-148.089347710763
 10
175.3390873737988
 20
-147.1130076502432
 10
174.362747313279
 20
-146.1366675897234
 10
174.362747313279
 20
-144.5538184690253
 10
175.3390873737988
 20
-143.5774784085056
 10
176.3153413069263
 20
-142.6011383479857
 10
177.8982765550166
 20
-142.6011383479857
 10
178.8746166155364
 20
-143.5774784085056
 10
179.850870548664
 20
-144.5537323416408
 10
179.850870548664
 20
-146.1366675897234
 10
178.8746166155364
 20
-147.1130076502432
 97
        0
 97
        0
 92
        1
 93
        1
 72
     4
 94
        3
 73
     0
 74
     1
 95
       17
 96
       13
 40
0.0
 40
0.0
 40
0.0
 40
0.0
 40
1.0
 40
1.0
 40
1.0
 40
2.0
 40
2.0
 40
2.0
 40
3.0
 40
3.0
 40
3.0
 40
4.0
 40
4.0
 40
4.0
 40
4.0
 10
181.6068357174958
 20
-146.3451819939707
 10
181.0545869112103
 20
-146.3451819939707
 10
180.6068967529021
 20
-145.8974918356625
 10
180.6068106255201
 20
-145.3451569019873
 10
180.6068106255201
 20
-144.7929080957017
 10
181.0545869112103
 20
-144.3452179373935
 10
181.6068357174958
 20
-144.3452179373935
 10
182.1590845237814
 20
-144.3452179373935
 10
182.6068608094818
 20
-144.7929080957017
 10
182.6068608094818
 20
-145.3451569019873
 10
182.6068608094818
 20
-145.8974918356625
 10
182.1590845237814
 20
-146.3451819939707
 10
181.6068357174958
 20
-146.3451819939707
 97
        0
 97
        0
 92
        1
 93
        1
 72
     4
 94
        3
 73
     0
 74
     1
 95
       17
 96
       13
 40
0.0
 40
0.0
 40
0.0
 40
0.0
 40
1.0
 40
1.0
 40
1.0
 40
2.0
 40
2.0
 40
2.0
 40
3.0
 40
3.0
 40
3.0
 40
4.0
 40
4.0
 40
4.0
 40
4.0
 10
185.6024574612886
 20
-155.1320702838747
 10
184.9120603260445
 20
-155.1320702838747
 10
184.3524045644657
 20
-154.5724145222958
 10
184.3524045644657
 20
-153.8821035144364
 10
184.3524045644657
 20
-153.1917063791923
 10
184.9120603260445
 20
-152.6320506176134
 10
185.6024574612886
 20
-152.6320506176134
 10
186.2927684691506
 20
-152.6320506176134
 10
186.8524242307295
 20
-153.1917063791923
 10
186.8524242307295
 20
-153.8821035144364
 10
186.8524242307295
 20
-154.5724145222958
 10
186.2927684691506
 20
-155.1320702838747
 10
185.6024574612886
 20
-155.1320702838747
 97
        0
 97
        0
 92
        1
 93
        1
 72
     4
 94
        3
 73
     0
 74
     1
 95
       23
 96
       19
 40
0.0
 40
0.0
 40
0.0
 40
0.0
 40
1.0
 40
1.0
 40
1.0
 40
2.0
 40
2.0
 40
2.0
 40
3.0
 40
3.0
 40
3.0
 40
4.0
 40
4.0
 40
4.0
 40
5.0
 40
5.0
 40
5.0
 40
6.0
 40
6.0
 40
6.0
 40
6.0
 10
135.4141517106684
 20
-97.76065431977956
 10
135.4141517106684
 20
-97.76065431977956
 10
144.2396250700072
 20
-97.76082657415533
 10
144.2396250700072
 20
-97.76082657415533
 10
145.1305267624928
 20
-97.7608265741162
 10
145.5767527552673
 20
-98.83793567755838
 10
144.9467309184292
 20
-99.46787138706455
 10
144.9467309184292
 20
-99.46787138706455
 10
140.5346832580596
 20
-103.8796606656731
 10
140.5346832580596
 20
-103.8796606656731
 10
140.1442678122097
 20
-104.2701622389442
 10
139.5112315167951
 20
-104.2701622389724
 10
139.1206438161388
 20
-103.8797467931257
 10
139.1206438161388
 20
-103.8797467931257
 10
134.7071319897838
 20
-99.46795751491562
 10
134.7071319897838
 20
-99.46795751491562
 10
134.0770240255033
 20
-98.83802180546593
 10
134.5231638907976
 20
-97.76065431981871
 10
135.4141517106684
 20
-97.76065431977956
 97
        0
 97
        0
 92
        1
 93
        1
 72
     4
 94
        3
 73
     0
 74
     1
 95
       23
 96
       19
 40
0.0
 40
0.0
 40
0.0
 40
0.0
 40
1.0
 40
1.0
 40
1.0
 40
2.0
 40
2.0
 40
2.0
 40
3.0
 40
3.0
 40
3.0
 40
4.0
 40
4.0
 40
4.0
 40
5.0
 40
5.0
 40
5.0
 40
6.0
 40
6.0
 40
6.0
 40
6.0
 10
139.1212467082139
 20
-112.093112812125
 10
139.5117482814496
 20
-111.7026112388501
 10
140.1447845768643
 20
-111.7026112388218
 10
140.5352861501347
 20
-112.0929405572827
 10
140.5352861501347
 20
-112.0929405572827
 10
145.0897023818397
 20
-116.6457203682285
 10
145.0897023818397
 20
-116.6457203682285
 10
145.7198964735085
 20
-117.275569950286
 10
145.2737566082187
 20
-118.3529374359338
 10
144.382768788344
 20
-118.3529374359723
 10
144.382768788344
 20
-118.3529374359723
 10
135.2755727457009
 20
-118.352851308992
 10
135.2755727457009
 20
-118.352851308992
 10
134.3846710532153
 20
-118.3528513090344
 10
133.9384450604369
 20
-117.275742205589
 10
134.5684668972751
 20
-116.6457203686983
 10
134.5684668972751
 20
-116.6457203686983
 10
139.1212467082139
 20
-112.093112812125
 10
139.1212467082139
 20
-112.093112812125
 97
        0
 97
        0
 75
     2
 76
     1
 98
        0
  0
ENDSEC
  0
SECTION
  2
OBJECTS
  0
DICTIONARY
  5
C
330
0
100
AcDbDictionary
281
     1
  3
ACAD_GROUP
350
D
  3
ACAD_LAYOUT
350
1A
  3
ACAD_MATERIAL
350
3B
  3
ACAD_MLEADERSTYLE
350
64
  3
ACAD_MLINESTYLE
350
17
  3
ACAD_PLOTSETTINGS
350
19
  3
ACAD_PLOTSTYLENAME
350
E
  3
ACAD_TABLESTYLE
350
63
  3
ACAD_VISUALSTYLE
350
2A
  0
SUN
  5
3F
330
29
100
AcDbSun
 90
        1
290
     0
 63
     7
421
 16777215
 40
1.0
291
     1
 91
  2455826
 92
 54000000
292
     0
 70
     2
 71
   256
280
     1
  0
DICTIONARY
  5
D
102
{ACAD_REACTORS
330
C
102
}
330
C
100
AcDbDictionary
281
     1
  0
DICTIONARY
  5
1A
102
{ACAD_REACTORS
330
C
102
}
330
C
100
AcDbDictionary
281
     1
  3
Layout1
350
1E
  3
Layout2
350
26
  3
Model
350
22
  0
DICTIONARY
  5
3B
102
{ACAD_REACTORS
330
C
102
}
330
C
100
AcDbDictionary
281
     1
  3
ByBlock
350
3D
  3
ByLayer
350
3C
  3
Global
350
3E
  0
DICTIONARY
  5
64
102
{ACAD_REACTORS
330
C
102
}
330
C
100
AcDbDictionary
281
     1
  0
DICTIONARY
  5
17
102
{ACAD_REACTORS
330
C
102
}
330
C
100
AcDbDictionary
281
     1
  3
Standard
350
18
  0
DICTIONARY
  5
19
102
{ACAD_REACTORS
330
C
102
}
330
C
100
AcDbDictionary
281
     1
  0
ACDBDICTIONARYWDFLT
  5
E
102
{ACAD_REACTORS
330
C
102
}
330
C
100
AcDbDictionary
281
     1
  3
Normal
350
F
100
AcDbDictionaryWithDefault
340
F
  0
DICTIONARY
  5
63
102
{ACAD_REACTORS
330
C
102
}
330
C
100
AcDbDictionary
281
     1
  0
DICTIONARY
  5
2A
102
{ACAD_REACTORS
330
C
102
}
330
C
100
AcDbDictionary
281
     1
  3
2dWireframe
350
2F
  3
3D Hidden
350
31
  3
3dWireframe
350
30
  3
Basic
350
32
  3
Brighten
350
36
  3
ColorChange
350
3A
  3
Conceptual
350
34
  3
Dim
350
35
  3
Facepattern
350
39
  3
Flat
350
2B
  3
FlatWithEdges
350
2C
  3
Gouraud
350
2D
  3
GouraudWithEdges
350
2E
  3
Linepattern
350
38
  3
Realistic
350
33
  3
Thicken
350
37
  0
LAYOUT
  5
1E
102
{ACAD_REACTORS
330
1A
102
}
330
1A
100
AcDbPlotSettings
  1

  2
none_device
  4

  6

 40
0.0
 41
0.0
 42
0.0
 43
0.0
 44
0.0
 45
0.0
 46
0.0
 47
0.0
 48
0.0
 49
0.0
140
0.0
141
0.0
142
1.0
143
1.0
 70
   688
 72
     0
 73
     0
 74
     5
  7

 75
    16
 76
     0
 77
     2
 78
   300
147
1.0
148
0.0
149
0.0
100
AcDbLayout
  1
Layout1
 70
     1
 71
     1
 10
0.0
 20
0.0
 11
12.0
 21
9.0
 12
0.0
 22
0.0
 32
0.0
 14
1.000000000000000E+20
 24
1.000000000000000E+20
 34
1.000000000000000E+20
 15
-1.000000000000000E+20
 25
-1.000000000000000E+20
 35
-1.000000000000000E+20
146
0.0
 13
0.0
 23
0.0
 33
0.0
 16
1.0
 26
0.0
 36
0.0
 17
0.0
 27
1.0
 37
0.0
 76
     0
330
1B
  0
LAYOUT
  5
26
102
{ACAD_REACTORS
330
1A
102
}
330
1A
100
AcDbPlotSettings
  1

  2
none_device
  4

  6

 40
0.0
 41
0.0
 42
0.0
 43
0.0
 44
0.0
 45
0.0
 46
0.0
 47
0.0
 48
0.0
 49
0.0
140
0.0
141
0.0
142
1.0
143
1.0
 70
   688
 72
     0
 73
     0
 74
     5
  7

 75
    16
 76
     0
 77
     2
 78
   300
147
1.0
148
0.0
149
0.0
100
AcDbLayout
  1
Layout2
 70
     1
 71
     2
 10
0.0
 20
0.0
 11
0.0
 21
0.0
 12
0.0
 22
0.0
 32
0.0
 14
0.0
 24
0.0
 34
0.0
 15
0.0
 25
0.0
 35
0.0
146
0.0
 13
0.0
 23
0.0
 33
0.0
 16
1.0
 26
0.0
 36
0.0
 17
0.0
 27
1.0
 37
0.0
 76
     0
330
23
  0
LAYOUT
  5
22
102
{ACAD_REACTORS
330
1A
102
}
330
1A
100
AcDbPlotSettings
  1

  2
none_device
  4

  6

 40
0.0
 41
0.0
 42
0.0
 43
0.0
 44
0.0
 45
0.0
 46
0.0
 47
0.0
 48
0.0
 49
0.0
140
0.0
141
0.0
142
1.0
143
1.0
 70
  1712
 72
     0
 73
     0
 74
     0
  7

 75
     0
 76
     0
 77
     2
 78
   300
147
1.0
148
0.0
149
0.0
100
AcDbLayout
  1
Model
 70
     1
 71
     0
 10
0.0
 20
0.0
 11
12.0
 21
9.0
 12
0.0
 22
0.0
 32
0.0
 14
1.000000000000000E+20
 24
1.000000000000000E+20
 34
1.000000000000000E+20
 15
-1.000000000000000E+20
 25
-1.000000000000000E+20
 35
-1.000000000000000E+20
146
0.0
 13
0.0
 23
0.0
 33
0.0
 16
1.0
 26
0.0
 36
0.0
 17
0.0
 27
1.0
 37
0.0
 76
     0
330
1F
331
29
  0
MATERIAL
  5
3D
102
{ACAD_REACTORS
330
3B
102
}
330
3B
100
AcDbMaterial
  1
ByBlock
 72
     1
 94
      127
  0
MATERIAL
  5
3C
102
{ACAD_REACTORS
330
3B
102
}
330
3B
100
AcDbMaterial
  1
ByLayer
 72
     1
 94
      127
  0
MATERIAL
  5
3E
102
{ACAD_REACTORS
330
3B
102
}
330
3B
100
AcDbMaterial
  1
Global
 72
     1
 94
      127
  0
MLINESTYLE
  5
18
102
{ACAD_REACTORS
330
17
102
}
330
17
100
AcDbMlineStyle
  2
Standard
 70
     0
  3

 62
   256
 51
90.0
 52
90.0
 71
     2
 49
0.5
 62
   256
  6
BYLAYER
 49
-0.5
 62
   256
  6
BYLAYER
  0
ACDBPLACEHOLDER
  5
F
102
{ACAD_REACTORS
330
E
102
}
330
E
  0
VISUALSTYLE
  5
2F
102
{ACAD_REACTORS
330
2A
102
}
330
2A
100
AcDbVisualStyle
  2
2dWireframe
 70
     4
177
     2
291
     0
 71
     0
176
     1
 72
     2
176
     1
 73
     0
176
     1
 90
        0
176
     1
 40
-0.6
176
     1
 41
-30.0
176
     1
 62
     5
 63
     7
421
 16777215
176
     1
 74
     1
176
     1
 91
        4
176
     1
 64
     7
176
     1
 65
   257
176
     1
 75
     1
176
     1
175
     1
176
     1
 42
1.0
176
     1
 92
        0
176
     1
 66
   257
176
     1
 43
1.0
176
     1
 76
     1
176
     1
 77
     6
176
     1
 78
     2
176
     1
 67
     7
176
     1
 79
     5
176
     1
170
     0
176
     1
171
     0
176
     1
290
     0
176
     1
 93
        1
176
     1
 44
0.0
176
     1
173
     0
176
     1
  0
VISUALSTYLE
  5
31
102
{ACAD_REACTORS
330
2A
102
}
330
2A
100
AcDbVisualStyle
  2
3D Hidden
 70
     6
177
     2
291
     0
 71
     1
176
     1
 72
     2
176
     1
 73
     2
176
     1
 90
        0
176
     1
 40
-0.6
176
     1
 41
-30.0
176
     1
 62
     5
 63
     7
421
 16777215
176
     1
 74
     2
176
     1
 91
        2
176
     1
 64
     7
176
     1
 65
   257
176
     1
 75
     2
176
     1
175
     1
176
     1
 42
40.0
176
     1
 92
        0
176
     1
 66
   257
176
     1
 43
1.0
176
     1
 76
     1
176
     1
 77
     6
176
     1
 78
     2
176
     1
 67
     7
176
     1
 79
     3
176
     1
170
     0
176
     1
171
     0
176
     1
290
     0
176
     1
 93
        1
176
     1
 44
0.0
176
     1
173
     0
176
     1
  0
VISUALSTYLE
  5
30
102
{ACAD_REACTORS
330
2A
102
}
330
2A
100
AcDbVisualStyle
  2
3dWireframe
 70
     5
177
     2
291
     0
 71
     0
176
     1
 72
     2
176
     1
 73
     0
176
     1
 90
        0
176
     1
 40
-0.6
176
     1
 41
-30.0
176
     1
 62
     5
 63
     7
421
 16777215
176
     1
 74
     1
176
     1
 91
        4
176
     1
 64
     7
176
     1
 65
   257
176
     1
 75
     1
176
     1
175
     1
176
     1
 42
1.0
176
     1
 92
        0
176
     1
 66
   257
176
     1
 43
1.0
176
     1
 76
     1
176
     1
 77
     6
176
     1
 78
     2
176
     1
 67
     7
176
     1
 79
     5
176
     1
170
     0
176
     1
171
     0
176
     1
290
     0
176
     1
 93
        1
176
     1
 44
0.0
176
     1
173
     0
176
     1
  0
VISUALSTYLE
  5
32
102
{ACAD_REACTORS
330
2A
102
}
330
2A
100
AcDbVisualStyle
  2
Basic
 70
     7
177
     2
291
     1
 71
     1
176
     1
 72
     0
176
     1
 73
     1
176
     1
 90
        0
176
     1
 40
-0.6
176
     1
 41
-30.0
176
     1
 62
     5
 63
     7
421
 16777215
176
     1
 74
     0
176
     1
 91
        4
176
     1
 64
     7
176
     1
 65
   257
176
     1
 75
     1
176
     1
175
     1
176
     1
 42
1.0
176
     1
 92
        8
176
     1
 66
     7
176
     1
 43
1.0
176
     1
 76
     1
176
     1
 77
     6
176
     1
 78
     2
176
     1
 67
     7
176
     1
 79
     5
176
     1
170
     0
176
     1
171
     0
176
     1
290
     0
176
     1
 93
        1
176
     1
 44
0.0
176
     1
173
     0
176
     1
  0
VISUALSTYLE
  5
36
102
{ACAD_REACTORS
330
2A
102
}
330
2A
100
AcDbVisualStyle
  2
Brighten
 70
    12
177
     2
291
     1
 71
     2
176
     1
 72
     2
176
     1
 73
     0
176
     1
 90
        0
176
     1
 40
-0.6
176
     1
 41
-30.0
176
     1
 62
     5
 63
     7
421
 16777215
176
     1
 74
     1
176
     1
 91
        4
176
     1
 64
     7
176
     1
 65
   257
176
     1
 75
     1
176
     1
175
     1
176
     1
 42
1.0
176
     1
 92
        8
176
     1
 66
     7
176
     1
 43
1.0
176
     1
 76
     1
176
     1
 77
     6
176
     1
 78
     2
176
     1
 67
     7
176
     1
 79
     5
176
     1
170
     0
176
     1
171
     0
176
     1
290
     0
176
     1
 93
        1
176
     1
 44
50.0
176
     1
173
     0
176
     1
  0
VISUALSTYLE
  5
3A
102
{ACAD_REACTORS
330
2A
102
}
330
2A
100
AcDbVisualStyle
  2
ColorChange
 70
    16
177
     2
291
     1
 71
     2
176
     1
 72
     2
176
     1
 73
     3
176
     1
 90
        0
176
     1
 40
-0.6
176
     1
 41
-30.0
176
     1
 62
     5
 63
     8
421
  8421504
176
     1
 74
     1
176
     1
 91
        4
176
     1
 64
     7
176
     1
 65
   257
176
     1
 75
     1
176
     1
175
     1
176
     1
 42
1.0
176
     1
 92
        8
176
     1
 66
     8
424
  8421504
176
     1
 43
1.0
176
     1
 76
     1
176
     1
 77
     6
176
     1
 78
     2
176
     1
 67
     7
176
     1
 79
     5
176
     1
170
     0
176
     1
171
     0
176
     1
290
     0
176
     1
 93
        1
176
     1
 44
0.0
176
     1
173
     0
176
     1
  0
VISUALSTYLE
  5
34
102
{ACAD_REACTORS
330
2A
102
}
330
2A
100
AcDbVisualStyle
  2
Conceptual
 70
     9
177
     2
291
     0
 71
     3
176
     1
 72
     2
176
     1
 73
     0
176
     1
 90
        0
176
     1
 40
-0.6
176
     1
 41
-30.0
176
     1
 62
     5
 63
     7
421
 16777215
176
     1
 74
     2
176
     1
 91
        2
176
     1
 64
     7
176
     1
 65
   257
176
     1
 75
     1
176
     1
175
     1
176
     1
 42
40.0
176
     1
 92
        8
176
     1
 66
     7
176
     1
 43
1.0
176
     1
 76
     1
176
     1
 77
     6
176
     1
 78
     2
176
     1
 67
     7
176
     1
 79
     3
176
     1
170
     0
176
     1
171
     0
176
     1
290
     0
176
     1
 93
        1
176
     1
 44
0.0
176
     1
173
     0
176
     1
  0
VISUALSTYLE
  5
35
102
{ACAD_REACTORS
330
2A
102
}
330
2A
100
AcDbVisualStyle
  2
Dim
 70
    11
177
     2
291
     1
 71
     2
176
     1
 72
     2
176
     1
 73
     0
176
     1
 90
        0
176
     1
 40
-0.6
176
     1
 41
-30.0
176
     1
 62
     5
 63
     7
421
 16777215
176
     1
 74
     1
176
     1
 91
        4
176
     1
 64
     7
176
     1
 65
   257
176
     1
 75
     1
176
     1
175
     1
176
     1
 42
1.0
176
     1
 92
        8
176
     1
 66
     7
176
     1
 43
1.0
176
     1
 76
     1
176
     1
 77
     6
176
     1
 78
     2
176
     1
 67
     7
176
     1
 79
     5
176
     1
170
     0
176
     1
171
     0
176
     1
290
     0
176
     1
 93
        1
176
     1
 44
-50.0
176
     1
173
     0
176
     1
  0
VISUALSTYLE
  5
39
102
{ACAD_REACTORS
330
2A
102
}
330
2A
100
AcDbVisualStyle
  2
Facepattern
 70
    15
177
     2
291
     1
 71
     2
176
     1
 72
     2
176
     1
 73
     0
176
     1
 90
        0
176
     1
 40
-0.6
176
     1
 41
-30.0
176
     1
 62
     5
 63
     7
421
 16777215
176
     1
 74
     1
176
     1
 91
        4
176
     1
 64
     7
176
     1
 65
   257
176
     1
 75
     1
176
     1
175
     1
176
     1
 42
1.0
176
     1
 92
        8
176
     1
 66
     7
176
     1
 43
1.0
176
     1
 76
     1
176
     1
 77
     6
176
     1
 78
     2
176
     1
 67
     7
176
     1
 79
     5
176
     1
170
     0
176
     1
171
     0
176
     1
290
     0
176
     1
 93
        1
176
     1
 44
0.0
176
     1
173
     0
176
     1
  0
VISUALSTYLE
  5
2B
102
{ACAD_REACTORS
330
2A
102
}
330
2A
100
AcDbVisualStyle
  2
Flat
 70
     0
177
     2
291
     1
 71
     2
176
     1
 72
     1
176
     1
 73
     1
176
     1
 90
        2
176
     1
 40
-0.6
176
     1
 41
30.0
176
     1
 62
     5
 63
     7
421
 16777215
176
     1
 74
     0
176
     1
 91
        4
176
     1
 64
     7
176
     1
 65
   257
176
     1
 75
     1
176
     1
175
     1
176
     1
 42
1.0
176
     1
 92
        8
176
     1
 66
     7
176
     1
 43
1.0
176
     1
 76
     1
176
     1
 77
     6
176
     1
 78
     2
176
     1
 67
     7
176
     1
 79
     5
176
     1
170
     0
176
     1
171
     0
176
     1
290
     0
176
     1
 93
       13
176
     1
 44
0.0
176
     1
173
     0
176
     1
  0
VISUALSTYLE
  5
2C
102
{ACAD_REACTORS
330
2A
102
}
330
2A
100
AcDbVisualStyle
  2
FlatWithEdges
 70
     1
177
     2
291
     1
 71
     2
176
     1
 72
     1
176
     1
 73
     1
176
     1
 90
        2
176
     1
 40
-0.6
176
     1
 41
30.0
176
     1
 62
     5
 63
     7
421
 16777215
176
     1
 74
     1
176
     1
 91
        4
176
     1
 64
     7
176
     1
 65
   257
176
     1
 75
     1
176
     1
175
     1
176
     1
 42
1.0
176
     1
 92
        0
176
     1
 66
   257
176
     1
 43
1.0
176
     1
 76
     1
176
     1
 77
     6
176
     1
 78
     2
176
     1
 67
     7
176
     1
 79
     5
176
     1
170
     0
176
     1
171
     0
176
     1
290
     0
176
     1
 93
       13
176
     1
 44
0.0
176
     1
173
     0
176
     1
  0
VISUALSTYLE
  5
2D
102
{ACAD_REACTORS
330
2A
102
}
330
2A
100
AcDbVisualStyle
  2
Gouraud
 70
     2
177
     2
291
     1
 71
     2
176
     1
 72
     2
176
     1
 73
     1
176
     1
 90
        2
176
     1
 40
-0.6
176
     1
 41
30.0
176
     1
 62
     5
 63
     7
421
 16777215
176
     1
 74
     0
176
     1
 91
        4
176
     1
 64
     7
176
     1
 65
   257
176
     1
 75
     1
176
     1
175
     1
176
     1
 42
1.0
176
     1
 92
        0
176
     1
 66
     7
176
     1
 43
1.0
176
     1
 76
     1
176
     1
 77
     6
176
     1
 78
     2
176
     1
 67
     7
176
     1
 79
     5
176
     1
170
     0
176
     1
171
     0
176
     1
290
     0
176
     1
 93
       13
176
     1
 44
0.0
176
     1
173
     0
176
     1
  0
VISUALSTYLE
  5
2E
102
{ACAD_REACTORS
330
2A
102
}
330
2A
100
AcDbVisualStyle
  2
GouraudWithEdges
 70
     3
177
     2
291
     1
 71
     2
176
     1
 72
     2
176
     1
 73
     1
176
     1
 90
        2
176
     1
 40
-0.6
176
     1
 41
30.0
176
     1
 62
     5
 63
     7
421
 16777215
176
     1
 74
     1
176
     1
 91
        4
176
     1
 64
     7
176
     1
 65
   257
176
     1
 75
     1
176
     1
175
     1
176
     1
 42
1.0
176
     1
 92
        0
176
     1
 66
   257
176
     1
 43
1.0
176
     1
 76
     1
176
     1
 77
     6
176
     1
 78
     2
176
     1
 67
     7
176
     1
 79
     5
176
     1
170
     0
176
     1
171
     0
176
     1
290
     0
176
     1
 93
       13
176
     1
 44
0.0
176
     1
173
     0
176
     1
  0
VISUALSTYLE
  5
38
102
{ACAD_REACTORS
330
2A
102
}
330
2A
100
AcDbVisualStyle
  2
Linepattern
 70
    14
177
     2
291
     1
 71
     2
176
     1
 72
     2
176
     1
 73
     0
176
     1
 90
        0
176
     1
 40
-0.6
176
     1
 41
-30.0
176
     1
 62
     5
 63
     7
421
 16777215
176
     1
 74
     1
176
     1
 91
        4
176
     1
 64
     7
176
     1
 65
   257
176
     1
 75
     7
176
     1
175
     7
176
     1
 42
1.0
176
     1
 92
        8
176
     1
 66
     7
176
     1
 43
1.0
176
     1
 76
     1
176
     1
 77
     6
176
     1
 78
     2
176
     1
 67
     7
176
     1
 79
     5
176
     1
170
     0
176
     1
171
     0
176
     1
290
     0
176
     1
 93
        1
176
     1
 44
0.0
176
     1
173
     0
176
     1
  0
VISUALSTYLE
  5
33
102
{ACAD_REACTORS
330
2A
102
}
330
2A
100
AcDbVisualStyle
  2
Realistic
 70
     8
177
     2
291
     0
 71
     2
176
     1
 72
     2
176
     1
 73
     0
176
     1
 90
        0
176
     1
 40
-0.6
176
     1
 41
-30.0
176
     1
 62
     5
 63
     7
421
 16777215
176
     1
 74
     1
176
     1
 91
        0
176
     1
 64
     7
176
     1
 65
   257
176
     1
 75
     1
176
     1
175
     1
176
     1
 42
1.0
176
     1
 92
        8
176
     1
 66
     8
424
  7895160
176
     1
 43
1.0
176
     1
 76
     1
176
     1
 77
     6
176
     1
 78
     2
176
     1
 67
     7
176
     1
 79
     5
176
     1
170
     0
176
     1
171
     0
176
     1
290
     0
176
     1
 93
       13
176
     1
 44
0.0
176
     1
173
     0
176
     1
  0
VISUALSTYLE
  5
37
102
{ACAD_REACTORS
330
2A
102
}
330
2A
100
AcDbVisualStyle
  2
Thicken
 70
    13
177
     2
291
     1
 71
     2
176
     1
 72
     2
176
     1
 73
     0
176
     1
 90
        0
176
     1
 40
-0.6
176
     1
 41
-30.0
176
     1
 62
     5
 63
     7
421
 16777215
176
     1
 74
     1
176
     1
 91
        4
176
     1
 64
     7
176
     1
 65
   257
176
     1
 75
     1
176
     1
175
     1
176
     1
 42
1.0
176
     1
 92
       12
176
     1
 66
     7
176
     1
 43
1.0
176
     1
 76
     1
176
     1
 77
     6
176
     1
 78
     2
176
     1
 67
     7
176
     1
 79
     5
176
     1
170
     0
176
     1
171
     0
176
     1
290
     0
176
     1
 93
        1
176
     1
 44
0.0
176
     1
173
     0
176
     1
  0
ENDSEC
  0
EOF
